  0
SECTION
  2
HEADER
  9
$ACADVER
  1
AC1009
  9
$INSBASE
 10
0.0
 20
0.0
 30
0.0
  9
$EXTMIN
 10
969096.698
 20
7256620.914
 30
0.0
  9
$EXTMAX
 10
974638.176
 20
7262033.555
 30
0.0
  9
$LIMMIN
 10
0.0
 20
0.0
  9
$LIMMAX
 10
12.0
 20
9.0
  9
$ORTHOMODE
 70
     0
  9
$REGENMODE
 70
     1
  9
$FILLMODE
 70
     1
  9
$QTEXTMODE
 70
     0
  9
$MIRRTEXT
 70
     1
  9
$DRAGMODE
 70
     2
  9
$LTSCALE
 40
1.0
  9
$OSMODE
 70
     0
  9
$ATTMODE
 70
     1
  9
$TEXTSIZE
 40
0.2
  9
$TRACEWID
 40
0.05
  9
$TEXTSTYLE
  7
STANDARD
  9
$CLAYER
  8
0
  9
$CELTYPE
  6
CONTINUOUS
  9
$CECOLOR
 62
   256
  9
$DIMSCALE
 40
1.0
  9
$DIMASZ
 40
0.18
  9
$DIMEXO
 40
0.0625
  9
$DIMDLI
 40
0.38
  9
$DIMRND
 40
0.0
  9
$DIMDLE
 40
0.0
  9
$DIMEXE
 40
0.18
  9
$DIMTP
 40
0.0
  9
$DIMTM
 40
0.0
  9
$DIMTXT
 40
0.18
  9
$DIMCEN
 40
0.09
  9
$DIMTSZ
 40
0.0
  9
$DIMTOL
 70
     0
  9
$DIMLIM
 70
     0
  9
$DIMTIH
 70
     1
  9
$DIMTOH
 70
     1
  9
$DIMSE1
 70
     0
  9
$DIMSE2
 70
     0
  9
$DIMTAD
 70
     0
  9
$DIMZIN
 70
     0
  9
$DIMBLK
  1

  9
$DIMASO
 70
     1
  9
$DIMSHO
 70
     1
  9
$DIMPOST
  1

  9
$DIMAPOST
  1

  9
$DIMALT
 70
     0
  9
$DIMALTD
 70
     2
  9
$DIMALTF
 40
25.4
  9
$DIMLFAC
 40
1.0
  9
$DIMTOFL
 70
     0
  9
$DIMTVP
 40
0.0
  9
$DIMTIX
 70
     0
  9
$DIMSOXD
 70
     0
  9
$DIMSAH
 70
     0
  9
$DIMBLK1
  1

  9
$DIMBLK2
  1

  9
$DIMSTYLE
  2
STANDARD
  9
$DIMCLRD
 70
     0
  9
$DIMCLRE
 70
     0
  9
$DIMCLRT
 70
     0
  9
$DIMTFAC
 40
1.0
  9
$DIMGAP
 40
0.09
  9
$LUNITS
 70
     2
  9
$LUPREC
 70
     4
  9
$AXISMODE
 70
     0
  9
$AXISUNIT
 10
0.0
 20
0.0
  9
$SKETCHINC
 40
0.1
  9
$FILLETRAD
 40
0.0
  9
$AUNITS
 70
     0
  9
$AUPREC
 70
     0
  9
$MENU
  1
acad
  9
$ELEVATION
 40
0.0
  9
$PELEVATION
 40
0.0
  9
$THICKNESS
 40
0.0
  9
$LIMCHECK
 70
     0
  9
$BLIPMODE
 70
     1
  9
$CHAMFERA
 40
0.0
  9
$CHAMFERB
 40
0.0
  9
$SKPOLY
 70
     0
  9
$TDCREATE
 40
2453013.903506944
  9
$TDUPDATE
 40
2453013.903506944
  9
$TDINDWG
 40
0.0000000000
  9
$TDUSRTIMER
 40
0.0000000000
  9
$USRTIMER
 70
     1
  9
$ANGBASE
 50
0.0
  9
$ANGDIR
 70
     0
  9
$PDMODE
 70
     0
  9
$PDSIZE
 40
0.0
  9
$PLINEWID
 40
0.0
  9
$COORDS
 70
     0
  9
$SPLFRAME
 70
     0
  9
$SPLINETYPE
 70
     6
  9
$SPLINESEGS
 70
    10
  9
$ATTDIA
 70
     0
  9
$ATTREQ
 70
     1
  9
$HANDLING
 70
     1
  9
$HANDSEED
  5
202
  9
$SURFTAB1
 70
     6
  9
$SURFTAB2
 70
     6
  9
$SURFTYPE
 70
     6
  9
$SURFU
 70
     6
  9
$SURFV
 70
     6
  9
$UCSNAME
  2

  9
$UCSORG
 10
0.0
 20
0.0
 30
0.0
  9
$UCSXDIR
 10
1.0
 20
0.0
 30
0.0
  9
$UCSYDIR
 10
0.0
 20
1.0
 30
0.0
  9
$PUCSNAME
  2

  9
$PUCSORG
 10
0.0
 20
0.0
 30
0.0
  9
$PUCSXDIR
 10
1.0
 20
0.0
 30
0.0
  9
$PUCSYDIR
 10
0.0
 20
1.0
 30
0.0
  9
$USERI1
 70
     0
  9
$USERI2
 70
     0
  9
$USERI3
 70
     0
  9
$USERI4
 70
     0
  9
$USERI5
 70
     0
  9
$USERR1
 40
0.0
  9
$USERR2
 40
0.0
  9
$USERR3
 40
0.0
  9
$USERR4
 40
0.0
  9
$USERR5
 40
0.0
  9
$WORLDVIEW
 70
     1
  9
$SHADEDGE
 70
     3
  9
$SHADEDIF
 70
    70
  9
$TILEMODE
 70
     1
  9
$MAXACTVP
 70
    16
  9
$PINSBASE
 10
0.0
 20
0.0
 30
0.0
  9
$PLIMCHECK
 70
     0
  9
$PEXTMIN
 10
-1.000000E+20
 20
-1.000000E+20
 30
-1.000000E+20
  9
$PEXTMAX
 10
-1.000000E+20
 20
-1.000000E+20
 30
-1.000000E+20
  9
$PLIMMIN
 10
0.0
 20
0.0
  9
$PLIMMAX
 10
12.0
 20
9.0
  9
$UNITMODE
 70
     0
  9
$VISRETAIN
 70
     0
  9
$PLINEGEN
 70
     1
  9
$PSLTSCALE
 70
     0
  9
$TREEDEPTH
 70
  3020
  9
$DWGCODEPAGE
  3
ansi_1252
  0
ENDSEC
  0
SECTION
  2
TABLES
  0
TABLE
  2
VPORT
 70
     1
  0
VPORT
  2
*ACTIVE
 70
     0
 10
0.0
 20
0.0
 11
1.0
 21
1.0
 12
0.0
 22
0.0
 13
0.0
 23
0.0
 14
0.0
 24
0.0
 15
0.0
 25
0.0
 16
0.0
 26
0.0
 36
1.0
 17
971593.692136
 27
7259174.648347
 37
0.0
 40
5395.351
 41
1.225627
 42
50.0
 43
0.004
 44
0.0
 50
1.817802
 51
0.0
 71
     0
 72
   100
 73
     1
 74
     0
 75
     0
 76
     0
 77
     0
 78
     0
  0
ENDTAB
  0
TABLE
  2
LTYPE
 70
     7
  0
LTYPE
  2
CONTINUOUS
 70
     0
  3
Solid line
 72
    65
 73
     0
 40
0.0
  0
LTYPE
  2
DOT
 70
    64
  3
. . . . . . . . . . . . . . . . . . . . . . . . . . . . . . . . .
 72
    65
 73
     2
 40
0.25
 49
0.0
 49
-0.25
  0
LTYPE
  2
HIDDEN
 70
    64
  3
__ __ __ __ __ __ __ __ __ __ __ __ __ __ __ __ __ __ __ __ __ 
 72
    65
 73
     2
 40
0.375
 49
0.25
 49
-0.125
  0
LTYPE
  2
DASHED
 70
    64
  3
__ __ __ __ __ __ __ __ __ __ __ __ __ __ __ __ __ __ __ __ __
 72
    65
 73
     2
 40
0.75
 49
0.5
 49
-0.25
  0
LTYPE
  2
DASHDOT
 70
    64
  3
__ . __ . __ . __ . __ . __ . __ . __ . __ . __ . __ . __ . _
 72
    65
 73
     4
 40
1.0
 49
0.5
 49
-0.25
 49
0.0
 49
-0.25
  0
LTYPE
  2
DIVIDE
 70
    64
  3
____ . . ____ . . ____ . . ____ . . ____ . . ____ . . ____ . .
 72
    65
 73
     6
 40
1.25
 49
0.5
 49
-0.25
 49
0.0
 49
-0.25
 49
0.0
 49
-0.25
  0
LTYPE
  2
CENTER
 70
    64
  3
____ _ ____ _ ____ _ ____ _ ____ _ ____ _ ____ _ ____ _ ____ _
 72
    65
 73
     4
 40
2.0
 49
1.25
 49
-0.25
 49
0.25
 49
-0.25
  0
ENDTAB
  0
TABLE
  2
LAYER
 70
    14
  0
LAYER
  2
0
 70
     0
 62
     7
  6
CONTINUOUS
  0
LAYER
  2
CONSTRUCTION_CLASS
 70
     1
 62
     7
  6
CONTINUOUS
  0
LAYER
  2
PATTERN_CLASS
 70
     0
 62
     7
  6
CONTINUOUS
  0
LAYER
  2
6
 70
    64
 62
     7
  6
CONTINUOUS
  0
LAYER
  2
7
 70
    64
 62
     7
  6
CONTINUOUS
  0
LAYER
  2
10
 70
    64
 62
     7
  6
CONTINUOUS
  0
LAYER
  2
15
 70
    64
 62
     7
  6
CONTINUOUS
  0
LAYER
  2
11
 70
    64
 62
     7
  6
CONTINUOUS
  0
LAYER
  2
19
 70
    64
 62
     7
  6
CONTINUOUS
  0
LAYER
  2
21
 70
    64
 62
     7
  6
CONTINUOUS
  0
LAYER
  2
13
 70
    64
 62
     7
  6
CONTINUOUS
  0
LAYER
  2
8
 70
    64
 62
     7
  6
CONTINUOUS
  0
LAYER
  2
1
 70
    64
 62
     7
  6
CONTINUOUS
  0
LAYER
  2
58
 70
    64
 62
     7
  6
CONTINUOUS
  0
ENDTAB
  0
TABLE
  2
STYLE
 70
     4
  0
STYLE
  2
STANDARD
 70
     0
 40
0.0
 41
1.0
 50
0.0
 71
     0
 42
0.0
  3
txt
  4

  0
STYLE
  2
ROMANS
 70
     0
 40
0.2
 41
1.0
 50
0.0
 71
     0
 42
0.2
  3
ROMANS
  4

  0
STYLE
  2
ROMANC
 70
     0
 40
0.2
 41
1.0
 50
0.0
 71
     0
 42
0.2
  3
ROMANC
  4

  0
STYLE
  2
txt
 70
     0
 40
0.2
 41
1.0
 50
0.0
 71
     0
 42
0.2
  3
TXT
  4

  0
ENDTAB
  0
TABLE
  2
VIEW
 70
     0
  0
ENDTAB
  0
TABLE
  2
UCS
 70
     0
  0
ENDTAB
  0
TABLE
  2
APPID
 70
     1
  0
APPID
  2
ACAD
 70
     0
  0
ENDTAB
  0
TABLE
  2
DIMSTYLE
 70
     1
  0
DIMSTYLE
  2
STANDARD
 70
     0
  3

  4

  5

  6

  7

 40
1.0
 41
0.18
 42
0.0625
 43
0.38
 44
0.18
 45
0.0
 46
0.0
 47
0.0
 48
0.0
140
0.18
141
0.09
142
0.0
143
25.4
144
1.0
145
0.0
146
1.0
147
0.09
 71
     0
 72
     0
 73
     1
 74
     1
 75
     0
 76
     0
 77
     0
 78
     0
170
     0
171
     2
172
     0
173
     0
174
     0
175
     0
176
     0
177
     0
178
     0
  0
ENDTAB
  0
ENDSEC
  0
SECTION
  2
BLOCKS
  0
ENDSEC
  0
SECTION
  2
ENTITIES
  0
LINE
  8
6
  6
CONTINUOUS
 62
     7
  5
29
 10
969141.249
 20
7258902.089
 30
0.0
 11
969731.09
 21
7258886.591
 31
0.0
  0
LINE
  8
6
  6
CONTINUOUS
 62
     7
  5
2A
 10
969139.726
 20
7258846.109
 30
0.0
 11
969658.645
 21
7258832.475
 31
0.0
  0
ARC
  8
6
  6
CONTINUOUS
 62
     7
  5
2B
 10
969658.250119
 20
7258817.479907
 30
0.0
 40
15.0
 50
358.494942
 51
88.494942
210
0.0
220
0.0
230
1.0
  0
LINE
  8
6
  6
CONTINUOUS
 62
     7
  5
2C
 10
969136.458
 20
7258726.154
 30
0.0
 11
969670.487
 21
7258712.122
 31
0.0
  0
LINE
  8
6
  6
CONTINUOUS
 62
     7
  5
2D
 10
969135.912
 20
7258706.16
 30
0.0
 11
969669.962
 21
7258692.129
 31
0.0
  0
LINE
  8
6
  6
CONTINUOUS
 62
     7
  5
2E
 10
969132.644
 20
7258586.205
 30
0.0
 11
969651.815
 21
7258572.564
 31
0.0
  0
LINE
  8
6
  6
CONTINUOUS
 62
     7
  5
2F
 10
969131.12
 20
7258530.225
 30
0.0
 11
969650.345
 21
7258516.584
 31
0.0
  0
LINE
  8
6
  6
CONTINUOUS
 62
     7
  5
30
 10
969127.852
 20
7258410.27
 30
0.0
 11
969662.188
 21
7258396.231
 31
0.0
  0
LINE
  8
6
  6
CONTINUOUS
 62
     7
  5
31
 10
969127.307
 20
7258390.278
 30
0.0
 11
969661.662
 21
7258376.237
 31
0.0
  0
LINE
  8
6
  6
CONTINUOUS
 62
     7
  5
32
 10
969124.04
 20
7258270.321
 30
0.0
 11
969643.516
 21
7258256.674
 31
0.0
  0
LINE
  8
6
  6
CONTINUOUS
 62
     7
  5
33
 10
969122.515
 20
7258214.343
 30
0.0
 11
969642.045
 21
7258200.693
 31
0.0
  0
LINE
  8
6
  6
CONTINUOUS
 62
     7
  5
34
 10
969119.246
 20
7258094.388
 30
0.0
 11
969653.888
 21
7258080.34
 31
0.0
  0
LINE
  8
6
  6
CONTINUOUS
 62
     7
  5
35
 10
969118.702
 20
7258074.395
 30
0.0
 11
969653.362
 21
7258060.347
 31
0.0
  0
LINE
  8
6
  6
CONTINUOUS
 62
     7
  5
36
 10
969115.434
 20
7257954.438
 30
0.0
 11
969635.215
 21
7257940.782
 31
0.0
  0
LINE
  8
6
  6
CONTINUOUS
 62
     7
  5
37
 10
969113.908
 20
7257898.459
 30
0.0
 11
969633.744
 21
7257884.802
 31
0.0
  0
LINE
  8
6
  6
CONTINUOUS
 62
     7
  5
38
 10
969110.64
 20
7257778.505
 30
0.0
 11
969645.588
 21
7257764.449
 31
0.0
  0
LINE
  8
6
  6
CONTINUOUS
 62
     7
  5
39
 10
969110.097
 20
7257758.512
 30
0.0
 11
969645.062
 21
7257744.457
 31
0.0
  0
LINE
  8
6
  6
CONTINUOUS
 62
     7
  5
3A
 10
969106.829
 20
7257638.557
 30
0.0
 11
969626.916
 21
7257624.892
 31
0.0
  0
LINE
  8
6
  6
CONTINUOUS
 62
     7
  5
3B
 10
969105.303
 20
7257582.577
 30
0.0
 11
969625.445
 21
7257568.91
 31
0.0
  0
LINE
  8
6
  6
CONTINUOUS
 62
     7
  5
3C
 10
969673.245
 20
7258817.086
 30
0.0
 11
969670.487
 21
7258712.122
 31
0.0
  0
LINE
  8
6
  6
CONTINUOUS
 62
     7
  5
3D
 10
969669.962
 20
7258692.129
 30
0.0
 11
969667.203
 21
7258587.166
 31
0.0
  0
LINE
  8
6
  6
CONTINUOUS
 62
     7
  5
3E
 10
969664.946
 20
7258501.195
 30
0.0
 11
969662.188
 21
7258396.231
 31
0.0
  0
LINE
  8
6
  6
CONTINUOUS
 62
     7
  5
3F
 10
969661.662
 20
7258376.237
 30
0.0
 11
969658.904
 21
7258271.274
 31
0.0
  0
LINE
  8
6
  6
CONTINUOUS
 62
     7
  5
40
 10
969656.645
 20
7258185.304
 30
0.0
 11
969653.888
 21
7258080.34
 31
0.0
  0
LINE
  8
6
  6
CONTINUOUS
 62
     7
  5
41
 10
969653.362
 20
7258060.347
 30
0.0
 11
969650.605
 21
7257955.384
 31
0.0
  0
LINE
  8
6
  6
CONTINUOUS
 62
     7
  5
42
 10
969648.346
 20
7257869.413
 30
0.0
 11
969645.588
 21
7257764.449
 31
0.0
  0
LINE
  8
6
  6
CONTINUOUS
 62
     7
  5
43
 10
969645.062
 20
7257744.457
 30
0.0
 11
969642.305
 21
7257639.492
 31
0.0
  0
ARC
  8
6
  6
CONTINUOUS
 62
     7
  5
44
 10
969652.209123
 20
7258587.559255
 30
0.0
 40
15.0
 50
268.494942
 51
358.494942
210
0.0
220
0.0
230
1.0
  0
ARC
  8
6
  6
CONTINUOUS
 62
     7
  5
45
 10
969649.950315
 20
7258501.588924
 30
0.0
 40
15.0
 50
358.494942
 51
88.494942
210
0.0
220
0.0
230
1.0
  0
ARC
  8
6
  6
CONTINUOUS
 62
     7
  5
46
 10
969643.909319
 20
7258271.668272
 30
0.0
 40
15.0
 50
268.494942
 51
358.494942
210
0.0
220
0.0
230
1.0
  0
ARC
  8
6
  6
CONTINUOUS
 62
     7
  5
47
 10
969641.650511
 20
7258185.697941
 30
0.0
 40
15.0
 50
358.494942
 51
88.494942
210
0.0
220
0.0
230
1.0
  0
ARC
  8
6
  6
CONTINUOUS
 62
     7
  5
48
 10
969635.609515
 20
7257955.777289
 30
0.0
 40
15.0
 50
268.494942
 51
358.494942
210
0.0
220
0.0
230
1.0
  0
ARC
  8
6
  6
CONTINUOUS
 62
     7
  5
49
 10
969633.350707
 20
7257869.806958
 30
0.0
 40
15.0
 50
358.494942
 51
88.494942
210
0.0
220
0.0
230
1.0
  0
ARC
  8
6
  6
CONTINUOUS
 62
     7
  5
4A
 10
969627.309711
 20
7257639.886306
 30
0.0
 40
15.0
 50
268.494942
 51
358.494942
210
0.0
220
0.0
230
1.0
  0
ARC
  8
6
  6
CONTINUOUS
 62
     7
  5
4B
 10
969625.050903
 20
7257553.915975
 30
0.0
 40
15.0
 50
358.494942
 51
88.494942
210
0.0
220
0.0
230
1.0
  0
LINE
  8
6
  6
CONTINUOUS
 62
     7
  5
4C
 10
969618.616
 20
7257309.001
 30
0.0
 11
969098.223
 21
7257322.673
 31
0.0
  0
LINE
  8
6
  6
CONTINUOUS
 62
     7
  5
4D
 10
969636.763
 20
7257428.565
 30
0.0
 11
969101.491
 21
7257442.63
 31
0.0
  0
LINE
  8
6
  6
CONTINUOUS
 62
     7
  5
4E
 10
969102.036
 20
7257462.621
 30
0.0
 11
969637.288
 21
7257448.558
 31
0.0
  0
LINE
  8
6
  6
CONTINUOUS
 62
     7
  5
4F
 10
969640.045
 20
7257553.522
 30
0.0
 11
969637.288
 21
7257448.558
 31
0.0
  0
LINE
  8
6
  6
CONTINUOUS
 62
     7
  5
50
 10
969636.763
 20
7257428.565
 30
0.0
 11
969634.005
 21
7257323.601
 31
0.0
  0
ARC
  8
6
  6
CONTINUOUS
 62
     7
  5
51
 10
969619.009907
 20
7257323.995322
 30
0.0
 40
15.0
 50
268.494942
 51
358.494942
210
0.0
220
0.0
230
1.0
  0
LINE
  8
7
  6
CONTINUOUS
 62
     7
  5
53
 10
969598.665
 20
7258834.051
 30
0.0
 11
969595.513
 21
7258714.092
 31
0.0
  0
LINE
  8
7
  6
CONTINUOUS
 62
     7
  5
54
 10
969594.988
 20
7258694.099
 30
0.0
 11
969591.836
 21
7258574.14
 31
0.0
  0
LINE
  8
7
  6
CONTINUOUS
 62
     7
  5
55
 10
969590.365
 20
7258518.16
 30
0.0
 11
969587.213
 21
7258398.201
 31
0.0
  0
LINE
  8
7
  6
CONTINUOUS
 62
     7
  5
56
 10
969586.689
 20
7258378.208
 30
0.0
 11
969583.537
 21
7258258.25
 31
0.0
  0
LINE
  8
7
  6
CONTINUOUS
 62
     7
  5
57
 10
969582.065
 20
7258202.268
 30
0.0
 11
969578.914
 21
7258082.311
 31
0.0
  0
LINE
  8
7
  6
CONTINUOUS
 62
     7
  5
58
 10
969578.388
 20
7258062.317
 30
0.0
 11
969575.236
 21
7257942.358
 31
0.0
  0
LINE
  8
7
  6
CONTINUOUS
 62
     7
  5
59
 10
969573.765
 20
7257886.378
 30
0.0
 11
969570.613
 21
7257766.419
 31
0.0
  0
LINE
  8
7
  6
CONTINUOUS
 62
     7
  5
5A
 10
969570.088
 20
7257746.426
 30
0.0
 11
969566.936
 21
7257626.467
 31
0.0
  0
LINE
  8
7
  6
CONTINUOUS
 62
     7
  5
5B
 10
969565.466
 20
7257570.486
 30
0.0
 11
969562.314
 21
7257450.528
 31
0.0
  0
LINE
  8
7
  6
CONTINUOUS
 62
     7
  5
5C
 10
969561.788
 20
7257430.535
 30
0.0
 11
969558.636
 21
7257310.577
 31
0.0
  0
LINE
  8
7
  6
CONTINUOUS
 62
     7
  5
5D
 10
969538.686
 20
7258835.627
 30
0.0
 11
969535.534
 21
7258715.668
 31
0.0
  0
LINE
  8
7
  6
CONTINUOUS
 62
     7
  5
5E
 10
969478.706
 20
7258837.202
 30
0.0
 11
969475.554
 21
7258717.244
 31
0.0
  0
LINE
  8
7
  6
CONTINUOUS
 62
     7
  5
5F
 10
969418.727
 20
7258838.778
 30
0.0
 11
969415.574
 21
7258718.819
 31
0.0
  0
LINE
  8
7
  6
CONTINUOUS
 62
     7
  5
60
 10
969358.747
 20
7258840.354
 30
0.0
 11
969355.595
 21
7258720.395
 31
0.0
  0
LINE
  8
7
  6
CONTINUOUS
 62
     7
  5
61
 10
969298.769
 20
7258841.93
 30
0.0
 11
969295.616
 21
7258721.971
 31
0.0
  0
LINE
  8
7
  6
CONTINUOUS
 62
     7
  5
62
 10
969238.789
 20
7258843.506
 30
0.0
 11
969235.637
 21
7258723.547
 31
0.0
  0
LINE
  8
7
  6
CONTINUOUS
 62
     7
  5
63
 10
969178.809
 20
7258845.082
 30
0.0
 11
969175.658
 21
7258725.123
 31
0.0
  0
LINE
  8
7
  6
CONTINUOUS
 62
     7
  5
64
 10
969535.008
 20
7258695.675
 30
0.0
 11
969531.856
 21
7258575.716
 31
0.0
  0
LINE
  8
7
  6
CONTINUOUS
 62
     7
  5
65
 10
969475.029
 20
7258697.251
 30
0.0
 11
969471.877
 21
7258577.292
 31
0.0
  0
LINE
  8
7
  6
CONTINUOUS
 62
     7
  5
66
 10
969415.05
 20
7258698.827
 30
0.0
 11
969411.898
 21
7258578.868
 31
0.0
  0
LINE
  8
7
  6
CONTINUOUS
 62
     7
  5
67
 10
969355.071
 20
7258700.403
 30
0.0
 11
969351.919
 21
7258580.444
 31
0.0
  0
LINE
  8
7
  6
CONTINUOUS
 62
     7
  5
68
 10
969295.091
 20
7258701.979
 30
0.0
 11
969291.939
 21
7258582.02
 31
0.0
  0
LINE
  8
7
  6
CONTINUOUS
 62
     7
  5
69
 10
969235.112
 20
7258703.554
 30
0.0
 11
969231.959
 21
7258583.596
 31
0.0
  0
LINE
  8
7
  6
CONTINUOUS
 62
     7
  5
6A
 10
969175.132
 20
7258705.13
 30
0.0
 11
969171.98
 21
7258585.171
 31
0.0
  0
LINE
  8
7
  6
CONTINUOUS
 62
     7
  5
6B
 10
969530.386
 20
7258519.736
 30
0.0
 11
969527.233
 21
7258399.777
 31
0.0
  0
LINE
  8
7
  6
CONTINUOUS
 62
     7
  5
6C
 10
969470.407
 20
7258521.312
 30
0.0
 11
969467.255
 21
7258401.353
 31
0.0
  0
LINE
  8
7
  6
CONTINUOUS
 62
     7
  5
6D
 10
969410.427
 20
7258522.888
 30
0.0
 11
969407.275
 21
7258402.929
 31
0.0
  0
LINE
  8
7
  6
CONTINUOUS
 62
     7
  5
6E
 10
969350.448
 20
7258524.464
 30
0.0
 11
969347.296
 21
7258404.505
 31
0.0
  0
LINE
  8
7
  6
CONTINUOUS
 62
     7
  5
6F
 10
969290.468
 20
7258526.039
 30
0.0
 11
969287.316
 21
7258406.081
 31
0.0
  0
LINE
  8
7
  6
CONTINUOUS
 62
     7
  5
70
 10
969230.489
 20
7258527.615
 30
0.0
 11
969227.337
 21
7258407.656
 31
0.0
  0
LINE
  8
7
  6
CONTINUOUS
 62
     7
  5
71
 10
969170.509
 20
7258529.191
 30
0.0
 11
969167.358
 21
7258409.232
 31
0.0
  0
LINE
  8
7
  6
CONTINUOUS
 62
     7
  5
72
 10
969526.709
 20
7258379.783
 30
0.0
 11
969523.557
 21
7258259.826
 31
0.0
  0
LINE
  8
7
  6
CONTINUOUS
 62
     7
  5
73
 10
969466.73
 20
7258381.359
 30
0.0
 11
969463.577
 21
7258261.401
 31
0.0
  0
LINE
  8
7
  6
CONTINUOUS
 62
     7
  5
74
 10
969406.75
 20
7258382.935
 30
0.0
 11
969403.598
 21
7258262.977
 31
0.0
  0
LINE
  8
7
  6
CONTINUOUS
 62
     7
  5
75
 10
969346.771
 20
7258384.511
 30
0.0
 11
969343.618
 21
7258264.553
 31
0.0
  0
LINE
  8
7
  6
CONTINUOUS
 62
     7
  5
76
 10
969286.792
 20
7258386.087
 30
0.0
 11
969283.64
 21
7258266.129
 31
0.0
  0
LINE
  8
7
  6
CONTINUOUS
 62
     7
  5
77
 10
969226.812
 20
7258387.663
 30
0.0
 11
969223.66
 21
7258267.705
 31
0.0
  0
LINE
  8
7
  6
CONTINUOUS
 62
     7
  5
78
 10
969166.833
 20
7258389.239
 30
0.0
 11
969163.681
 21
7258269.281
 31
0.0
  0
LINE
  8
7
  6
CONTINUOUS
 62
     7
  5
79
 10
969522.085
 20
7258203.844
 30
0.0
 11
969518.934
 21
7258083.886
 31
0.0
  0
LINE
  8
7
  6
CONTINUOUS
 62
     7
  5
7A
 10
969462.106
 20
7258205.42
 30
0.0
 11
969458.955
 21
7258085.462
 31
0.0
  0
LINE
  8
7
  6
CONTINUOUS
 62
     7
  5
7B
 10
969402.127
 20
7258206.996
 30
0.0
 11
969398.975
 21
7258087.038
 31
0.0
  0
LINE
  8
7
  6
CONTINUOUS
 62
     7
  5
7C
 10
969342.149
 20
7258208.572
 30
0.0
 11
969338.997
 21
7258088.614
 31
0.0
  0
LINE
  8
7
  6
CONTINUOUS
 62
     7
  5
7D
 10
969282.169
 20
7258210.148
 30
0.0
 11
969279.017
 21
7258090.19
 31
0.0
  0
LINE
  8
7
  6
CONTINUOUS
 62
     7
  5
7E
 10
969222.19
 20
7258211.724
 30
0.0
 11
969219.038
 21
7258091.766
 31
0.0
  0
LINE
  8
7
  6
CONTINUOUS
 62
     7
  5
7F
 10
969162.21
 20
7258213.3
 30
0.0
 11
969159.058
 21
7258093.342
 31
0.0
  0
LINE
  8
7
  6
CONTINUOUS
 62
     7
  5
80
 10
969518.408
 20
7258063.893
 30
0.0
 11
969515.257
 21
7257943.934
 31
0.0
  0
LINE
  8
7
  6
CONTINUOUS
 62
     7
  5
81
 10
969458.43
 20
7258065.469
 30
0.0
 11
969455.278
 21
7257945.51
 31
0.0
  0
LINE
  8
7
  6
CONTINUOUS
 62
     7
  5
82
 10
969398.45
 20
7258067.045
 30
0.0
 11
969395.299
 21
7257947.086
 31
0.0
  0
LINE
  8
7
  6
CONTINUOUS
 62
     7
  5
83
 10
969338.471
 20
7258068.62
 30
0.0
 11
969335.319
 21
7257948.662
 31
0.0
  0
LINE
  8
7
  6
CONTINUOUS
 62
     7
  5
84
 10
969278.492
 20
7258070.196
 30
0.0
 11
969275.34
 21
7257950.237
 31
0.0
  0
LINE
  8
7
  6
CONTINUOUS
 62
     7
  5
85
 10
969218.512
 20
7258071.772
 30
0.0
 11
969215.36
 21
7257951.813
 31
0.0
  0
LINE
  8
7
  6
CONTINUOUS
 62
     7
  5
86
 10
969158.533
 20
7258073.348
 30
0.0
 11
969155.381
 21
7257953.389
 31
0.0
  0
LINE
  8
7
  6
CONTINUOUS
 62
     7
  5
87
 10
969513.786
 20
7257887.954
 30
0.0
 11
969510.634
 21
7257767.995
 31
0.0
  0
LINE
  8
7
  6
CONTINUOUS
 62
     7
  5
88
 10
969453.807
 20
7257889.53
 30
0.0
 11
969450.655
 21
7257769.571
 31
0.0
  0
LINE
  8
7
  6
CONTINUOUS
 62
     7
  5
89
 10
969393.827
 20
7257891.105
 30
0.0
 11
969390.676
 21
7257771.147
 31
0.0
  0
LINE
  8
7
  6
CONTINUOUS
 62
     7
  5
8A
 10
969333.848
 20
7257892.681
 30
0.0
 11
969330.697
 21
7257772.723
 31
0.0
  0
LINE
  8
7
  6
CONTINUOUS
 62
     7
  5
8B
 10
969273.868
 20
7257894.257
 30
0.0
 11
969270.717
 21
7257774.298
 31
0.0
  0
LINE
  8
7
  6
CONTINUOUS
 62
     7
  5
8C
 10
969213.889
 20
7257895.833
 30
0.0
 11
969210.738
 21
7257775.874
 31
0.0
  0
LINE
  8
7
  6
CONTINUOUS
 62
     7
  5
8D
 10
969153.911
 20
7257897.409
 30
0.0
 11
969150.759
 21
7257777.45
 31
0.0
  0
LINE
  8
7
  6
CONTINUOUS
 62
     7
  5
8E
 10
969510.109
 20
7257748.002
 30
0.0
 11
969506.957
 21
7257628.043
 31
0.0
  0
LINE
  8
7
  6
CONTINUOUS
 62
     7
  5
8F
 10
969450.129
 20
7257749.578
 30
0.0
 11
969446.977
 21
7257629.619
 31
0.0
  0
LINE
  8
7
  6
CONTINUOUS
 62
     7
  5
90
 10
969390.15
 20
7257751.154
 30
0.0
 11
969386.998
 21
7257631.195
 31
0.0
  0
LINE
  8
7
  6
CONTINUOUS
 62
     7
  5
91
 10
969330.17
 20
7257752.73
 30
0.0
 11
969327.019
 21
7257632.771
 31
0.0
  0
LINE
  8
7
  6
CONTINUOUS
 62
     7
  5
92
 10
969270.192
 20
7257754.306
 30
0.0
 11
969267.041
 21
7257634.347
 31
0.0
  0
LINE
  8
7
  6
CONTINUOUS
 62
     7
  5
93
 10
969210.212
 20
7257755.882
 30
0.0
 11
969207.061
 21
7257635.923
 31
0.0
  0
LINE
  8
7
  6
CONTINUOUS
 62
     7
  5
94
 10
969150.233
 20
7257757.457
 30
0.0
 11
969147.082
 21
7257637.499
 31
0.0
  0
LINE
  8
7
  6
CONTINUOUS
 62
     7
  5
95
 10
969505.486
 20
7257572.062
 30
0.0
 11
969502.334
 21
7257452.104
 31
0.0
  0
LINE
  8
7
  6
CONTINUOUS
 62
     7
  5
96
 10
969445.507
 20
7257573.638
 30
0.0
 11
969442.355
 21
7257453.68
 31
0.0
  0
LINE
  8
7
  6
CONTINUOUS
 62
     7
  5
97
 10
969385.527
 20
7257575.214
 30
0.0
 11
969382.375
 21
7257455.256
 31
0.0
  0
LINE
  8
7
  6
CONTINUOUS
 62
     7
  5
98
 10
969325.549
 20
7257576.79
 30
0.0
 11
969322.397
 21
7257456.832
 31
0.0
  0
LINE
  8
7
  6
CONTINUOUS
 62
     7
  5
99
 10
969265.569
 20
7257578.366
 30
0.0
 11
969262.417
 21
7257458.408
 31
0.0
  0
LINE
  8
7
  6
CONTINUOUS
 62
     7
  5
9A
 10
969205.59
 20
7257579.942
 30
0.0
 11
969202.438
 21
7257459.984
 31
0.0
  0
LINE
  8
7
  6
CONTINUOUS
 62
     7
  5
9B
 10
969145.61
 20
7257581.517
 30
0.0
 11
969142.459
 21
7257461.56
 31
0.0
  0
LINE
  8
7
  6
CONTINUOUS
 62
     7
  5
9C
 10
969501.809
 20
7257432.111
 30
0.0
 11
969498.657
 21
7257312.152
 31
0.0
  0
LINE
  8
7
  6
CONTINUOUS
 62
     7
  5
9D
 10
969441.83
 20
7257433.686
 30
0.0
 11
969438.678
 21
7257313.728
 31
0.0
  0
LINE
  8
7
  6
CONTINUOUS
 62
     7
  5
9E
 10
969381.851
 20
7257435.262
 30
0.0
 11
969378.699
 21
7257315.303
 31
0.0
  0
LINE
  8
7
  6
CONTINUOUS
 62
     7
  5
9F
 10
969321.871
 20
7257436.838
 30
0.0
 11
969318.719
 21
7257316.879
 31
0.0
  0
LINE
  8
7
  6
CONTINUOUS
 62
     7
  5
A0
 10
969261.892
 20
7257438.414
 30
0.0
 11
969258.74
 21
7257318.455
 31
0.0
  0
LINE
  8
7
  6
CONTINUOUS
 62
     7
  5
A1
 10
969201.912
 20
7257439.99
 30
0.0
 11
969198.76
 21
7257320.031
 31
0.0
  0
LINE
  8
7
  6
CONTINUOUS
 62
     7
  5
A2
 10
969141.933
 20
7257441.566
 30
0.0
 11
969138.782
 21
7257321.607
 31
0.0
  0
TEXT
  8
10
  6
CONTINUOUS
 62
   134
  5
A5
 10
969158.254
 20
7257377.358
 30
0.0
 40
13.999
  1
76
 50
358.494942
  7
ROMANS
210
0.0
220
0.0
230
1.0
  0
TEXT
  8
10
  6
CONTINUOUS
 62
   134
  5
A6
 10
969220.48
 20
7257375.722
 30
0.0
 40
13.999
  1
77
 50
358.494942
  7
ROMANS
210
0.0
220
0.0
230
1.0
  0
TEXT
  8
10
  6
CONTINUOUS
 62
   134
  5
A7
 10
969280.215
 20
7257374.153
 30
0.0
 40
13.999
  1
78
 50
358.494942
  7
ROMANS
210
0.0
220
0.0
230
1.0
  0
TEXT
  8
10
  6
CONTINUOUS
 62
   134
  5
A8
 10
969342.441
 20
7257372.517
 30
0.0
 40
13.999
  1
79
 50
358.494942
  7
ROMANS
210
0.0
220
0.0
230
1.0
  0
TEXT
  8
10
  6
CONTINUOUS
 62
   134
  5
A9
 10
969397.2
 20
7257371.08
 30
0.0
 40
13.999
  1
80
 50
358.494942
  7
ROMANS
210
0.0
220
0.0
230
1.0
  0
TEXT
  8
10
  6
CONTINUOUS
 62
   134
  5
AA
 10
969459.424
 20
7257369.445
 30
0.0
 40
13.999
  1
81
 50
358.494942
  7
ROMANS
210
0.0
220
0.0
230
1.0
  0
TEXT
  8
10
  6
CONTINUOUS
 62
   134
  5
AB
 10
969516.672
 20
7257367.94
 30
0.0
 40
13.999
  1
82
 50
358.494942
  7
ROMANS
210
0.0
220
0.0
230
1.0
  0
TEXT
  8
10
  6
CONTINUOUS
 62
   134
  5
AC
 10
969578.897
 20
7257366.305
 30
0.0
 40
13.999
  1
83
 50
358.494942
  7
ROMANS
210
0.0
220
0.0
230
1.0
  0
TEXT
  8
10
  6
CONTINUOUS
 62
   134
  5
AD
 10
969582.367
 20
7257498.342
 30
0.0
 40
13.999
  1
84
 50
358.494942
  7
ROMANS
210
0.0
220
0.0
230
1.0
  0
TEXT
  8
10
  6
CONTINUOUS
 62
   134
  5
AE
 10
969530.097
 20
7257499.715
 30
0.0
 40
13.999
  1
85
 50
358.494942
  7
ROMANS
210
0.0
220
0.0
230
1.0
  0
TEXT
  8
10
  6
CONTINUOUS
 62
   134
  5
AF
 10
969467.871
 20
7257501.35
 30
0.0
 40
13.999
  1
86
 50
358.494942
  7
ROMANS
210
0.0
220
0.0
230
1.0
  0
TEXT
  8
10
  6
CONTINUOUS
 62
   134
  5
B0
 10
969408.134
 20
7257502.92
 30
0.0
 40
13.999
  1
87
 50
358.494942
  7
ROMANS
210
0.0
220
0.0
230
1.0
  0
TEXT
  8
10
  6
CONTINUOUS
 62
   134
  5
B1
 10
969345.911
 20
7257504.555
 30
0.0
 40
13.999
  1
88
 50
358.494942
  7
ROMANS
210
0.0
220
0.0
230
1.0
  0
TEXT
  8
10
  6
CONTINUOUS
 62
   134
  5
B2
 10
969283.684
 20
7257506.189
 30
0.0
 40
13.999
  1
89
 50
358.494942
  7
ROMANS
210
0.0
220
0.0
230
1.0
  0
TEXT
  8
10
  6
CONTINUOUS
 62
   134
  5
B3
 10
969233.904
 20
7257507.498
 30
0.0
 40
13.999
  1
90
 50
358.494942
  7
ROMANS
210
0.0
220
0.0
230
1.0
  0
TEXT
  8
10
  6
CONTINUOUS
 62
   134
  5
B4
 10
969171.678
 20
7257509.133
 30
0.0
 40
13.999
  1
91
 50
358.494942
  7
ROMANS
210
0.0
220
0.0
230
1.0
  0
TEXT
  8
10
  6
CONTINUOUS
 62
   134
  5
B5
 10
969116.92
 20
7257510.571
 30
0.0
 40
13.999
  1
92
 50
358.494942
  7
ROMANS
210
0.0
220
0.0
230
1.0
  0
TEXT
  8
10
  6
CONTINUOUS
 62
   134
  5
B6
 10
969190.053
 20
7258777.191
 30
0.0
 40
13.999
  1
123
 50
358.494942
  7
ROMANS
210
0.0
220
0.0
230
1.0
  0
TEXT
  8
10
  6
CONTINUOUS
 62
   134
  5
B7
 10
969247.3
 20
7258775.687
 30
0.0
 40
13.999
  1
124
 50
358.494942
  7
ROMANS
210
0.0
220
0.0
230
1.0
  0
TEXT
  8
10
  6
CONTINUOUS
 62
   134
  5
B8
 10
969302.058
 20
7258774.248
 30
0.0
 40
13.999
  1
125
 50
358.494942
  7
ROMANS
210
0.0
220
0.0
230
1.0
  0
TEXT
  8
10
  6
CONTINUOUS
 62
   134
  5
B9
 10
969369.262
 20
7258772.483
 30
0.0
 40
13.999
  1
126
 50
358.494942
  7
ROMANS
210
0.0
220
0.0
230
1.0
  0
TEXT
  8
10
  6
CONTINUOUS
 62
   134
  5
BA
 10
969428.997
 20
7258770.913
 30
0.0
 40
13.999
  1
127
 50
358.494942
  7
ROMANS
210
0.0
220
0.0
230
1.0
  0
TEXT
  8
10
  6
CONTINUOUS
 62
   134
  5
BB
 10
969486.245
 20
7258769.408
 30
0.0
 40
13.999
  1
128
 50
358.494942
  7
ROMANS
210
0.0
220
0.0
230
1.0
  0
TEXT
  8
10
  6
CONTINUOUS
 62
   134
  5
BC
 10
969548.469
 20
7258767.774
 30
0.0
 40
13.999
  1
129
 50
358.494942
  7
ROMANS
210
0.0
220
0.0
230
1.0
  0
TEXT
  8
10
  6
CONTINUOUS
 62
   134
  5
BD
 10
969613.184
 20
7258766.074
 30
0.0
 40
13.999
  1
130
 50
358.494942
  7
ROMANS
210
0.0
220
0.0
230
1.0
  0
TEXT
  8
10
  6
CONTINUOUS
 62
   134
  5
BE
 10
969609.585
 20
7258629.096
 30
0.0
 40
13.999
  1
131
 50
358.494942
  7
ROMANS
210
0.0
220
0.0
230
1.0
  0
TEXT
  8
10
  6
CONTINUOUS
 62
   134
  5
BF
 10
969544.871
 20
7258630.797
 30
0.0
 40
13.999
  1
132
 50
358.494942
  7
ROMANS
210
0.0
220
0.0
230
1.0
  0
TEXT
  8
10
  6
CONTINUOUS
 62
   134
  5
C0
 10
969480.157
 20
7258632.497
 30
0.0
 40
13.999
  1
133
 50
358.494942
  7
ROMANS
210
0.0
220
0.0
230
1.0
  0
TEXT
  8
10
  6
CONTINUOUS
 62
   134
  5
C1
 10
969425.399
 20
7258633.935
 30
0.0
 40
13.999
  1
134
 50
358.494942
  7
ROMANS
210
0.0
220
0.0
230
1.0
  0
TEXT
  8
10
  6
CONTINUOUS
 62
   134
  5
C2
 10
969365.663
 20
7258635.505
 30
0.0
 40
13.999
  1
135
 50
358.494942
  7
ROMANS
210
0.0
220
0.0
230
1.0
  0
TEXT
  8
10
  6
CONTINUOUS
 62
   134
  5
C3
 10
969305.926
 20
7258637.074
 30
0.0
 40
13.999
  1
136
 50
358.494942
  7
ROMANS
210
0.0
220
0.0
230
1.0
  0
TEXT
  8
10
  6
CONTINUOUS
 62
   134
  5
C4
 10
969241.211
 20
7258638.775
 30
0.0
 40
13.999
  1
137
 50
358.494942
  7
ROMANS
210
0.0
220
0.0
230
1.0
  0
TEXT
  8
10
  6
CONTINUOUS
 62
   134
  5
C5
 10
969186.453
 20
7258640.214
 30
0.0
 40
13.999
  1
138
 50
358.494942
  7
ROMANS
210
0.0
220
0.0
230
1.0
  0
TEXT
  8
10
  6
CONTINUOUS
 62
   134
  5
C6
 10
969179.253
 20
7258460.963
 30
0.0
 40
13.999
  1
143
 50
358.494942
  7
ROMANS
210
0.0
220
0.0
230
1.0
  0
TEXT
  8
10
  6
CONTINUOUS
 62
   134
  5
C7
 10
969241.478
 20
7258459.328
 30
0.0
 40
13.999
  1
144
 50
358.494942
  7
ROMANS
210
0.0
220
0.0
230
1.0
  0
TEXT
  8
10
  6
CONTINUOUS
 62
   134
  5
C8
 10
969301.215
 20
7258457.759
 30
0.0
 40
13.999
  1
145
 50
358.494942
  7
ROMANS
210
0.0
220
0.0
230
1.0
  0
TEXT
  8
10
  6
CONTINUOUS
 62
   134
  5
C9
 10
969360.951
 20
7258456.189
 30
0.0
 40
13.999
  1
146
 50
358.494942
  7
ROMANS
210
0.0
220
0.0
230
1.0
  0
TEXT
  8
10
  6
CONTINUOUS
 62
   134
  5
CA
 10
969415.71
 20
7258454.751
 30
0.0
 40
13.999
  1
147
 50
358.494942
  7
ROMANS
210
0.0
220
0.0
230
1.0
  0
TEXT
  8
10
  6
CONTINUOUS
 62
   134
  5
CB
 10
969480.425
 20
7258453.05
 30
0.0
 40
13.999
  1
148
 50
358.494942
  7
ROMANS
210
0.0
220
0.0
230
1.0
  0
TEXT
  8
10
  6
CONTINUOUS
 62
   134
  5
CC
 10
969537.671
 20
7258451.546
 30
0.0
 40
13.999
  1
149
 50
358.494942
  7
ROMANS
210
0.0
220
0.0
230
1.0
  0
TEXT
  8
10
  6
CONTINUOUS
 62
   134
  5
CD
 10
969607.363
 20
7258449.715
 30
0.0
 40
13.999
  1
150
 50
358.494942
  7
ROMANS
210
0.0
220
0.0
230
1.0
  0
TEXT
  8
10
  6
CONTINUOUS
 62
   134
  5
CE
 10
969603.961
 20
7258320.209
 30
0.0
 40
13.999
  1
151
 50
358.494942
  7
ROMANS
210
0.0
220
0.0
230
1.0
  0
TEXT
  8
10
  6
CONTINUOUS
 62
   134
  5
CF
 10
969539.247
 20
7258321.908
 30
0.0
 40
13.999
  1
152
 50
358.494942
  7
ROMANS
210
0.0
220
0.0
230
1.0
  0
TEXT
  8
10
  6
CONTINUOUS
 62
   134
  5
D0
 10
969474.532
 20
7258323.609
 30
0.0
 40
13.999
  1
153
 50
358.494942
  7
ROMANS
210
0.0
220
0.0
230
1.0
  0
TEXT
  8
10
  6
CONTINUOUS
 62
   134
  5
D1
 10
969414.795
 20
7258325.178
 30
0.0
 40
13.999
  1
154
 50
358.494942
  7
ROMANS
210
0.0
220
0.0
230
1.0
  0
TEXT
  8
10
  6
CONTINUOUS
 62
   134
  5
D2
 10
969360.037
 20
7258326.617
 30
0.0
 40
13.999
  1
155
 50
358.494942
  7
ROMANS
210
0.0
220
0.0
230
1.0
  0
TEXT
  8
10
  6
CONTINUOUS
 62
   134
  5
D3
 10
969292.834
 20
7258328.383
 30
0.0
 40
13.999
  1
156
 50
358.494942
  7
ROMANS
210
0.0
220
0.0
230
1.0
  0
TEXT
  8
10
  6
CONTINUOUS
 62
   134
  5
D4
 10
969238.075
 20
7258329.821
 30
0.0
 40
13.999
  1
157
 50
358.494942
  7
ROMANS
210
0.0
220
0.0
230
1.0
  0
TEXT
  8
10
  6
CONTINUOUS
 62
   134
  5
D5
 10
969175.851
 20
7258331.457
 30
0.0
 40
13.999
  1
158
 50
358.494942
  7
ROMANS
210
0.0
220
0.0
230
1.0
  0
TEXT
  8
10
  6
CONTINUOUS
 62
   134
  5
D6
 10
969173.366
 20
7258142.113
 30
0.0
 40
13.999
  1
163
 50
358.494942
  7
ROMANS
210
0.0
220
0.0
230
1.0
  0
TEXT
  8
10
  6
CONTINUOUS
 62
   134
  5
D7
 10
969233.102
 20
7258140.544
 30
0.0
 40
13.999
  1
164
 50
358.494942
  7
ROMANS
210
0.0
220
0.0
230
1.0
  0
TEXT
  8
10
  6
CONTINUOUS
 62
   134
  5
D8
 10
969295.328
 20
7258138.908
 30
0.0
 40
13.999
  1
165
 50
358.494942
  7
ROMANS
210
0.0
220
0.0
230
1.0
  0
TEXT
  8
10
  6
CONTINUOUS
 62
   134
  5
D9
 10
969350.087
 20
7258137.47
 30
0.0
 40
13.999
  1
166
 50
358.494942
  7
ROMANS
210
0.0
220
0.0
230
1.0
  0
TEXT
  8
10
  6
CONTINUOUS
 62
   134
  5
DA
 10
969412.311
 20
7258135.835
 30
0.0
 40
13.999
  1
167
 50
358.494942
  7
ROMANS
210
0.0
220
0.0
230
1.0
  0
TEXT
  8
10
  6
CONTINUOUS
 62
   134
  5
DB
 10
969472.048
 20
7258134.265
 30
0.0
 40
13.999
  1
168
 50
358.494942
  7
ROMANS
210
0.0
220
0.0
230
1.0
  0
TEXT
  8
10
  6
CONTINUOUS
 62
   134
  5
DC
 10
969529.295
 20
7258132.762
 30
0.0
 40
13.999
  1
169
 50
358.494942
  7
ROMANS
210
0.0
220
0.0
230
1.0
  0
TEXT
  8
10
  6
CONTINUOUS
 62
   134
  5
DD
 10
969598.989
 20
7258130.931
 30
0.0
 40
13.999
  1
170
 50
358.494942
  7
ROMANS
210
0.0
220
0.0
230
1.0
  0
TEXT
  8
10
  6
CONTINUOUS
 62
   134
  5
DE
 10
969595.39
 20
7257993.953
 30
0.0
 40
13.999
  1
171
 50
358.494942
  7
ROMANS
210
0.0
220
0.0
230
1.0
  0
TEXT
  8
10
  6
CONTINUOUS
 62
   134
  5
DF
 10
969535.653
 20
7257995.522
 30
0.0
 40
13.999
  1
172
 50
358.494942
  7
ROMANS
210
0.0
220
0.0
230
1.0
  0
TEXT
  8
10
  6
CONTINUOUS
 62
   134
  5
E0
 10
969468.449
 20
7257997.289
 30
0.0
 40
13.999
  1
173
 50
358.494942
  7
ROMANS
210
0.0
220
0.0
230
1.0
  0
TEXT
  8
10
  6
CONTINUOUS
 62
   134
  5
E1
 10
969408.713
 20
7257998.858
 30
0.0
 40
13.999
  1
174
 50
358.494942
  7
ROMANS
210
0.0
220
0.0
230
1.0
  0
TEXT
  8
10
  6
CONTINUOUS
 62
   134
  5
E2
 10
969348.976
 20
7258000.427
 30
0.0
 40
13.999
  1
175
 50
358.494942
  7
ROMANS
210
0.0
220
0.0
230
1.0
  0
TEXT
  8
10
  6
CONTINUOUS
 62
   134
  5
E3
 10
969286.751
 20
7258002.062
 30
0.0
 40
13.999
  1
176
 50
358.494942
  7
ROMANS
210
0.0
220
0.0
230
1.0
  0
TEXT
  8
10
  6
CONTINUOUS
 62
   134
  5
E4
 10
969229.504
 20
7258003.567
 30
0.0
 40
13.999
  1
177
 50
358.494942
  7
ROMANS
210
0.0
220
0.0
230
1.0
  0
TEXT
  8
10
  6
CONTINUOUS
 62
   134
  5
E5
 10
969169.768
 20
7258005.135
 30
0.0
 40
13.999
  1
178
 50
358.494942
  7
ROMANS
210
0.0
220
0.0
230
1.0
  0
TEXT
  8
10
  6
CONTINUOUS
 62
   134
  5
E6
 10
969162.763
 20
7257833.356
 30
0.0
 40
13.999
  1
183
 50
358.494942
  7
ROMANS
210
0.0
220
0.0
230
1.0
  0
TEXT
  8
10
  6
CONTINUOUS
 62
   134
  5
E7
 10
969224.989
 20
7257831.721
 30
0.0
 40
13.999
  1
184
 50
358.494942
  7
ROMANS
210
0.0
220
0.0
230
1.0
  0
TEXT
  8
10
  6
CONTINUOUS
 62
   134
  5
E8
 10
969282.236
 20
7257830.217
 30
0.0
 40
13.999
  1
185
 50
358.494942
  7
ROMANS
210
0.0
220
0.0
230
1.0
  0
TEXT
  8
10
  6
CONTINUOUS
 62
   134
  5
E9
 10
969341.972
 20
7257828.648
 30
0.0
 40
13.999
  1
186
 50
358.494942
  7
ROMANS
210
0.0
220
0.0
230
1.0
  0
TEXT
  8
10
  6
CONTINUOUS
 62
   134
  5
EA
 10
969404.198
 20
7257827.013
 30
0.0
 40
13.999
  1
187
 50
358.494942
  7
ROMANS
210
0.0
220
0.0
230
1.0
  0
TEXT
  8
10
  6
CONTINUOUS
 62
   134
  5
EB
 10
969463.934
 20
7257825.443
 30
0.0
 40
13.999
  1
188
 50
358.494942
  7
ROMANS
210
0.0
220
0.0
230
1.0
  0
TEXT
  8
10
  6
CONTINUOUS
 62
   134
  5
EC
 10
969521.181
 20
7257823.939
 30
0.0
 40
13.999
  1
189
 50
358.494942
  7
ROMANS
210
0.0
220
0.0
230
1.0
  0
TEXT
  8
10
  6
CONTINUOUS
 62
   134
  5
ED
 10
969588.384
 20
7257822.174
 30
0.0
 40
13.999
  1
190
 50
358.494942
  7
ROMANS
210
0.0
220
0.0
230
1.0
  0
TEXT
  8
10
  6
CONTINUOUS
 62
   134
  5
EE
 10
969584.72
 20
7257682.706
 30
0.0
 40
13.999
  1
191
 50
358.494942
  7
ROMANS
210
0.0
220
0.0
230
1.0
  0
TEXT
  8
10
  6
CONTINUOUS
 62
   134
  5
EF
 10
969520.005
 20
7257684.406
 30
0.0
 40
13.999
  1
192
 50
358.494942
  7
ROMANS
210
0.0
220
0.0
230
1.0
  0
TEXT
  8
10
  6
CONTINUOUS
 62
   134
  5
F0
 10
969455.291
 20
7257686.107
 30
0.0
 40
13.999
  1
193
 50
358.494942
  7
ROMANS
210
0.0
220
0.0
230
1.0
  0
TEXT
  8
10
  6
CONTINUOUS
 62
   134
  5
F1
 10
969400.533
 20
7257687.545
 30
0.0
 40
13.999
  1
194
 50
358.494942
  7
ROMANS
210
0.0
220
0.0
230
1.0
  0
TEXT
  8
10
  6
CONTINUOUS
 62
   134
  5
F2
 10
969343.285
 20
7257689.049
 30
0.0
 40
13.999
  1
195
 50
358.494942
  7
ROMANS
210
0.0
220
0.0
230
1.0
  0
TEXT
  8
10
  6
CONTINUOUS
 62
   134
  5
F3
 10
969281.061
 20
7257690.684
 30
0.0
 40
13.999
  1
196
 50
358.494942
  7
ROMANS
210
0.0
220
0.0
230
1.0
  0
TEXT
  8
10
  6
CONTINUOUS
 62
   134
  5
F4
 10
969223.813
 20
7257692.188
 30
0.0
 40
13.999
  1
197
 50
358.494942
  7
ROMANS
210
0.0
220
0.0
230
1.0
  0
TEXT
  8
10
  6
CONTINUOUS
 62
   134
  5
F5
 10
969164.076
 20
7257693.757
 30
0.0
 40
13.999
  1
198
 50
358.494942
  7
ROMANS
210
0.0
220
0.0
230
1.0
  0
TEXT
  8
10
  6
CONTINUOUS
 62
   134
  5
F6
 10
969146.895
 20
7258313.918
 30
0.0
 40
13.999
  1
159
 50
88.494942
  7
ROMANS
210
0.0
220
0.0
230
1.0
  0
TEXT
  8
10
  6
CONTINUOUS
 62
   134
  5
F7
 10
969142.063
 20
7258129.99
 30
0.0
 40
13.999
  1
162
 50
88.494942
  7
ROMANS
210
0.0
220
0.0
230
1.0
  0
TEXT
  8
10
  6
CONTINUOUS
 62
   134
  5
F8
 10
969138.536
 20
7257995.773
 30
0.0
 40
13.999
  1
179
 50
88.494942
  7
ROMANS
210
0.0
220
0.0
230
1.0
  0
TEXT
  8
10
  6
CONTINUOUS
 62
   134
  5
F9
 10
969133.704
 20
7257811.846
 30
0.0
 40
13.999
  1
182
 50
88.494942
  7
ROMANS
210
0.0
220
0.0
230
1.0
  0
TEXT
  8
10
  6
CONTINUOUS
 62
   134
  5
FA
 10
969130.265
 20
7257680.942
 30
0.0
 40
13.999
  1
199
 50
88.494942
  7
ROMANS
210
0.0
220
0.0
230
1.0
  0
TEXT
  8
10
  6
CONTINUOUS
 62
   134
  5
FB
 10
969122.165
 20
7257372.699
 30
0.0
 40
13.999
  1
75
 50
88.494942
  7
ROMANS
210
0.0
220
0.0
230
1.0
  0
LINE
  8
6
  6
CONTINUOUS
 62
     7
  5
FC
 10
969688.121
 20
7257251.155
 30
0.0
 11
969096.698
 21
7257266.694
 31
0.0
  0
TEXT
  8
15
  6
CONTINUOUS
 62
    30
  5
FF
 10
969276.219
 20
7258627.718
 30
0.0
 40
40.0
  1
YELLOW
 50
28.494942
  7
ROMANC
 72
     4
 11
969381.546915
 21
7258707.651125
 31
0.0
210
0.0
220
0.0
230
1.0
  0
TEXT
  8
15
  6
CONTINUOUS
 62
    30
  5
100
 10
969270.586
 20
7258001.346
 30
0.0
 40
40.0
  1
HOUSE
 50
28.494942
  7
ROMANC
 72
     4
 11
969355.706305
 21
7258070.309598
 31
0.0
210
0.0
220
0.0
230
1.0
  0
TEXT
  8
15
  6
CONTINUOUS
 62
    30
  5
101
 10
969229.424
 20
7257356.752
 30
0.0
 40
40.0
  1
CANYON
 50
28.494942
  7
ROMANC
 72
     4
 11
969336.964004
 21
7257437.885938
 31
0.0
210
0.0
220
0.0
230
1.0
  0
TEXT
  8
11
  6
CONTINUOUS
 62
     7
  5
104
 10
969654.372
 20
7258847.61
 30
0.0
 40
8.0
  1
56'
 50
88.494942
  7
txt
 72
     4
 11
969650.621534
 21
7258857.159801
 31
0.0
210
0.0
220
0.0
230
1.0
  0
TEXT
  8
11
  6
CONTINUOUS
 62
     7
  5
105
 10
969646.069
 20
7258531.591
 30
0.0
 40
8.0
  1
56'
 50
88.494942
  7
txt
 72
     4
 11
969642.318534
 21
7258541.140801
 31
0.0
210
0.0
220
0.0
230
1.0
  0
TEXT
  8
11
  6
CONTINUOUS
 62
     7
  5
106
 10
969622.355
 20
7258219.153
 30
0.0
 40
8.0
  1
56'
 50
88.494942
  7
txt
 72
     4
 11
969618.604534
 21
7258228.702801
 31
0.0
210
0.0
220
0.0
230
1.0
  0
TEXT
  8
11
  6
CONTINUOUS
 62
     7
  5
107
 10
969625.811
 20
7257903.515
 30
0.0
 40
8.0
  1
56'
 50
88.494942
  7
txt
 72
     4
 11
969622.060534
 21
7257913.064801
 31
0.0
210
0.0
220
0.0
230
1.0
  0
TEXT
  8
11
  6
CONTINUOUS
 62
     7
  5
108
 10
970191.528
 20
7257573.623
 30
0.0
 40
8.0
  1
56'
 50
88.494942
  7
txt
 72
     4
 11
970187.777534
 21
7257583.172801
 31
0.0
210
0.0
220
0.0
230
1.0
  0
TEXT
  8
11
  6
CONTINUOUS
 62
     7
  5
109
 10
969622.037
 20
7257264.975
 30
0.0
 40
8.0
  1
56'
 50
88.494942
  7
txt
 72
     4
 11
969618.286534
 21
7257274.524801
 31
0.0
210
0.0
220
0.0
230
1.0
  0
TEXT
  8
11
  6
CONTINUOUS
 62
     7
  5
10A
 10
969133.065
 20
7257366.18
 30
0.0
 40
8.0
  1
120'
 50
88.494942
  7
txt
 72
     4
 11
969129.3865
 21
7257378.468856
 31
0.0
210
0.0
220
0.0
230
1.0
  0
TEXT
  8
11
  6
CONTINUOUS
 62
     7
  5
10B
 10
969572.401
 20
7257355.937
 30
0.0
 40
8.0
  1
120'
 50
88.494942
  7
txt
 72
     4
 11
969568.7225
 21
7257368.225856
 31
0.0
210
0.0
220
0.0
230
1.0
  0
TEXT
  8
11
  6
CONTINUOUS
 62
     7
  5
10C
 10
969574.622
 20
7257489.961
 30
0.0
 40
8.0
  1
120'
 50
88.494942
  7
txt
 72
     4
 11
969570.9435
 21
7257502.249856
 31
0.0
210
0.0
220
0.0
230
1.0
  0
TEXT
  8
11
  6
CONTINUOUS
 62
     7
  5
10D
 10
969153.618
 20
7257504.927
 30
0.0
 40
8.0
  1
120'
 50
88.494942
  7
txt
 72
     4
 11
969149.9395
 21
7257517.215856
 31
0.0
210
0.0
220
0.0
230
1.0
  0
TEXT
  8
11
  6
CONTINUOUS
 62
     7
  5
10E
 10
969142.84
 20
7257688.705
 30
0.0
 40
8.0
  1
120'
 50
88.494942
  7
txt
 72
     4
 11
969139.1615
 21
7257700.993856
 31
0.0
210
0.0
220
0.0
230
1.0
  0
TEXT
  8
11
  6
CONTINUOUS
 62
     7
  5
10F
 10
969579.441
 20
7257673.331
 30
0.0
 40
8.0
  1
120'
 50
88.494942
  7
txt
 72
     4
 11
969575.7625
 21
7257685.619856
 31
0.0
210
0.0
220
0.0
230
1.0
  0
TEXT
  8
11
  6
CONTINUOUS
 62
     7
  5
110
 10
969583.097
 20
7257812.483
 30
0.0
 40
8.0
  1
120'
 50
88.494942
  7
txt
 72
     4
 11
969579.4185
 21
7257824.771856
 31
0.0
210
0.0
220
0.0
230
1.0
  0
TEXT
  8
11
  6
CONTINUOUS
 62
     7
  5
111
 10
969147.659
 20
7257822.622
 30
0.0
 40
8.0
  1
120'
 50
88.494942
  7
txt
 72
     4
 11
969143.9805
 21
7257834.910856
 31
0.0
210
0.0
220
0.0
230
1.0
  0
TEXT
  8
11
  6
CONTINUOUS
 62
     7
  5
112
 10
969587.745
 20
7257987.173
 30
0.0
 40
8.0
  1
120'
 50
88.494942
  7
txt
 72
     4
 11
969584.0665
 21
7257999.461856
 31
0.0
210
0.0
220
0.0
230
1.0
  0
TEXT
  8
11
  6
CONTINUOUS
 62
     7
  5
113
 10
969591.401
 20
7258126.325
 30
0.0
 40
8.0
  1
120'
 50
88.494942
  7
txt
 72
     4
 11
969587.7225
 21
7258138.613856
 31
0.0
210
0.0
220
0.0
230
1.0
  0
TEXT
  8
11
  6
CONTINUOUS
 62
     7
  5
114
 10
969156.134
 20
7258142.967
 30
0.0
 40
8.0
  1
120'
 50
88.494942
  7
txt
 72
     4
 11
969152.4555
 21
7258155.255856
 31
0.0
210
0.0
220
0.0
230
1.0
  0
TEXT
  8
11
  6
CONTINUOUS
 62
     7
  5
115
 10
969152.58
 20
7258007.716
 30
0.0
 40
8.0
  1
120'
 50
88.494942
  7
txt
 72
     4
 11
969148.9015
 21
7258020.004856
 31
0.0
210
0.0
220
0.0
230
1.0
  0
TEXT
  8
11
  6
CONTINUOUS
 62
     7
  5
116
 10
969164.506
 20
7258461.588
 30
0.0
 40
8.0
  1
120'
 50
88.494942
  7
txt
 72
     4
 11
969160.8275
 21
7258473.876856
 31
0.0
210
0.0
220
0.0
230
1.0
  0
TEXT
  8
11
  6
CONTINUOUS
 62
     7
  5
117
 10
969599.773
 20
7258444.946
 30
0.0
 40
8.0
  1
120'
 50
88.494942
  7
txt
 72
     4
 11
969596.0945
 21
7258457.234856
 31
0.0
210
0.0
220
0.0
230
1.0
  0
TEXT
  8
11
  6
CONTINUOUS
 62
     7
  5
118
 10
969596.355
 20
7258314.898
 30
0.0
 40
8.0
  1
120'
 50
88.494942
  7
txt
 72
     4
 11
969592.6765
 21
7258327.186856
 31
0.0
210
0.0
220
0.0
230
1.0
  0
TEXT
  8
11
  6
CONTINUOUS
 62
     7
  5
119
 10
969162.149
 20
7258322.401
 30
0.0
 40
8.0
  1
120'
 50
88.494942
  7
txt
 72
     4
 11
969158.4705
 21
7258334.689856
 31
0.0
210
0.0
220
0.0
230
1.0
  0
TEXT
  8
11
  6
CONTINUOUS
 62
     7
  5
11A
 10
969172.732
 20
7258774.386
 30
0.0
 40
8.0
  1
120'
 50
88.494942
  7
txt
 72
     4
 11
969169.0535
 21
7258786.674856
 31
0.0
210
0.0
220
0.0
230
1.0
  0
TEXT
  8
11
  6
CONTINUOUS
 62
     7
  5
11B
 10
969170.341
 20
7258633.899
 30
0.0
 40
8.0
  1
120'
 50
88.494942
  7
txt
 72
     4
 11
969166.6625
 21
7258646.187856
 31
0.0
210
0.0
220
0.0
230
1.0
  0
TEXT
  8
11
  6
CONTINUOUS
 62
     7
  5
11C
 10
969606.904
 20
7258765.58
 30
0.0
 40
8.0
  1
120'
 50
88.494942
  7
txt
 72
     4
 11
969603.2255
 21
7258777.868856
 31
0.0
210
0.0
220
0.0
230
1.0
  0
TEXT
  8
11
  6
CONTINUOUS
 62
     7
  5
11D
 10
969603.215
 20
7258625.129
 30
0.0
 40
8.0
  1
120'
 50
88.494942
  7
txt
 72
     4
 11
969599.5365
 21
7258637.417856
 31
0.0
210
0.0
220
0.0
230
1.0
  0
TEXT
  8
11
  6
CONTINUOUS
 62
     7
  5
11E
 10
969170.921
 20
7258705.44
 30
0.0
 40
8.0
  1
20'
 50
88.494942
  7
txt
 72
     4
 11
969167.174683
 21
7258715.147747
 31
0.0
210
0.0
220
0.0
230
1.0
  0
TEXT
  8
11
  6
CONTINUOUS
 62
     7
  5
11F
 10
969642.75
 20
7258694.344
 30
0.0
 40
8.0
  1
20'
 50
88.494942
  7
txt
 72
     4
 11
969639.003683
 21
7258704.051747
 31
0.0
210
0.0
220
0.0
230
1.0
  0
TEXT
  8
11
  6
CONTINUOUS
 62
     7
  5
120
 10
969635.679
 20
7258375.69
 30
0.0
 40
8.0
  1
20'
 50
88.494942
  7
txt
 72
     4
 11
969631.932683
 21
7258385.397747
 31
0.0
210
0.0
220
0.0
230
1.0
  0
TEXT
  8
11
  6
CONTINUOUS
 62
     7
  5
121
 10
969167.816
 20
7258389.284
 30
0.0
 40
8.0
  1
20'
 50
88.494942
  7
txt
 72
     4
 11
969164.069683
 21
7258398.991747
 31
0.0
210
0.0
220
0.0
230
1.0
  0
TEXT
  8
11
  6
CONTINUOUS
 62
     7
  5
122
 10
969146.588
 20
7258077.344
 30
0.0
 40
8.0
  1
20'
 50
88.494942
  7
txt
 72
     4
 11
969142.841683
 21
7258087.051747
 31
0.0
210
0.0
220
0.0
230
1.0
  0
TEXT
  8
11
  6
CONTINUOUS
 62
     7
  5
123
 10
969628.781
 20
7258064.674
 30
0.0
 40
8.0
  1
20'
 50
88.494942
  7
txt
 72
     4
 11
969625.034683
 21
7258074.381747
 31
0.0
210
0.0
220
0.0
230
1.0
  0
TEXT
  8
11
  6
CONTINUOUS
 62
     7
  5
124
 10
969624.343
 20
7257747.253
 30
0.0
 40
8.0
  1
20'
 50
88.494942
  7
txt
 72
     4
 11
969620.596683
 21
7257756.960747
 31
0.0
210
0.0
220
0.0
230
1.0
  0
TEXT
  8
11
  6
CONTINUOUS
 62
     7
  5
125
 10
969138.25
 20
7257760.024
 30
0.0
 40
8.0
  1
20'
 50
88.494942
  7
txt
 72
     4
 11
969134.503683
 21
7257769.731747
 31
0.0
210
0.0
220
0.0
230
1.0
  0
TEXT
  8
11
  6
CONTINUOUS
 62
     7
  5
126
 10
969621.272
 20
7257432.358
 30
0.0
 40
8.0
  1
20'
 50
88.494942
  7
txt
 72
     4
 11
969617.525683
 21
7257442.065747
 31
0.0
210
0.0
220
0.0
230
1.0
  0
TEXT
  8
11
  6
CONTINUOUS
 62
     7
  5
127
 10
969631.032
 20
7257358.176
 30
0.0
 40
8.0
  1
105'
 50
88.494942
  7
txt
 72
     4
 11
969627.3535
 21
7257370.464856
 31
0.0
210
0.0
220
0.0
230
1.0
  0
TEXT
  8
11
  6
CONTINUOUS
 62
     7
  5
128
 10
969633.287
 20
7257493.501
 30
0.0
 40
8.0
  1
105'
 50
88.494942
  7
txt
 72
     4
 11
969629.6085
 21
7257505.789856
 31
0.0
210
0.0
220
0.0
230
1.0
  0
TEXT
  8
11
  6
CONTINUOUS
 62
     7
  5
129
 10
969640.703
 20
7257676.803
 30
0.0
 40
8.0
  1
105'
 50
88.494942
  7
txt
 72
     4
 11
969637.0245
 21
7257689.091856
 31
0.0
210
0.0
220
0.0
230
1.0
  0
TEXT
  8
11
  6
CONTINUOUS
 62
     7
  5
12A
 10
969642.821
 20
7257806.886
 30
0.0
 40
8.0
  1
105'
 50
88.494942
  7
txt
 72
     4
 11
969639.1425
 21
7257819.174856
 31
0.0
210
0.0
220
0.0
230
1.0
  0
TEXT
  8
11
  6
CONTINUOUS
 62
     7
  5
12B
 10
969647.577
 20
7257987.91
 30
0.0
 40
8.0
  1
105'
 50
88.494942
  7
txt
 72
     4
 11
969643.8985
 21
7258000.198856
 31
0.0
210
0.0
220
0.0
230
1.0
  0
TEXT
  8
11
  6
CONTINUOUS
 62
     7
  5
12C
 10
969652.258
 20
7258116.625
 30
0.0
 40
8.0
  1
105'
 50
88.494942
  7
txt
 72
     4
 11
969648.5795
 21
7258128.913856
 31
0.0
210
0.0
220
0.0
230
1.0
  0
TEXT
  8
11
  6
CONTINUOUS
 62
     7
  5
12D
 10
969656.085
 20
7258311.732
 30
0.0
 40
8.0
  1
105'
 50
88.494942
  7
txt
 72
     4
 11
969652.4065
 21
7258324.020856
 31
0.0
210
0.0
220
0.0
230
1.0
  0
TEXT
  8
11
  6
CONTINUOUS
 62
     7
  5
12E
 10
969659.433
 20
7258439.181
 30
0.0
 40
8.0
  1
105'
 50
88.494942
  7
txt
 72
     4
 11
969655.7545
 21
7258451.469856
 31
0.0
210
0.0
220
0.0
230
1.0
  0
TEXT
  8
11
  6
CONTINUOUS
 62
     7
  5
12F
 10
969665.722
 20
7258629.018
 30
0.0
 40
8.0
  1
105'
 50
88.494942
  7
txt
 72
     4
 11
969662.0435
 21
7258641.306856
 31
0.0
210
0.0
220
0.0
230
1.0
  0
TEXT
  8
11
  6
CONTINUOUS
 62
     7
  5
130
 10
969667.765
 20
7258756.201
 30
0.0
 40
8.0
  1
105'
 50
88.494942
  7
txt
 72
     4
 11
969664.0865
 21
7258768.489856
 31
0.0
210
0.0
220
0.0
230
1.0
  0
TEXT
  8
11
  6
CONTINUOUS
 62
     7
  5
131
 10
969693.389
 20
7258807.927
 30
0.0
 40
8.0
  1
56'
 50
358.494942
  7
txt
 72
     4
 11
969702.938801
 21
7258811.677466
 31
0.0
210
0.0
220
0.0
230
1.0
  0
TEXT
  8
11
  6
CONTINUOUS
 62
     7
  5
132
 10
969672.641
 20
7258117.078
 30
0.0
 40
8.0
  1
56'
 50
358.494942
  7
txt
 72
     4
 11
969682.190801
 21
7258120.828466
 31
0.0
210
0.0
220
0.0
230
1.0
  0
TEXT
  8
11
  6
CONTINUOUS
 62
     7
  5
133
 10
969658.668
 20
7257486.272
 30
0.0
 40
8.0
  1
56'
 50
358.494942
  7
txt
 72
     4
 11
969668.217801
 21
7257490.022466
 31
0.0
210
0.0
220
0.0
230
1.0
  0
TEXT
  8
11
  6
CONTINUOUS
 62
     7
  5
134
 10
969654.873
 20
7257340.875
 30
0.0
 40
8.0
  1
56'
 50
358.494942
  7
txt
 72
     4
 11
969664.422801
 21
7257344.625466
 31
0.0
210
0.0
220
0.0
230
1.0
  0
TEXT
  8
11
  6
CONTINUOUS
 62
     7
  5
135
 10
969159.972
 20
7257325.389
 30
0.0
 40
8.0
  1
60'
 50
358.494942
  7
txt
 72
     4
 11
969169.489812
 21
7257329.140307
 31
0.0
210
0.0
220
0.0
230
1.0
  0
TEXT
  8
11
  6
CONTINUOUS
 62
     7
  5
136
 10
969217.159
 20
7257323.885
 30
0.0
 40
8.0
  1
60'
 50
358.494942
  7
txt
 72
     4
 11
969226.676812
 21
7257327.636307
 31
0.0
210
0.0
220
0.0
230
1.0
  0
TEXT
  8
11
  6
CONTINUOUS
 62
     7
  5
137
 10
969283.444
 20
7257322.144
 30
0.0
 40
8.0
  1
60'
 50
358.494942
  7
txt
 72
     4
 11
969292.961812
 21
7257325.895307
 31
0.0
210
0.0
220
0.0
230
1.0
  0
TEXT
  8
11
  6
CONTINUOUS
 62
     7
  5
138
 10
969339.331
 20
7257320.675
 30
0.0
 40
8.0
  1
60'
 50
358.494942
  7
txt
 72
     4
 11
969348.848812
 21
7257324.426307
 31
0.0
210
0.0
220
0.0
230
1.0
  0
TEXT
  8
11
  6
CONTINUOUS
 62
     7
  5
139
 10
969399.118
 20
7257319.105
 30
0.0
 40
8.0
  1
60'
 50
358.494942
  7
txt
 72
     4
 11
969408.635812
 21
7257322.856307
 31
0.0
210
0.0
220
0.0
230
1.0
  0
TEXT
  8
11
  6
CONTINUOUS
 62
     7
  5
13A
 10
969464.104
 20
7257317.398
 30
0.0
 40
8.0
  1
60'
 50
358.494942
  7
txt
 72
     4
 11
969473.621812
 21
7257321.149307
 31
0.0
210
0.0
220
0.0
230
1.0
  0
TEXT
  8
11
  6
CONTINUOUS
 62
     7
  5
13B
 10
969516.092
 20
7257316.031
 30
0.0
 40
8.0
  1
60'
 50
358.494942
  7
txt
 72
     4
 11
969525.609812
 21
7257319.782307
 31
0.0
210
0.0
220
0.0
230
1.0
  0
TEXT
  8
11
  6
CONTINUOUS
 62
     7
  5
13C
 10
969587.577
 20
7257314.154
 30
0.0
 40
8.0
  1
60'
 50
358.494942
  7
txt
 72
     4
 11
969597.094812
 21
7257317.905307
 31
0.0
210
0.0
220
0.0
230
1.0
  0
TEXT
  8
11
  6
CONTINUOUS
 62
     7
  5
13D
 10
969594.001
 20
7257558.686
 30
0.0
 40
8.0
  1
60'
 50
358.494942
  7
txt
 72
     4
 11
969603.518812
 21
7257562.437307
 31
0.0
210
0.0
220
0.0
230
1.0
  0
TEXT
  8
11
  6
CONTINUOUS
 62
     7
  5
13E
 10
969532.915
 20
7257560.29
 30
0.0
 40
8.0
  1
60'
 50
358.494942
  7
txt
 72
     4
 11
969542.432812
 21
7257564.041307
 31
0.0
210
0.0
220
0.0
230
1.0
  0
TEXT
  8
11
  6
CONTINUOUS
 62
     7
  5
13F
 10
969467.929
 20
7257561.998
 30
0.0
 40
8.0
  1
60'
 50
358.494942
  7
txt
 72
     4
 11
969477.446812
 21
7257565.749307
 31
0.0
210
0.0
220
0.0
230
1.0
  0
TEXT
  8
11
  6
CONTINUOUS
 62
     7
  5
140
 10
969404.243
 20
7257563.672
 30
0.0
 40
8.0
  1
60'
 50
358.494942
  7
txt
 72
     4
 11
969413.760812
 21
7257567.423307
 31
0.0
210
0.0
220
0.0
230
1.0
  0
TEXT
  8
11
  6
CONTINUOUS
 62
     7
  5
141
 10
969347.056
 20
7257565.174
 30
0.0
 40
8.0
  1
60'
 50
358.494942
  7
txt
 72
     4
 11
969356.573812
 21
7257568.925307
 31
0.0
210
0.0
220
0.0
230
1.0
  0
TEXT
  8
11
  6
CONTINUOUS
 62
     7
  5
142
 10
969291.168
 20
7257566.643
 30
0.0
 40
8.0
  1
60'
 50
358.494942
  7
txt
 72
     4
 11
969300.685812
 21
7257570.394307
 31
0.0
210
0.0
220
0.0
230
1.0
  0
TEXT
  8
11
  6
CONTINUOUS
 62
     7
  5
143
 10
969226.182
 20
7257568.35
 30
0.0
 40
8.0
  1
60'
 50
358.494942
  7
txt
 72
     4
 11
969235.699812
 21
7257572.101307
 31
0.0
210
0.0
220
0.0
230
1.0
  0
TEXT
  8
11
  6
CONTINUOUS
 62
     7
  5
144
 10
969168.995
 20
7257569.853
 30
0.0
 40
8.0
  1
60'
 50
358.494942
  7
txt
 72
     4
 11
969178.512812
 21
7257573.604307
 31
0.0
210
0.0
220
0.0
230
1.0
  0
TEXT
  8
11
  6
CONTINUOUS
 62
     7
  5
145
 10
969200.064
 20
7258832.503
 30
0.0
 40
8.0
  1
60'
 50
358.494942
  7
txt
 72
     4
 11
969209.581812
 21
7258836.254307
 31
0.0
210
0.0
220
0.0
230
1.0
  0
TEXT
  8
11
  6
CONTINUOUS
 62
     7
  5
146
 10
969258.552
 20
7258830.965
 30
0.0
 40
8.0
  1
60'
 50
358.494942
  7
txt
 72
     4
 11
969268.069812
 21
7258834.716307
 31
0.0
210
0.0
220
0.0
230
1.0
  0
TEXT
  8
11
  6
CONTINUOUS
 62
     7
  5
147
 10
969319.637
 20
7258829.36
 30
0.0
 40
8.0
  1
60'
 50
358.494942
  7
txt
 72
     4
 11
969329.154812
 21
7258833.111307
 31
0.0
210
0.0
220
0.0
230
1.0
  0
TEXT
  8
11
  6
CONTINUOUS
 62
     7
  5
148
 10
969380.724
 20
7258827.755
 30
0.0
 40
8.0
  1
60'
 50
358.494942
  7
txt
 72
     4
 11
969390.241812
 21
7258831.506307
 31
0.0
210
0.0
220
0.0
230
1.0
  0
TEXT
  8
11
  6
CONTINUOUS
 62
     7
  5
149
 10
969439.21
 20
7258826.218
 30
0.0
 40
8.0
  1
60'
 50
358.494942
  7
txt
 72
     4
 11
969448.727812
 21
7258829.969307
 31
0.0
210
0.0
220
0.0
230
1.0
  0
TEXT
  8
11
  6
CONTINUOUS
 62
     7
  5
14A
 10
969500.298
 20
7258824.614
 30
0.0
 40
8.0
  1
60'
 50
358.494942
  7
txt
 72
     4
 11
969509.815812
 21
7258828.365307
 31
0.0
210
0.0
220
0.0
230
1.0
  0
TEXT
  8
11
  6
CONTINUOUS
 62
     7
  5
14B
 10
969557.485
 20
7258823.111
 30
0.0
 40
8.0
  1
60'
 50
358.494942
  7
txt
 72
     4
 11
969567.002812
 21
7258826.862307
 31
0.0
210
0.0
220
0.0
230
1.0
  0
TEXT
  8
11
  6
CONTINUOUS
 62
     7
  5
14C
 10
969627.669
 20
7258821.267
 30
0.0
 40
8.0
  1
60'
 50
358.494942
  7
txt
 72
     4
 11
969637.186812
 21
7258825.018307
 31
0.0
210
0.0
220
0.0
230
1.0
  0
TEXT
  8
11
  6
CONTINUOUS
 62
     7
  5
14D
 10
969621.245
 20
7258576.775
 30
0.0
 40
8.0
  1
60'
 50
358.494942
  7
txt
 72
     4
 11
969630.762812
 21
7258580.526307
 31
0.0
210
0.0
220
0.0
230
1.0
  0
TEXT
  8
11
  6
CONTINUOUS
 62
     7
  5
14E
 10
969553.66
 20
7258578.55
 30
0.0
 40
8.0
  1
60'
 50
358.494942
  7
txt
 72
     4
 11
969563.177812
 21
7258582.301307
 31
0.0
210
0.0
220
0.0
230
1.0
  0
TEXT
  8
11
  6
CONTINUOUS
 62
     7
  5
14F
 10
969496.473
 20
7258580.053
 30
0.0
 40
8.0
  1
60'
 50
358.494942
  7
txt
 72
     4
 11
969505.990812
 21
7258583.804307
 31
0.0
210
0.0
220
0.0
230
1.0
  0
TEXT
  8
11
  6
CONTINUOUS
 62
     7
  5
150
 10
969436.687
 20
7258581.623
 30
0.0
 40
8.0
  1
60'
 50
358.494942
  7
txt
 72
     4
 11
969446.204812
 21
7258585.374307
 31
0.0
210
0.0
220
0.0
230
1.0
  0
TEXT
  8
11
  6
CONTINUOUS
 62
     7
  5
151
 10
969380.8
 20
7258583.092
 30
0.0
 40
8.0
  1
60'
 50
358.494942
  7
txt
 72
     4
 11
969390.317812
 21
7258586.843307
 31
0.0
210
0.0
220
0.0
230
1.0
  0
TEXT
  8
11
  6
CONTINUOUS
 62
     7
  5
152
 10
969310.614
 20
7258584.937
 30
0.0
 40
8.0
  1
60'
 50
358.494942
  7
txt
 72
     4
 11
969320.131812
 21
7258588.688307
 31
0.0
210
0.0
220
0.0
230
1.0
  0
TEXT
  8
11
  6
CONTINUOUS
 62
     7
  5
153
 10
969258.625
 20
7258586.301
 30
0.0
 40
8.0
  1
60'
 50
358.494942
  7
txt
 72
     4
 11
969268.142812
 21
7258590.052307
 31
0.0
210
0.0
220
0.0
230
1.0
  0
TEXT
  8
11
  6
CONTINUOUS
 62
     7
  5
154
 10
969196.24
 20
7258587.941
 30
0.0
 40
8.0
  1
60'
 50
358.494942
  7
txt
 72
     4
 11
969205.757812
 21
7258591.692307
 31
0.0
210
0.0
220
0.0
230
1.0
  0
TEXT
  8
11
  6
CONTINUOUS
 62
     7
  5
155
 10
969194.326
 20
7258515.114
 30
0.0
 40
8.0
  1
60'
 50
358.494942
  7
txt
 72
     4
 11
969203.843812
 21
7258518.865307
 31
0.0
210
0.0
220
0.0
230
1.0
  0
TEXT
  8
11
  6
CONTINUOUS
 62
     7
  5
156
 10
969250.214
 20
7258513.647
 30
0.0
 40
8.0
  1
60'
 50
358.494942
  7
txt
 72
     4
 11
969259.731812
 21
7258517.398307
 31
0.0
210
0.0
220
0.0
230
1.0
  0
TEXT
  8
11
  6
CONTINUOUS
 62
     7
  5
157
 10
969308.701
 20
7258512.11
 30
0.0
 40
8.0
  1
60'
 50
358.494942
  7
txt
 72
     4
 11
969318.218812
 21
7258515.861307
 31
0.0
210
0.0
220
0.0
230
1.0
  0
TEXT
  8
11
  6
CONTINUOUS
 62
     7
  5
158
 10
969371.087
 20
7258510.471
 30
0.0
 40
8.0
  1
60'
 50
358.494942
  7
txt
 72
     4
 11
969380.604812
 21
7258514.222307
 31
0.0
210
0.0
220
0.0
230
1.0
  0
TEXT
  8
11
  6
CONTINUOUS
 62
     7
  5
159
 10
969429.574
 20
7258508.933
 30
0.0
 40
8.0
  1
60'
 50
358.494942
  7
txt
 72
     4
 11
969439.091812
 21
7258512.684307
 31
0.0
210
0.0
220
0.0
230
1.0
  0
TEXT
  8
11
  6
CONTINUOUS
 62
     7
  5
15A
 10
969486.762
 20
7258507.431
 30
0.0
 40
8.0
  1
60'
 50
358.494942
  7
txt
 72
     4
 11
969496.279812
 21
7258511.182307
 31
0.0
210
0.0
220
0.0
230
1.0
  0
TEXT
  8
11
  6
CONTINUOUS
 62
     7
  5
15B
 10
969551.747
 20
7258505.723
 30
0.0
 40
8.0
  1
60'
 50
358.494942
  7
txt
 72
     4
 11
969561.264812
 21
7258509.474307
 31
0.0
210
0.0
220
0.0
230
1.0
  0
TEXT
  8
11
  6
CONTINUOUS
 62
     7
  5
15C
 10
969616.732
 20
7258504.017
 30
0.0
 40
8.0
  1
60'
 50
358.494942
  7
txt
 72
     4
 11
969626.249812
 21
7258507.768307
 31
0.0
210
0.0
220
0.0
230
1.0
  0
TEXT
  8
11
  6
CONTINUOUS
 62
     7
  5
15D
 10
969610.343
 20
7258260.824
 30
0.0
 40
8.0
  1
60'
 50
358.494942
  7
txt
 72
     4
 11
969619.860812
 21
7258264.575307
 31
0.0
210
0.0
220
0.0
230
1.0
  0
TEXT
  8
11
  6
CONTINUOUS
 62
     7
  5
15E
 10
969544.057
 20
7258262.565
 30
0.0
 40
8.0
  1
60'
 50
358.494942
  7
txt
 72
     4
 11
969553.574812
 21
7258266.316307
 31
0.0
210
0.0
220
0.0
230
1.0
  0
TEXT
  8
11
  6
CONTINUOUS
 62
     7
  5
15F
 10
969488.17
 20
7258264.034
 30
0.0
 40
8.0
  1
60'
 50
358.494942
  7
txt
 72
     4
 11
969497.687812
 21
7258267.785307
 31
0.0
210
0.0
220
0.0
230
1.0
  0
TEXT
  8
11
  6
CONTINUOUS
 62
     7
  5
160
 10
969430.983
 20
7258265.536
 30
0.0
 40
8.0
  1
60'
 50
358.494942
  7
txt
 72
     4
 11
969440.500812
 21
7258269.287307
 31
0.0
210
0.0
220
0.0
230
1.0
  0
TEXT
  8
11
  6
CONTINUOUS
 62
     7
  5
161
 10
969367.296
 20
7258267.209
 30
0.0
 40
8.0
  1
60'
 50
358.494942
  7
txt
 72
     4
 11
969376.813812
 21
7258270.960307
 31
0.0
210
0.0
220
0.0
230
1.0
  0
TEXT
  8
11
  6
CONTINUOUS
 62
     7
  5
162
 10
969308.81
 20
7258268.747
 30
0.0
 40
8.0
  1
60'
 50
358.494942
  7
txt
 72
     4
 11
969318.327812
 21
7258272.498307
 31
0.0
210
0.0
220
0.0
230
1.0
  0
TEXT
  8
11
  6
CONTINUOUS
 62
     7
  5
163
 10
969249.022
 20
7258270.318
 30
0.0
 40
8.0
  1
60'
 50
358.494942
  7
txt
 72
     4
 11
969258.539812
 21
7258274.069307
 31
0.0
210
0.0
220
0.0
230
1.0
  0
TEXT
  8
11
  6
CONTINUOUS
 62
     7
  5
164
 10
969189.236
 20
7258271.888
 30
0.0
 40
8.0
  1
60'
 50
358.494942
  7
txt
 72
     4
 11
969198.753812
 21
7258275.639307
 31
0.0
210
0.0
220
0.0
230
1.0
  0
TEXT
  8
11
  6
CONTINUOUS
 62
     7
  5
165
 10
969187.301
 20
7258198.248
 30
0.0
 40
8.0
  1
60'
 50
358.494942
  7
txt
 72
     4
 11
969196.818812
 21
7258201.999307
 31
0.0
210
0.0
220
0.0
230
1.0
  0
TEXT
  8
11
  6
CONTINUOUS
 62
     7
  5
166
 10
969244.499
 20
7258196.746
 30
0.0
 40
8.0
  1
60'
 50
358.494942
  7
txt
 72
     4
 11
969254.016812
 21
7258200.497307
 31
0.0
210
0.0
220
0.0
230
1.0
  0
TEXT
  8
11
  6
CONTINUOUS
 62
     7
  5
167
 10
969306.885
 20
7258195.106
 30
0.0
 40
8.0
  1
60'
 50
358.494942
  7
txt
 72
     4
 11
969316.402812
 21
7258198.857307
 31
0.0
210
0.0
220
0.0
230
1.0
  0
TEXT
  8
11
  6
CONTINUOUS
 62
     7
  5
168
 10
969366.671
 20
7258193.535
 30
0.0
 40
8.0
  1
60'
 50
358.494942
  7
txt
 72
     4
 11
969376.188812
 21
7258197.286307
 31
0.0
210
0.0
220
0.0
230
1.0
  0
TEXT
  8
11
  6
CONTINUOUS
 62
     7
  5
169
 10
969421.26
 20
7258192.101
 30
0.0
 40
8.0
  1
60'
 50
358.494942
  7
txt
 72
     4
 11
969430.777812
 21
7258195.852307
 31
0.0
210
0.0
220
0.0
230
1.0
  0
TEXT
  8
11
  6
CONTINUOUS
 62
     7
  5
16A
 10
969479.747
 20
7258190.564
 30
0.0
 40
8.0
  1
60'
 50
358.494942
  7
txt
 72
     4
 11
969489.264812
 21
7258194.315307
 31
0.0
210
0.0
220
0.0
230
1.0
  0
TEXT
  8
11
  6
CONTINUOUS
 62
     7
  5
16B
 10
969540.833
 20
7258188.96
 30
0.0
 40
8.0
  1
60'
 50
358.494942
  7
txt
 72
     4
 11
969550.350812
 21
7258192.711307
 31
0.0
210
0.0
220
0.0
230
1.0
  0
TEXT
  8
11
  6
CONTINUOUS
 62
     7
  5
16C
 10
969609.719
 20
7258187.149
 30
0.0
 40
8.0
  1
60'
 50
358.494942
  7
txt
 72
     4
 11
969619.236812
 21
7258190.900307
 31
0.0
210
0.0
220
0.0
230
1.0
  0
TEXT
  8
11
  6
CONTINUOUS
 62
     7
  5
16D
 10
969603.431
 20
7257947.86
 30
0.0
 40
8.0
  1
60'
 50
358.494942
  7
txt
 72
     4
 11
969612.948812
 21
7257951.611307
 31
0.0
210
0.0
220
0.0
230
1.0
  0
TEXT
  8
11
  6
CONTINUOUS
 62
     7
  5
16E
 10
969534.546
 20
7257949.669
 30
0.0
 40
8.0
  1
60'
 50
358.494942
  7
txt
 72
     4
 11
969544.063812
 21
7257953.420307
 31
0.0
210
0.0
220
0.0
230
1.0
  0
TEXT
  8
11
  6
CONTINUOUS
 62
     7
  5
16F
 10
969483.858
 20
7257951.001
 30
0.0
 40
8.0
  1
60'
 50
358.494942
  7
txt
 72
     4
 11
969493.375812
 21
7257954.752307
 31
0.0
210
0.0
220
0.0
230
1.0
  0
TEXT
  8
11
  6
CONTINUOUS
 62
     7
  5
170
 10
969421.471
 20
7257952.64
 30
0.0
 40
8.0
  1
60'
 50
358.494942
  7
txt
 72
     4
 11
969430.988812
 21
7257956.391307
 31
0.0
210
0.0
220
0.0
230
1.0
  0
TEXT
  8
11
  6
CONTINUOUS
 62
     7
  5
171
 10
969357.785
 20
7257954.314
 30
0.0
 40
8.0
  1
60'
 50
358.494942
  7
txt
 72
     4
 11
969367.302812
 21
7257958.065307
 31
0.0
210
0.0
220
0.0
230
1.0
  0
TEXT
  8
11
  6
CONTINUOUS
 62
     7
  5
172
 10
969300.599
 20
7257955.816
 30
0.0
 40
8.0
  1
60'
 50
358.494942
  7
txt
 72
     4
 11
969310.116812
 21
7257959.567307
 31
0.0
210
0.0
220
0.0
230
1.0
  0
TEXT
  8
11
  6
CONTINUOUS
 62
     7
  5
173
 10
969236.912
 20
7257957.49
 30
0.0
 40
8.0
  1
60'
 50
358.494942
  7
txt
 72
     4
 11
969246.429812
 21
7257961.241307
 31
0.0
210
0.0
220
0.0
230
1.0
  0
TEXT
  8
11
  6
CONTINUOUS
 62
     7
  5
174
 10
969186.223
 20
7257958.822
 30
0.0
 40
8.0
  1
60'
 50
358.494942
  7
txt
 72
     4
 11
969195.740812
 21
7257962.573307
 31
0.0
210
0.0
220
0.0
230
1.0
  0
TEXT
  8
11
  6
CONTINUOUS
 62
     7
  5
175
 10
969184.287
 20
7257885.111
 30
0.0
 40
8.0
  1
60'
 50
358.494942
  7
txt
 72
     4
 11
969193.804812
 21
7257888.862307
 31
0.0
210
0.0
220
0.0
230
1.0
  0
TEXT
  8
11
  6
CONTINUOUS
 62
     7
  5
176
 10
969236.249
 20
7257883.744
 30
0.0
 40
8.0
  1
60'
 50
358.494942
  7
txt
 72
     4
 11
969245.766812
 21
7257887.495307
 31
0.0
210
0.0
220
0.0
230
1.0
  0
TEXT
  8
11
  6
CONTINUOUS
 62
     7
  5
177
 10
969296.036
 20
7257882.173
 30
0.0
 40
8.0
  1
60'
 50
358.494942
  7
txt
 72
     4
 11
969305.553812
 21
7257885.924307
 31
0.0
210
0.0
220
0.0
230
1.0
  0
TEXT
  8
11
  6
CONTINUOUS
 62
     7
  5
178
 10
969355.823
 20
7257880.603
 30
0.0
 40
8.0
  1
60'
 50
358.494942
  7
txt
 72
     4
 11
969365.340812
 21
7257884.354307
 31
0.0
210
0.0
220
0.0
230
1.0
  0
TEXT
  8
11
  6
CONTINUOUS
 62
     7
  5
179
 10
969415.61
 20
7257879.032
 30
0.0
 40
8.0
  1
60'
 50
358.494942
  7
txt
 72
     4
 11
969425.127812
 21
7257882.783307
 31
0.0
210
0.0
220
0.0
230
1.0
  0
TEXT
  8
11
  6
CONTINUOUS
 62
     7
  5
17A
 10
969475.396
 20
7257877.461
 30
0.0
 40
8.0
  1
60'
 50
358.494942
  7
txt
 72
     4
 11
969484.913812
 21
7257881.212307
 31
0.0
210
0.0
220
0.0
230
1.0
  0
TEXT
  8
11
  6
CONTINUOUS
 62
     7
  5
17B
 10
969537.782
 20
7257875.822
 30
0.0
 40
8.0
  1
60'
 50
358.494942
  7
txt
 72
     4
 11
969547.299812
 21
7257879.573307
 31
0.0
210
0.0
220
0.0
230
1.0
  0
TEXT
  8
11
  6
CONTINUOUS
 62
     7
  5
17C
 10
969601.468
 20
7257874.149
 30
0.0
 40
8.0
  1
60'
 50
358.494942
  7
txt
 72
     4
 11
969610.985812
 21
7257877.900307
 31
0.0
210
0.0
220
0.0
230
1.0
  0
TEXT
  8
11
  6
CONTINUOUS
 62
     7
  5
17D
 10
969595.078
 20
7257630.958
 30
0.0
 40
8.0
  1
60'
 50
358.494942
  7
txt
 72
     4
 11
969604.595812
 21
7257634.709307
 31
0.0
210
0.0
220
0.0
230
1.0
  0
TEXT
  8
11
  6
CONTINUOUS
 62
     7
  5
17E
 10
969530.092
 20
7257632.665
 30
0.0
 40
8.0
  1
60'
 50
358.494942
  7
txt
 72
     4
 11
969539.609812
 21
7257636.416307
 31
0.0
210
0.0
220
0.0
230
1.0
  0
TEXT
  8
11
  6
CONTINUOUS
 62
     7
  5
17F
 10
969479.404
 20
7257633.997
 30
0.0
 40
8.0
  1
60'
 50
358.494942
  7
txt
 72
     4
 11
969488.921812
 21
7257637.748307
 31
0.0
210
0.0
220
0.0
230
1.0
  0
TEXT
  8
11
  6
CONTINUOUS
 62
     7
  5
180
 10
969410.519
 20
7257635.807
 30
0.0
 40
8.0
  1
60'
 50
358.494942
  7
txt
 72
     4
 11
969420.036812
 21
7257639.558307
 31
0.0
210
0.0
220
0.0
230
1.0
  0
TEXT
  8
11
  6
CONTINUOUS
 62
     7
  5
181
 10
969348.133
 20
7257637.446
 30
0.0
 40
8.0
  1
60'
 50
358.494942
  7
txt
 72
     4
 11
969357.650812
 21
7257641.197307
 31
0.0
210
0.0
220
0.0
230
1.0
  0
TEXT
  8
11
  6
CONTINUOUS
 62
     7
  5
182
 10
969292.246
 20
7257638.914
 30
0.0
 40
8.0
  1
60'
 50
358.494942
  7
txt
 72
     4
 11
969301.763812
 21
7257642.665307
 31
0.0
210
0.0
220
0.0
230
1.0
  0
TEXT
  8
11
  6
CONTINUOUS
 62
     7
  5
183
 10
969233.758
 20
7257640.451
 30
0.0
 40
8.0
  1
60'
 50
358.494942
  7
txt
 72
     4
 11
969243.275812
 21
7257644.202307
 31
0.0
210
0.0
220
0.0
230
1.0
  0
TEXT
  8
11
  6
CONTINUOUS
 62
     7
  5
184
 10
969172.672
 20
7257642.056
 30
0.0
 40
8.0
  1
60'
 50
358.494942
  7
txt
 72
     4
 11
969182.189812
 21
7257645.807307
 31
0.0
210
0.0
220
0.0
230
1.0
  0
TEXT
  8
11
  6
CONTINUOUS
 62
     7
  5
185
 10
969608.119
 20
7258087.402
 30
0.0
 40
8.0
  1
75'
 50
358.494942
  7
txt
 72
     4
 11
969617.889725
 21
7258091.146662
 31
0.0
210
0.0
220
0.0
230
1.0
  0
TEXT
  8
11
  6
CONTINUOUS
 62
     7
  5
186
 10
969607.196
 20
7258052.288
 30
0.0
 40
8.0
  1
75'
 50
358.494942
  7
txt
 72
     4
 11
969616.966725
 21
7258056.032662
 31
0.0
210
0.0
220
0.0
230
1.0
  0
TEXT
  8
11
  6
CONTINUOUS
 62
     7
  5
187
 10
969599.85
 20
7257772.683
 30
0.0
 40
8.0
  1
75'
 50
358.494942
  7
txt
 72
     4
 11
969609.620725
 21
7257776.427662
 31
0.0
210
0.0
220
0.0
230
1.0
  0
TEXT
  8
11
  6
CONTINUOUS
 62
     7
  5
188
 10
969598.825
 20
7257733.669
 30
0.0
 40
8.0
  1
75'
 50
358.494942
  7
txt
 72
     4
 11
969608.595725
 21
7257737.413662
 31
0.0
210
0.0
220
0.0
230
1.0
  0
TEXT
  8
11
  6
CONTINUOUS
 62
     7
  5
189
 10
969588.931
 20
7257455.83
 30
0.0
 40
8.0
  1
75'
 50
358.494942
  7
txt
 72
     4
 11
969598.701725
 21
7257459.574662
 31
0.0
210
0.0
220
0.0
230
1.0
  0
TEXT
  8
11
  6
CONTINUOUS
 62
     7
  5
18A
 10
969587.905
 20
7257416.775
 30
0.0
 40
8.0
  1
75'
 50
358.494942
  7
txt
 72
     4
 11
969597.675725
 21
7257420.519662
 31
0.0
210
0.0
220
0.0
230
1.0
  0
TEXT
  8
11
  6
CONTINUOUS
 62
     7
  5
18B
 10
969613.882
 20
7258405.436
 30
0.0
 40
8.0
  1
75'
 50
358.494942
  7
txt
 72
     4
 11
969623.652725
 21
7258409.180662
 31
0.0
210
0.0
220
0.0
230
1.0
  0
TEXT
  8
11
  6
CONTINUOUS
 62
     7
  5
18C
 10
969612.753
 20
7258362.521
 30
0.0
 40
8.0
  1
75'
 50
358.494942
  7
txt
 72
     4
 11
969622.523725
 21
7258366.265662
 31
0.0
210
0.0
220
0.0
230
1.0
  0
TEXT
  8
11
  6
CONTINUOUS
 62
     7
  5
18D
 10
969622.048
 20
7258716.254
 30
0.0
 40
8.0
  1
75'
 50
358.494942
  7
txt
 72
     4
 11
969631.818725
 21
7258719.998662
 31
0.0
210
0.0
220
0.0
230
1.0
  0
TEXT
  8
11
  6
CONTINUOUS
 62
     7
  5
18E
 10
969621.125
 20
7258681.141
 30
0.0
 40
8.0
  1
75'
 50
358.494942
  7
txt
 72
     4
 11
969630.895725
 21
7258684.885662
 31
0.0
210
0.0
220
0.0
230
1.0
  0
TEXT
  8
11
  6
CONTINUOUS
 62
     7
  5
18F
 10
969722.232
 20
7258052.409
 30
0.0
 40
8.0
  1
1635'
 50
88.494942
  7
txt
 72
     4
 11
969718.654437
 21
7258068.53953
 31
0.0
210
0.0
220
0.0
230
1.0
  0
LINE
  8
6
  6
CONTINUOUS
 62
     7
  5
190
 10
969688.121
 20
7257251.155
 30
0.0
 11
970219.037
 21
7257237.205
 31
0.0
  0
LINE
  8
6
  6
CONTINUOUS
 62
     7
  5
191
 10
970219.037
 20
7257237.205
 30
0.0
 11
970220.508
 21
7257293.187
 31
0.0
  0
LINE
  8
6
  6
CONTINUOUS
 62
     7
  5
192
 10
970192.618
 20
7257293.919
 30
0.0
 11
969689.591
 21
7257307.136
 31
0.0
  0
LINE
  8
6
  6
CONTINUOUS
 62
     7
  5
193
 10
969692.743
 20
7257427.094
 30
0.0
 11
970195.77
 21
7257413.878
 31
0.0
  0
LINE
  8
6
  6
CONTINUOUS
 62
     7
  5
194
 10
969693.269
 20
7257447.088
 30
0.0
 11
970196.294
 21
7257433.87
 31
0.0
  0
LINE
  8
6
  6
CONTINUOUS
 62
     7
  5
195
 10
969696.421
 20
7257567.046
 30
0.0
 11
970199.446
 21
7257553.829
 31
0.0
  0
LINE
  8
6
  6
CONTINUOUS
 62
     7
  5
196
 10
969697.891
 20
7257623.027
 30
0.0
 11
970200.917
 21
7257609.81
 31
0.0
  0
LINE
  8
6
  6
CONTINUOUS
 62
     7
  5
197
 10
969701.043
 20
7257742.986
 30
0.0
 11
970204.069
 21
7257729.768
 31
0.0
  0
LINE
  8
6
  6
CONTINUOUS
 62
     7
  5
198
 10
969701.568
 20
7257762.978
 30
0.0
 11
970204.594
 21
7257749.762
 31
0.0
  0
LINE
  8
6
  6
CONTINUOUS
 62
     7
  5
199
 10
970232.356
 20
7257744.092
 30
0.0
 11
970220.508
 21
7257293.187
 31
0.0
  0
TEXT
  8
11
  6
CONTINUOUS
 62
     7
  5
19A
 10
969611.533
 20
7257591.453
 30
0.0
 40
8.0
  1
56'
 50
88.494942
  7
txt
 72
     4
 11
969607.782534
 21
7257601.002801
 31
0.0
210
0.0
220
0.0
230
1.0
  0
TEXT
  8
11
  6
CONTINUOUS
 62
     7
  5
19B
 10
969713.152
 20
7257587.892
 30
0.0
 40
8.0
  1
56'
 50
88.494942
  7
txt
 72
     4
 11
969709.401534
 21
7257597.441801
 31
0.0
210
0.0
220
0.0
230
1.0
  0
TEXT
  8
11
  6
CONTINUOUS
 62
     7
  5
19C
 10
969704.624
 20
7257263.315
 30
0.0
 40
8.0
  1
56'
 50
88.494942
  7
txt
 72
     4
 11
969700.873534
 21
7257272.864801
 31
0.0
210
0.0
220
0.0
230
1.0
  0
TEXT
  8
11
  6
CONTINUOUS
 62
     7
  5
19D
 10
970183.201
 20
7257256.693
 30
0.0
 40
8.0
  1
56'
 50
88.494942
  7
txt
 72
     4
 11
970179.450534
 21
7257266.242801
 31
0.0
210
0.0
220
0.0
230
1.0
  0
TEXT
  8
11
  6
CONTINUOUS
 62
     7
  5
19E
 10
969714.919
 20
7257744.788
 30
0.0
 40
8.0
  1
20'
 50
88.494942
  7
txt
 72
     4
 11
969711.172683
 21
7257754.495747
 31
0.0
210
0.0
220
0.0
230
1.0
  0
TEXT
  8
11
  6
CONTINUOUS
 62
     7
  5
19F
 10
970195.991
 20
7257732.999
 30
0.0
 40
8.0
  1
20'
 50
88.494942
  7
txt
 72
     4
 11
970192.244683
 21
7257742.706747
 31
0.0
210
0.0
220
0.0
230
1.0
  0
TEXT
  8
11
  6
CONTINUOUS
 62
     7
  5
1A0
 10
969706.569
 20
7257427.008
 30
0.0
 40
8.0
  1
20'
 50
88.494942
  7
txt
 72
     4
 11
969702.822683
 21
7257436.715747
 31
0.0
210
0.0
220
0.0
230
1.0
  0
TEXT
  8
11
  6
CONTINUOUS
 62
     7
  5
1A1
 10
970188.539
 20
7257416.045
 30
0.0
 40
8.0
  1
20'
 50
88.494942
  7
txt
 72
     4
 11
970184.792683
 21
7257425.752747
 31
0.0
210
0.0
220
0.0
230
1.0
  0
TEXT
  8
11
  6
CONTINUOUS
 62
     7
  5
1A2
 10
969919.285
 20
7257289.284
 30
0.0
 40
8.0
  1
531.10'
 50
358.494942
  7
txt
 72
     4
 11
969940.16889
 21
7257292.736672
 31
0.0
210
0.0
220
0.0
230
1.0
  0
TEXT
  8
11
  6
CONTINUOUS
 62
     7
  5
1A3
 10
969916.439
 20
7257247.697
 30
0.0
 40
8.0
  1
531.10'
 50
358.494942
  7
txt
 72
     4
 11
969937.32289
 21
7257251.149672
 31
0.0
210
0.0
220
0.0
230
1.0
  0
TEXT
  8
11
  6
CONTINUOUS
 62
     7
  5
1A4
 10
969926.617
 20
7257408.13
 30
0.0
 40
8.0
  1
503.20'
 50
358.494942
  7
txt
 72
     4
 11
969950.303922
 21
7257411.509024
 31
0.0
210
0.0
220
0.0
230
1.0
  0
TEXT
  8
11
  6
CONTINUOUS
 62
     7
  5
1A5
 10
969924.072
 20
7257444.758
 30
0.0
 40
8.0
  1
503.20'
 50
358.494942
  7
txt
 72
     4
 11
969947.758922
 21
7257448.137024
 31
0.0
210
0.0
220
0.0
230
1.0
  0
TEXT
  8
11
  6
CONTINUOUS
 62
     7
  5
1A6
 10
969914.295
 20
7257606.564
 30
0.0
 40
8.0
  1
503.20'
 50
358.494942
  7
txt
 72
     4
 11
969937.981922
 21
7257609.943024
 31
0.0
210
0.0
220
0.0
230
1.0
  0
TEXT
  8
11
  6
CONTINUOUS
 62
     7
  5
1A7
 10
969918.436
 20
7257563.943
 30
0.0
 40
8.0
  1
503.20'
 50
358.494942
  7
txt
 72
     4
 11
969942.122922
 21
7257567.322024
 31
0.0
210
0.0
220
0.0
230
1.0
  0
TEXT
  8
11
  6
CONTINUOUS
 62
     7
  5
1A8
 10
969911.286
 20
7257725.68
 30
0.0
 40
8.0
  1
503.20'
 50
358.494942
  7
txt
 72
     4
 11
969934.972922
 21
7257729.059024
 31
0.0
210
0.0
220
0.0
230
1.0
  0
TEXT
  8
11
  6
CONTINUOUS
 62
     7
  5
1A9
 10
970209.868
 20
7257749.243
 30
0.0
 40
8.0
  1
27.90'
 50
358.494942
  7
txt
 72
     4
 11
970229.430346
 21
7257752.730394
 31
0.0
210
0.0
220
0.0
230
1.0
  0
TEXT
  8
11
  6
CONTINUOUS
 62
     7
  5
1AA
 10
970198.826
 20
7257298.961
 30
0.0
 40
8.0
  1
27.90'
 50
358.494942
  7
txt
 72
     4
 11
970218.388346
 21
7257302.448394
 31
0.0
210
0.0
220
0.0
230
1.0
  0
TEXT
  8
11
  6
CONTINUOUS
 62
     7
  5
1AB
 10
970223.383
 20
7257511.942
 30
0.0
 40
8.0
  1
451'
 50
88.494942
  7
txt
 72
     4
 11
970219.710305
 21
7257524.45178
 31
0.0
210
0.0
220
0.0
230
1.0
  0
TEXT
  8
11
  6
CONTINUOUS
 62
     7
  5
1AC
 10
970239.18
 20
7257512.819
 30
0.0
 40
8.0
  1
507'
 50
88.494942
  7
txt
 72
     4
 11
970235.539559
 21
7257526.556356
 31
0.0
210
0.0
220
0.0
230
1.0
  0
TEXT
  8
11
  6
CONTINUOUS
 62
     7
  5
1AD
 10
969927.565
 20
7257761.88
 30
0.0
 40
8.0
  1
531.10'
 50
358.494942
  7
txt
 72
     4
 11
969948.44889
 21
7257765.332672
 31
0.0
210
0.0
220
0.0
230
1.0
  0
TEXT
  8
19
  6
CONTINUOUS
 62
     1
  5
1AF
 10
969926.563
 20
7261958.966
 30
0.0
 40
24.0
  1
FARM RD 835
 50
358.26
  7
ROMANC
 72
     4
 11
970072.461233
 21
7261966.539429
 31
0.0
210
0.0
220
0.0
230
1.0
  0
TEXT
  8
19
  6
CONTINUOUS
 62
     1
  5
1B0
 10
971694.4
 20
7261905.263
 30
0.0
 40
24.0
  1
FARM RD 835
 50
358.26
  7
ROMANC
 72
     4
 11
971840.298233
 21
7261912.836429
 31
0.0
210
0.0
220
0.0
230
1.0
  0
TEXT
  8
19
  6
CONTINUOUS
 62
     1
  5
1B1
 10
973818.936
 20
7261848.01
 30
0.0
 40
24.0
  1
FARM RD 835
 50
358.26
  7
ROMANC
 72
     4
 11
973964.834233
 21
7261855.583429
 31
0.0
210
0.0
220
0.0
230
1.0
  0
TEXT
  8
19
  6
CONTINUOUS
 62
     1
  5
1B2
 10
969691.825
 20
7258136.651
 30
0.0
 40
24.0
  1
REDWOOD AVE
 50
88.494942
  7
ROMANC
 72
     4
 11
969683.705411
 21
7258284.497268
 31
0.0
210
0.0
220
0.0
230
1.0
  0
TEXT
  8
19
  6
CONTINUOUS
 62
     1
  5
1B3
 10
969277.351
 20
7258859.983
 30
0.0
 40
24.0
  1
E 60TH ST
 50
358.494942
  7
ROMANC
 72
     4
 11
969391.196002
 21
7258868.995947
 31
0.0
210
0.0
220
0.0
230
1.0
  0
TEXT
  8
19
  6
CONTINUOUS
 62
     1
  5
1B4
 10
969270.629
 20
7258540.612
 30
0.0
 40
24.0
  1
E 61ST ST
 50
358.494942
  7
ROMANC
 72
     4
 11
969375.312164
 21
7258549.865668
 31
0.0
210
0.0
220
0.0
230
1.0
  0
TEXT
  8
19
  6
CONTINUOUS
 62
     1
  5
1B5
 10
969273.649
 20
7258221.991
 30
0.0
 40
24.0
  1
E 62ND ST
 50
358.494942
  7
ROMANC
 72
     4
 11
969386.361393
 21
7258231.033706
 31
0.0
210
0.0
220
0.0
230
1.0
  0
TEXT
  8
19
  6
CONTINUOUS
 62
     1
  5
1B6
 10
969269.757
 20
7257911.213
 30
0.0
 40
24.0
  1
E 63RD ST
 50
358.494942
  7
ROMANC
 72
     4
 11
969381.335784
 21
7257920.285491
 31
0.0
210
0.0
220
0.0
230
1.0
  0
TEXT
  8
19
  6
CONTINUOUS
 62
     1
  5
1B7
 10
969264.384
 20
7257597.334
 30
0.0
 40
24.0
  1
E 64TH ST
 50
358.494942
  7
ROMANC
 72
     4
 11
969379.362611
 21
7257606.317163
 31
0.0
210
0.0
220
0.0
230
1.0
  0
TEXT
  8
19
  6
CONTINUOUS
 62
     1
  5
1B8
 10
969269.65
 20
7257276.855
 30
0.0
 40
24.0
  1
E 65TH ST
 50
358.494942
  7
ROMANC
 72
     4
 11
969383.495002
 21
7257285.867947
 31
0.0
210
0.0
220
0.0
230
1.0
  0
SOLID
  8
21
  6
DASHDOT
 62
     7
  5
1BA
 10
969701.482
 20
7257743.036
 30
0.0
 11
969702.008
 21
7257763.03
 31
0.0
 12
970204.509
 22
7257729.82
 32
0.0
 13
970205.033
 23
7257749.813
 33
0.0
  0
SOLID
  8
21
  6
DASHDOT
 62
     7
  5
1BB
 10
970220.947
 20
7257293.238
 30
0.0
 11
970232.792
 21
7257744.081
 31
0.0
 12
970193.057
 22
7257293.97
 32
0.0
 13
970204.902
 23
7257744.814
 33
0.0
  0
SOLID
  8
21
  6
DASHDOT
 62
     7
  5
1BC
 10
969688.56
 20
7257251.206
 30
0.0
 11
969690.03
 21
7257307.186
 31
0.0
 12
970219.485
 22
7257237.556
 32
0.0
 13
970220.947
 23
7257293.238
 33
0.0
  0
SOLID
  8
21
  6
DASHDOT
 62
     7
  5
1BD
 10
969693.182
 20
7257427.145
 30
0.0
 11
969693.707
 21
7257447.139
 31
0.0
 12
970196.209
 22
7257413.928
 32
0.0
 13
970196.734
 23
7257433.922
 33
0.0
  0
SOLID
  8
21
  6
DASHDOT
 62
     7
  5
1BE
 10
969696.86
 20
7257567.097
 30
0.0
 11
969698.33
 21
7257623.078
 31
0.0
 12
970199.886
 22
7257553.881
 32
0.0
 13
970201.357
 23
7257609.861
 33
0.0
  0
TEXT
  8
13
  6
CONTINUOUS
 62
    14
  5
1C0
 10
969901.526
 20
7257741.923
 30
0.0
 40
8.0
  1
V5525 P196 T4
 50
357.828275
  7
txt
 72
     4
 11
969950.900199
 21
7257744.053511
 31
0.0
210
0.0
220
0.0
230
1.0
  0
TEXT
  8
13
  6
CONTINUOUS
 62
    14
  5
1C1
 10
969900.491
 20
7257583.986
 30
0.0
 40
8.0
  1
V5525 P196 T3
 50
357.828275
  7
txt
 72
     4
 11
969949.676334
 21
7257586.123673
 31
0.0
210
0.0
220
0.0
230
1.0
  0
TEXT
  8
13
  6
CONTINUOUS
 62
    14
  5
1C2
 10
969893.732
 20
7257426.698
 30
0.0
 40
8.0
  1
V5525 P196 T2
 50
357.828275
  7
txt
 72
     4
 11
969942.917334
 21
7257428.835673
 31
0.0
210
0.0
220
0.0
230
1.0
  0
TEXT
  8
13
  6
CONTINUOUS
 62
    14
  5
1C3
 10
969888.562
 20
7257267.766
 30
0.0
 40
8.0
  1
V5525 P196 T1
 50
357.828275
  7
txt
 72
     4
 11
969936.331352
 21
7257269.95737
 31
0.0
210
0.0
220
0.0
230
1.0
  0
TEXT
  8
13
  6
CONTINUOUS
 62
    14
  5
1C4
 10
970213.145
 20
7257425.014
 30
0.0
 40
8.0
  1
V5525 P196 T5
 50
87.828275
  7
txt
 72
     4
 11
970211.007327
 21
7257474.199334
 31
0.0
210
0.0
220
0.0
230
1.0
  0
LINE
  8
6
  6
CONTINUOUS
 62
     7
  5
1C5
 10
970204.466
 20
7257744.825
 30
0.0
 11
970232.356
 21
7257744.092
 31
0.0
  0
CIRCLE
  8
8
  6
CONTINUOUS
 62
     7
  5
1C7
 10
969618.615978
 20
7257309.000548
 30
0.0
 40
2.0
210
0.0
220
0.0
230
1.0
  0
CIRCLE
  8
8
  6
CONTINUOUS
 62
     7
  5
1C8
 10
969634.004306
 20
7257323.600899
 30
0.0
 40
2.0
210
0.0
220
0.0
230
1.0
  0
CIRCLE
  8
8
  6
CONTINUOUS
 62
     7
  5
1C9
 10
969640.045436
 20
7257553.522116
 30
0.0
 40
2.0
210
0.0
220
0.0
230
1.0
  0
CIRCLE
  8
8
  6
CONTINUOUS
 62
     7
  5
1CA
 10
969625.445084
 20
7257568.910444
 30
0.0
 40
2.0
210
0.0
220
0.0
230
1.0
  0
CIRCLE
  8
8
  6
CONTINUOUS
 62
     7
  5
1CB
 10
969626.915541
 20
7257624.891931
 30
0.0
 40
2.0
210
0.0
220
0.0
230
1.0
  0
CIRCLE
  8
8
  6
CONTINUOUS
 62
     7
  5
1CC
 10
969642.304869
 20
7257639.492244
 30
0.0
 40
2.0
210
0.0
220
0.0
230
1.0
  0
CIRCLE
  8
8
  6
CONTINUOUS
 62
     7
  5
1CD
 10
969648.345998
 20
7257869.413461
 30
0.0
 40
2.0
210
0.0
220
0.0
230
1.0
  0
CIRCLE
  8
8
  6
CONTINUOUS
 62
     7
  5
1CE
 10
969633.744647
 20
7257884.801827
 30
0.0
 40
2.0
210
0.0
220
0.0
230
1.0
  0
CIRCLE
  8
8
  6
CONTINUOUS
 62
     7
  5
1CF
 10
969635.215066
 20
7257940.782315
 30
0.0
 40
2.0
210
0.0
220
0.0
230
1.0
  0
CIRCLE
  8
8
  6
CONTINUOUS
 62
     7
  5
1D0
 10
969650.604432
 20
7257955.383627
 30
0.0
 40
2.0
210
0.0
220
0.0
230
1.0
  0
CIRCLE
  8
8
  6
CONTINUOUS
 62
     7
  5
1D1
 10
969656.645523
 20
7258185.303845
 30
0.0
 40
2.0
210
0.0
220
0.0
230
1.0
  0
CIRCLE
  8
8
  6
CONTINUOUS
 62
     7
  5
1D2
 10
969642.04421
 20
7258200.693211
 30
0.0
 40
2.0
210
0.0
220
0.0
230
1.0
  0
CIRCLE
  8
8
  6
CONTINUOUS
 62
     7
  5
1D3
 10
969643.515628
 20
7258256.67366
 30
0.0
 40
2.0
210
0.0
220
0.0
230
1.0
  0
CIRCLE
  8
8
  6
CONTINUOUS
 62
     7
  5
1D4
 10
969658.903957
 20
7258271.274011
 30
0.0
 40
2.0
210
0.0
220
0.0
230
1.0
  0
CIRCLE
  8
8
  6
CONTINUOUS
 62
     7
  5
1D5
 10
969664.945086
 20
7258501.195228
 30
0.0
 40
2.0
210
0.0
220
0.0
230
1.0
  0
CIRCLE
  8
8
  6
CONTINUOUS
 62
     7
  5
1D6
 10
969650.344735
 20
7258516.583557
 30
0.0
 40
2.0
210
0.0
220
0.0
230
1.0
  0
CIRCLE
  8
8
  6
CONTINUOUS
 62
     7
  5
1D7
 10
969651.815153
 20
7258572.564044
 30
0.0
 40
2.0
210
0.0
220
0.0
230
1.0
  0
CIRCLE
  8
8
  6
CONTINUOUS
 62
     7
  5
1D8
 10
969667.20352
 20
7258587.165395
 30
0.0
 40
2.0
210
0.0
220
0.0
230
1.0
  0
CIRCLE
  8
8
  6
CONTINUOUS
 62
     7
  5
1D9
 10
969673.244611
 20
7258817.085612
 30
0.0
 40
2.0
210
0.0
220
0.0
230
1.0
  0
CIRCLE
  8
8
  6
CONTINUOUS
 62
     7
  5
1DA
 10
969658.644298
 20
7258832.47494
 30
0.0
 40
2.0
210
0.0
220
0.0
230
1.0
  0
LINE
  8
6
  6
CONTINUOUS
 62
     7
  5
1DB
 10
970192.618
 20
7257293.919
 30
0.0
 11
970195.77
 21
7257413.878
 31
0.0
  0
LINE
  8
6
  6
CONTINUOUS
 62
     7
  5
1DC
 10
969696.421
 20
7257567.046
 30
0.0
 11
969693.269
 21
7257447.088
 31
0.0
  0
LINE
  8
6
  6
CONTINUOUS
 62
     7
  5
1DD
 10
969692.743
 20
7257427.094
 30
0.0
 11
969689.591
 21
7257307.136
 31
0.0
  0
LINE
  8
6
  6
CONTINUOUS
 62
     7
  5
1DE
 10
970196.294
 20
7257433.87
 30
0.0
 11
970199.446
 21
7257553.829
 31
0.0
  0
LINE
  8
6
  6
CONTINUOUS
 62
     7
  5
1DF
 10
969731.09
 20
7258886.591
 30
0.0
 11
969701.568
 21
7257762.978
 31
0.0
  0
LINE
  8
6
  6
CONTINUOUS
 62
     7
  5
1E0
 10
969701.043
 20
7257742.986
 30
0.0
 11
969697.891
 21
7257623.027
 31
0.0
  0
LINE
  8
6
  6
CONTINUOUS
 62
     7
  5
1E1
 10
970200.917
 20
7257609.81
 30
0.0
 11
970204.069
 21
7257729.768
 31
0.0
  0
LINE
  8
6
  6
CONTINUOUS
 62
     7
  5
1E2
 10
970204.466
 20
7257744.825
 30
0.0
 11
970204.594
 21
7257749.762
 31
0.0
  0
TEXT
  8
11
  6
CONTINUOUS
 62
     7
  5
1E3
 10
969102.37
 20
7257325.068
 30
0.0
 40
8.0
  1
60'
 50
358.494942
  7
txt
 72
     4
 11
969111.887812
 21
7257328.819307
 31
0.0
210
0.0
220
0.0
230
1.0
  0
TEXT
  8
11
  6
CONTINUOUS
 62
     7
  5
1E4
 10
969110.507
 20
7257572.572
 30
0.0
 40
8.0
  1
60'
 50
358.494942
  7
txt
 72
     4
 11
969120.024812
 21
7257576.323307
 31
0.0
210
0.0
220
0.0
230
1.0
  0
TEXT
  8
11
  6
CONTINUOUS
 62
     7
  5
1E5
 10
969109.492
 20
7257639.943
 30
0.0
 40
8.0
  1
60'
 50
358.494942
  7
txt
 72
     4
 11
969119.009812
 21
7257643.694307
 31
0.0
210
0.0
220
0.0
230
1.0
  0
TEXT
  8
11
  6
CONTINUOUS
 62
     7
  5
1E6
 10
969116.296
 20
7257888.19
 30
0.0
 40
8.0
  1
60'
 50
358.494942
  7
txt
 72
     4
 11
969125.813812
 21
7257891.941307
 31
0.0
210
0.0
220
0.0
230
1.0
  0
TEXT
  8
11
  6
CONTINUOUS
 62
     7
  5
1E7
 10
969117.487
 20
7257955.418
 30
0.0
 40
8.0
  1
60'
 50
358.494942
  7
txt
 72
     4
 11
969127.004812
 21
7257959.169307
 31
0.0
210
0.0
220
0.0
230
1.0
  0
TEXT
  8
11
  6
CONTINUOUS
 62
     7
  5
1E8
 10
969132.407
 20
7258203.334
 30
0.0
 40
8.0
  1
60'
 50
358.494942
  7
txt
 72
     4
 11
969141.924812
 21
7258207.085307
 31
0.0
210
0.0
220
0.0
230
1.0
  0
TEXT
  8
11
  6
CONTINUOUS
 62
     7
  5
1E9
 10
969133.133
 20
7258271.511
 30
0.0
 40
8.0
  1
60'
 50
358.494942
  7
txt
 72
     4
 11
969142.650812
 21
7258275.262307
 31
0.0
210
0.0
220
0.0
230
1.0
  0
TEXT
  8
11
  6
CONTINUOUS
 62
     7
  5
1EA
 10
969132.95
 20
7258520.948
 30
0.0
 40
8.0
  1
60'
 50
358.494942
  7
txt
 72
     4
 11
969142.467812
 21
7258524.699307
 31
0.0
210
0.0
220
0.0
230
1.0
  0
TEXT
  8
11
  6
CONTINUOUS
 62
     7
  5
1EB
 10
969140.118
 20
7258587.064
 30
0.0
 40
8.0
  1
60'
 50
358.494942
  7
txt
 72
     4
 11
969149.635812
 21
7258590.815307
 31
0.0
210
0.0
220
0.0
230
1.0
  0
TEXT
  8
11
  6
CONTINUOUS
 62
     7
  5
1EC
 10
969150.115
 20
7258835.9
 30
0.0
 40
8.0
  1
60'
 50
358.494942
  7
txt
 72
     4
 11
969159.632812
 21
7258839.651307
 31
0.0
210
0.0
220
0.0
230
1.0
  0
POLYLINE
  8
1
  6
HIDDEN
 62
   253
  5
1EE
 66
     1
 10
0.0
 20
0.0
 30
0.0
 70
     1
  0
VERTEX
  8
1
  6
HIDDEN
 62
   253
  5
1EF
 10
969356.376
 20
7262033.555
 30
0.0
  0
VERTEX
  8
1
  6
HIDDEN
 62
   253
  5
1F0
 10
974638.176
 20
7261865.925
 30
0.0
  0
VERTEX
  8
1
  6
HIDDEN
 62
   253
  5
1F1
 10
974492.516
 20
7256620.914
 30
0.0
  0
VERTEX
  8
1
  6
HIDDEN
 62
   253
  5
1F2
 10
969215.104
 20
7256786.197
 30
0.0
  0
SEQEND
  8
1
  6
HIDDEN
 62
   253
  5
1F3
  0
LINE
  8
6
  6
CONTINUOUS
 62
     7
  5
1F4
 10
969198.864
 20
7261998.982
 30
0.0
 11
970017.463
 21
7261969.094
 31
0.0
  0
POLYLINE
  8
58
  6
DIVIDE
 62
   216
  5
1F6
 66
     1
 10
0.0
 20
0.0
 30
0.0
  0
VERTEX
  8
58
  6
DIVIDE
 62
   216
  5
1F7
 10
970330.716
 20
7256805.929
 30
0.0
  0
VERTEX
  8
58
  6
DIVIDE
 62
   216
  5
1F8
 10
970410.877
 20
7259444.712
 30
0.0
  0
VERTEX
  8
58
  6
DIVIDE
 62
   216
  5
1F9
 10
969149.293
 20
7259483.037
 30
0.0
  0
SEQEND
  8
58
  6
DIVIDE
 62
   216
  5
1FA
  0
LINE
  8
58
  6
DIVIDE
 62
   216
  5
1FB
 10
970330.716
 20
7256805.929
 30
0.0
 11
969097.288
 21
7256843.4
 31
0.0
  0
LINE
  8
6
  6
CONTINUOUS
 62
     7
  5
1FC
 10
970017.625
 20
7261973.538
 30
0.0
 11
973023.451
 21
7261877.96
 31
0.0
  0
ARC
  8
6
  6
CONTINUOUS
 62
     7
  5
1FD
 10
972957.429456
 20
7267644.519269
 30
0.0
 40
5766.937198
 50
270.655953
 51
273.694039
210
0.0
220
0.0
230
1.0
  0
LINE
  8
6
  6
CONTINUOUS
 62
     7
  5
1FE
 10
970017.625
 20
7261973.538
 30
0.0
 11
970017.463
 21
7261969.094
 31
0.0
  0
ENDSEC
  0
EOF
