  0
SECTION
  2
HEADER
  9
$ACADVER
  1
AC1009
  9
$INSBASE
 10
0.0
 20
0.0
 30
0.0
  9
$EXTMIN
 10
968502.53
 20
7272537.647
 30
0.0
  9
$EXTMAX
 10
975821.504
 20
7279641.328
 30
0.0
  9
$LIMMIN
 10
0.0
 20
0.0
  9
$LIMMAX
 10
12.0
 20
9.0
  9
$ORTHOMODE
 70
     0
  9
$REGENMODE
 70
     1
  9
$FILLMODE
 70
     1
  9
$QTEXTMODE
 70
     0
  9
$MIRRTEXT
 70
     1
  9
$DRAGMODE
 70
     2
  9
$LTSCALE
 40
1.0
  9
$OSMODE
 70
     0
  9
$ATTMODE
 70
     1
  9
$TEXTSIZE
 40
0.2
  9
$TRACEWID
 40
0.05
  9
$TEXTSTYLE
  7
STANDARD
  9
$CLAYER
  8
0
  9
$CELTYPE
  6
CONTINUOUS
  9
$CECOLOR
 62
   256
  9
$DIMSCALE
 40
1.0
  9
$DIMASZ
 40
0.18
  9
$DIMEXO
 40
0.0625
  9
$DIMDLI
 40
0.38
  9
$DIMRND
 40
0.0
  9
$DIMDLE
 40
0.0
  9
$DIMEXE
 40
0.18
  9
$DIMTP
 40
0.0
  9
$DIMTM
 40
0.0
  9
$DIMTXT
 40
0.18
  9
$DIMCEN
 40
0.09
  9
$DIMTSZ
 40
0.0
  9
$DIMTOL
 70
     0
  9
$DIMLIM
 70
     0
  9
$DIMTIH
 70
     1
  9
$DIMTOH
 70
     1
  9
$DIMSE1
 70
     0
  9
$DIMSE2
 70
     0
  9
$DIMTAD
 70
     0
  9
$DIMZIN
 70
     0
  9
$DIMBLK
  1

  9
$DIMASO
 70
     1
  9
$DIMSHO
 70
     1
  9
$DIMPOST
  1

  9
$DIMAPOST
  1

  9
$DIMALT
 70
     0
  9
$DIMALTD
 70
     2
  9
$DIMALTF
 40
25.4
  9
$DIMLFAC
 40
1.0
  9
$DIMTOFL
 70
     0
  9
$DIMTVP
 40
0.0
  9
$DIMTIX
 70
     0
  9
$DIMSOXD
 70
     0
  9
$DIMSAH
 70
     0
  9
$DIMBLK1
  1

  9
$DIMBLK2
  1

  9
$DIMSTYLE
  2
STANDARD
  9
$DIMCLRD
 70
     0
  9
$DIMCLRE
 70
     0
  9
$DIMCLRT
 70
     0
  9
$DIMTFAC
 40
1.0
  9
$DIMGAP
 40
0.09
  9
$LUNITS
 70
     2
  9
$LUPREC
 70
     4
  9
$AXISMODE
 70
     0
  9
$AXISUNIT
 10
0.0
 20
0.0
  9
$SKETCHINC
 40
0.1
  9
$FILLETRAD
 40
0.0
  9
$AUNITS
 70
     0
  9
$AUPREC
 70
     0
  9
$MENU
  1
acad
  9
$ELEVATION
 40
0.0
  9
$PELEVATION
 40
0.0
  9
$THICKNESS
 40
0.0
  9
$LIMCHECK
 70
     0
  9
$BLIPMODE
 70
     1
  9
$CHAMFERA
 40
0.0
  9
$CHAMFERB
 40
0.0
  9
$SKPOLY
 70
     0
  9
$TDCREATE
 40
2453013.903425926
  9
$TDUPDATE
 40
2453013.903425926
  9
$TDINDWG
 40
0.0000000000
  9
$TDUSRTIMER
 40
0.0000000000
  9
$USRTIMER
 70
     1
  9
$ANGBASE
 50
0.0
  9
$ANGDIR
 70
     0
  9
$PDMODE
 70
     0
  9
$PDSIZE
 40
0.0
  9
$PLINEWID
 40
0.0
  9
$COORDS
 70
     0
  9
$SPLFRAME
 70
     0
  9
$SPLINETYPE
 70
     6
  9
$SPLINESEGS
 70
    10
  9
$ATTDIA
 70
     0
  9
$ATTREQ
 70
     1
  9
$HANDLING
 70
     1
  9
$HANDSEED
  5
9E
  9
$SURFTAB1
 70
     6
  9
$SURFTAB2
 70
     6
  9
$SURFTYPE
 70
     6
  9
$SURFU
 70
     6
  9
$SURFV
 70
     6
  9
$UCSNAME
  2

  9
$UCSORG
 10
0.0
 20
0.0
 30
0.0
  9
$UCSXDIR
 10
1.0
 20
0.0
 30
0.0
  9
$UCSYDIR
 10
0.0
 20
1.0
 30
0.0
  9
$PUCSNAME
  2

  9
$PUCSORG
 10
0.0
 20
0.0
 30
0.0
  9
$PUCSXDIR
 10
1.0
 20
0.0
 30
0.0
  9
$PUCSYDIR
 10
0.0
 20
1.0
 30
0.0
  9
$USERI1
 70
     0
  9
$USERI2
 70
     0
  9
$USERI3
 70
     0
  9
$USERI4
 70
     0
  9
$USERI5
 70
     0
  9
$USERR1
 40
0.0
  9
$USERR2
 40
0.0
  9
$USERR3
 40
0.0
  9
$USERR4
 40
0.0
  9
$USERR5
 40
0.0
  9
$WORLDVIEW
 70
     1
  9
$SHADEDGE
 70
     3
  9
$SHADEDIF
 70
    70
  9
$TILEMODE
 70
     1
  9
$MAXACTVP
 70
    16
  9
$PINSBASE
 10
0.0
 20
0.0
 30
0.0
  9
$PLIMCHECK
 70
     0
  9
$PEXTMIN
 10
-1.000000E+20
 20
-1.000000E+20
 30
-1.000000E+20
  9
$PEXTMAX
 10
-1.000000E+20
 20
-1.000000E+20
 30
-1.000000E+20
  9
$PLIMMIN
 10
0.0
 20
0.0
  9
$PLIMMAX
 10
12.0
 20
9.0
  9
$UNITMODE
 70
     0
  9
$VISRETAIN
 70
     0
  9
$PLINEGEN
 70
     1
  9
$PSLTSCALE
 70
     0
  9
$TREEDEPTH
 70
  3020
  9
$DWGCODEPAGE
  3
ansi_1252
  0
ENDSEC
  0
SECTION
  2
TABLES
  0
TABLE
  2
VPORT
 70
     1
  0
VPORT
  2
*ACTIVE
 70
     0
 10
0.0
 20
0.0
 11
1.0
 21
1.0
 12
0.0
 22
0.0
 13
0.0
 23
0.0
 14
0.0
 24
0.0
 15
0.0
 25
0.0
 16
0.0
 26
0.0
 36
1.0
 17
970706.66817
 27
7275116.527848
 37
0.0
 40
6816.024
 41
1.247175
 42
50.0
 43
0.004
 44
0.0
 50
1.701872
 51
0.0
 71
     0
 72
   100
 73
     1
 74
     0
 75
     0
 76
     0
 77
     0
 78
     0
  0
ENDTAB
  0
TABLE
  2
LTYPE
 70
     7
  0
LTYPE
  2
CONTINUOUS
 70
     0
  3
Solid line
 72
    65
 73
     0
 40
0.0
  0
LTYPE
  2
DOT
 70
    64
  3
. . . . . . . . . . . . . . . . . . . . . . . . . . . . . . . . .
 72
    65
 73
     2
 40
0.25
 49
0.0
 49
-0.25
  0
LTYPE
  2
HIDDEN
 70
    64
  3
__ __ __ __ __ __ __ __ __ __ __ __ __ __ __ __ __ __ __ __ __ 
 72
    65
 73
     2
 40
0.375
 49
0.25
 49
-0.125
  0
LTYPE
  2
DASHED
 70
    64
  3
__ __ __ __ __ __ __ __ __ __ __ __ __ __ __ __ __ __ __ __ __
 72
    65
 73
     2
 40
0.75
 49
0.5
 49
-0.25
  0
LTYPE
  2
DASHDOT
 70
    64
  3
__ . __ . __ . __ . __ . __ . __ . __ . __ . __ . __ . __ . _
 72
    65
 73
     4
 40
1.0
 49
0.5
 49
-0.25
 49
0.0
 49
-0.25
  0
LTYPE
  2
DIVIDE
 70
    64
  3
____ . . ____ . . ____ . . ____ . . ____ . . ____ . . ____ . .
 72
    65
 73
     6
 40
1.25
 49
0.5
 49
-0.25
 49
0.0
 49
-0.25
 49
0.0
 49
-0.25
  0
LTYPE
  2
CENTER
 70
    64
  3
____ _ ____ _ ____ _ ____ _ ____ _ ____ _ ____ _ ____ _ ____ _
 72
    65
 73
     4
 40
2.0
 49
1.25
 49
-0.25
 49
0.25
 49
-0.25
  0
ENDTAB
  0
TABLE
  2
LAYER
 70
    15
  0
LAYER
  2
0
 70
     0
 62
     7
  6
CONTINUOUS
  0
LAYER
  2
CONSTRUCTION_CLASS
 70
     1
 62
     7
  6
CONTINUOUS
  0
LAYER
  2
PATTERN_CLASS
 70
     0
 62
     7
  6
CONTINUOUS
  0
LAYER
  2
6
 70
    64
 62
     7
  6
CONTINUOUS
  0
LAYER
  2
11
 70
    64
 62
     7
  6
CONTINUOUS
  0
LAYER
  2
DEFPOINTS
 70
    64
 62
     7
  6
CONTINUOUS
  0
LAYER
  2
19
 70
    64
 62
     7
  6
CONTINUOUS
  0
LAYER
  2
22
 70
    64
 62
     7
  6
CONTINUOUS
  0
LAYER
  2
13
 70
    64
 62
     7
  6
CONTINUOUS
  0
LAYER
  2
21
 70
    64
 62
     7
  6
CONTINUOUS
  0
LAYER
  2
10
 70
    64
 62
     7
  6
CONTINUOUS
  0
LAYER
  2
1
 70
    64
 62
     7
  6
CONTINUOUS
  0
LAYER
  2
58
 70
    64
 62
     7
  6
CONTINUOUS
  0
LAYER
  2
28
 70
    64
 62
     7
  6
CONTINUOUS
  0
LAYER
  2
27
 70
    64
 62
     7
  6
CONTINUOUS
  0
ENDTAB
  0
TABLE
  2
STYLE
 70
     4
  0
STYLE
  2
STANDARD
 70
     0
 40
0.0
 41
1.0
 50
0.0
 71
     0
 42
0.0
  3
txt
  4

  0
STYLE
  2
ROMANS
 70
     0
 40
0.2
 41
1.0
 50
0.0
 71
     0
 42
0.2
  3
ROMANS
  4

  0
STYLE
  2
ROMANC
 70
     0
 40
0.2
 41
1.0
 50
0.0
 71
     0
 42
0.2
  3
ROMANC
  4

  0
STYLE
  2
txt
 70
     0
 40
0.2
 41
1.0
 50
0.0
 71
     0
 42
0.2
  3
TXT
  4

  0
ENDTAB
  0
TABLE
  2
VIEW
 70
     0
  0
ENDTAB
  0
TABLE
  2
UCS
 70
     0
  0
ENDTAB
  0
TABLE
  2
APPID
 70
     1
  0
APPID
  2
ACAD
 70
     0
  0
ENDTAB
  0
TABLE
  2
DIMSTYLE
 70
     2
  0
DIMSTYLE
  2
STANDARD
 70
     0
  3

  4

  5

  6

  7

 40
1.0
 41
0.18
 42
0.0625
 43
0.38
 44
0.18
 45
0.0
 46
0.0
 47
0.0
 48
0.0
140
0.18
141
0.09
142
0.0
143
25.4
144
1.0
145
0.0
146
1.0
147
0.09
 71
     0
 72
     0
 73
     1
 74
     1
 75
     0
 76
     0
 77
     0
 78
     0
170
     0
171
     2
172
     0
173
     0
174
     0
175
     0
176
     0
177
     0
178
     0
  0
DIMSTYLE
  2
MSADIM
 70
     0
  3

  4

  5

  6

  7

 40
1.0
 41
8.0
 42
4.0
 43
0.0
 44
4.0
 45
0.0
 46
0.0
 47
0.0
 48
0.0
140
8.0
141
4.0
142
0.0
143
25.4
144
1.0
145
4.0
146
1.0
147
4.0
 71
     0
 72
     0
 73
     1
 74
     1
 75
     1
 76
     1
 77
     0
 78
     2
170
     0
171
     2
172
     0
173
     0
174
     0
175
     0
176
     0
177
     0
178
     0
  0
ENDTAB
  0
ENDSEC
  0
SECTION
  2
BLOCKS
  0
BLOCK
  8
11
  6
CONTINUOUS
 62
     7
  5
47
  2
*D0
 70
     1
 10
0.0
 20
0.0
 30
0.0
  3
*N0
  0
TEXT
  8
11
  6
CONTINUOUS
 62
     7
  5
48
 10
971362.757
 20
7275513.47
 30
0.0
 40
8.0
  1
N47%%d19'12"E
 50
42.680014
  7
ROMANS
 72
     1
 11
971388.577696
 21
7275548.162098
 31
0.0
210
0.0
220
0.0
230
1.0
 73
     3
  0
TEXT
  8
11
  6
CONTINUOUS
 62
     7
  5
49
 10
971361.59
 20
7275534.158
 30
0.0
 40
8.0
  1
6926.27'
 50
42.680014
  7
ROMANS
 72
     1
 11
971383.154187
 21
7275554.042937
 31
0.0
210
0.0
220
0.0
230
1.0
  0
ENDBLK
  8
11
  6
CONTINUOUS
 62
     7
  5
4A
  0
ENDSEC
  0
SECTION
  2
ENTITIES
  0
LINE
  8
6
  6
CONTINUOUS
 62
     7
  5
29
 10
968555.331
 20
7272741.415
 30
0.0
 11
973823.705
 21
7272592.71
 31
0.0
  0
LINE
  8
6
  6
CONTINUOUS
 62
     7
  5
2A
 10
971144.378
 20
7275208.437
 30
0.0
 11
971703.092
 21
7275723.643
 31
0.0
  0
LINE
  8
6
  6
CONTINUOUS
 62
     7
  5
2B
 10
971601.465
 20
7275835.913
 30
0.0
 11
970929.739
 21
7275216.496
 31
0.0
  0
LINE
  8
6
  6
CONTINUOUS
 62
     7
  5
2C
 10
971144.378
 20
7275208.437
 30
0.0
 11
971108.595
 21
7275209.447
 31
0.0
  0
LINE
  8
6
  6
CONTINUOUS
 62
     7
  5
2D
 10
970965.521
 20
7275215.486
 30
0.0
 11
970929.739
 21
7275216.496
 31
0.0
  0
LINE
  8
6
  6
CONTINUOUS
 62
     7
  5
2E
 10
973787.412
 20
7277815.665
 30
0.0
 11
971618.412
 21
7275817.535
 31
0.0
  0
LINE
  8
6
  6
CONTINUOUS
 62
     7
  5
2F
 10
970965.521
 20
7275215.486
 30
0.0
 11
968552.835
 21
7272990.681
 31
0.0
  0
LINE
  8
6
  6
CONTINUOUS
 62
     7
  5
30
 10
968548.837
 20
7272849.022
 30
0.0
 11
971108.595
 21
7275209.447
 31
0.0
  0
LINE
  8
6
  6
CONTINUOUS
 62
     7
  5
31
 10
971686.146
 20
7275742.021
 30
0.0
 11
973930.68
 21
7277811.77
 31
0.0
  0
LINE
  8
6
  6
CONTINUOUS
 62
     7
  5
32
 10
971703.092
 20
7275723.643
 30
0.0
 11
971686.146
 21
7275742.021
 31
0.0
  0
LINE
  8
6
  6
CONTINUOUS
 62
     7
  5
33
 10
971618.412
 20
7275817.535
 30
0.0
 11
971601.465
 21
7275835.913
 31
0.0
  0
LINE
  8
6
  6
CONTINUOUS
 62
     7
  5
34
 10
968696.579
 20
7277941.115
 30
0.0
 11
973787.412
 21
7277815.665
 31
0.0
  0
LINE
  8
6
  6
CONTINUOUS
 62
     7
  5
35
 10
973914.718
 20
7277797.051
 30
0.0
 11
973979.737
 21
7277795.17
 31
0.0
  0
TEXT
  8
11
  6
CONTINUOUS
 62
     7
  5
38
 10
968802.67
 20
7277926.74
 30
0.0
 40
8.0
  1
40'
 50
88.3832
  7
ROMANS
210
0.0
220
0.0
230
1.0
  0
TEXT
  8
11
  6
CONTINUOUS
 62
     7
  5
39
 10
973914.435
 20
7277780.715
 30
0.0
 40
8.0
  1
40'
 50
88.3832
  7
ROMANS
210
0.0
220
0.0
230
1.0
  0
TEXT
  8
11
  6
CONTINUOUS
 62
     7
  5
3A
 10
968745.907
 20
7277905.537
 30
0.0
 40
8.0
  1
146.28'
 50
358.3832
  7
ROMANS
 72
     4
 11
968771.342774
 21
7277908.820644
 31
0.0
210
0.0
220
0.0
230
1.0
  0
TEXT
  8
11
  6
CONTINUOUS
 62
     7
  5
3B
 10
971224.129
 20
7277826.309
 30
0.0
 40
8.0
  1
4957.14'
 50
358.3832
  7
ROMANS
 72
     4
 11
971253.563181
 21
7277829.479785
 31
0.0
210
0.0
220
0.0
230
1.0
  0
TEXT
  8
11
  6
CONTINUOUS
 62
     7
  5
3C
 10
973858.271
 20
7277761.951
 30
0.0
 40
8.0
  1
176.24'
 50
358.3832
  7
ROMANS
 72
     4
 11
973883.706774
 21
7277765.234644
 31
0.0
210
0.0
220
0.0
230
1.0
  0
TEXT
  8
11
  6
CONTINUOUS
 62
     7
  5
3D
 10
968601.034
 20
7272987.871
 30
0.0
 40
8.0
  1
2
 50
42.680017
  7
ROMANS
 72
     1
 11
968602.749107
 21
7272989.452548
 31
0.0
210
0.0
220
0.0
230
1.0
  0
TEXT
  8
11
  6
CONTINUOUS
 62
     7
  5
3E
 10
968606.869
 20
7272993.251
 30
0.0
 40
8.0
  1
0
 50
42.680017
  7
ROMANS
 72
     1
 11
968608.817886
 21
7272995.048122
 31
0.0
210
0.0
220
0.0
230
1.0
  0
TEXT
  8
11
  6
CONTINUOUS
 62
     7
  5
3F
 10
968612.704
 20
7272998.632
 30
0.0
 40
8.0
  1
4
 50
42.680017
  7
ROMANS
 72
     1
 11
968614.419107
 21
7273000.213548
 31
0.0
210
0.0
220
0.0
230
1.0
  0
TEXT
  8
11
  6
CONTINUOUS
 62
     7
  5
40
 10
968618.539
 20
7273004.012
 30
0.0
 40
8.0
  1
.
 50
42.680017
  7
ROMANS
 72
     1
 11
968619.51087
 21
7273004.908188
 31
0.0
210
0.0
220
0.0
230
1.0
  0
TEXT
  8
11
  6
CONTINUOUS
 62
     7
  5
41
 10
968624.374
 20
7273009.393
 30
0.0
 40
8.0
  1
5
 50
42.680017
  7
ROMANS
 72
     1
 11
968626.097194
 21
7273010.982005
 31
0.0
210
0.0
220
0.0
230
1.0
  0
TEXT
  8
11
  6
CONTINUOUS
 62
     7
  5
42
 10
968630.208
 20
7273014.773
 30
0.0
 40
8.0
  1
6
 50
42.680017
  7
ROMANS
 72
     1
 11
968632.060581
 21
7273016.481316
 31
0.0
210
0.0
220
0.0
230
1.0
  0
TEXT
  8
11
  6
CONTINUOUS
 62
     7
  5
43
 10
968636.044
 20
7273020.154
 30
0.0
 40
8.0
  1
'
 50
42.680017
  7
ROMANS
 72
     1
 11
968637.023956
 21
7273021.057645
 31
0.0
210
0.0
220
0.0
230
1.0
  0
INSERT
  8
11
  6
CONTINUOUS
 62
     7
  5
4B
  2
*D0
 10
970579.263
 20
7274807.312
 30
0.0
 70
     0
 71
     0
  0
TEXT
  8
11
  6
CONTINUOUS
 62
     7
  5
4C
 10
968593.589
 20
7272742.925
 30
0.0
 40
8.0
  1
146.28'
 50
358.3832
  7
ROMANS
 72
     4
 11
968619.024774
 21
7272746.208644
 31
0.0
210
0.0
220
0.0
230
1.0
  0
TEXT
  8
11
  6
CONTINUOUS
 62
     7
  5
4D
 10
971238.893
 20
7272669.519
 30
0.0
 40
8.0
  1
5133.72'
 50
358.3832
  7
ROMANS
 72
     4
 11
971268.327181
 21
7272672.689785
 31
0.0
210
0.0
220
0.0
230
1.0
  0
TEXT
  8
11
  6
CONTINUOUS
 62
     7
  5
4E
 10
968664.052
 20
7272698.556
 30
0.0
 40
8.0
  1
60'
 50
88.3832
  7
ROMANS
 72
     4
 11
968660.316921
 21
7272707.998143
 31
0.0
210
0.0
220
0.0
230
1.0
  0
TEXT
  8
11
  6
CONTINUOUS
 62
     7
  5
4F
 10
973774.708
 20
7272553.103
 30
0.0
 40
8.0
  1
60'
 50
88.3832
  7
ROMANS
 72
     4
 11
973770.972921
 21
7272562.545143
 31
0.0
210
0.0
220
0.0
230
1.0
  0
TEXT
  8
11
  6
CONTINUOUS
 62
     7
  5
50
 10
968565.091
 20
7272826.861
 30
0.0
 40
8.0
  1
200'
 50
88.3832
  7
ROMANS
 72
     4
 11
968561.46878
 21
7272840.301551
 31
0.0
210
0.0
220
0.0
230
1.0
  0
TEXT
  8
11
  6
CONTINUOUS
 62
     7
  5
51
 10
973689.795
 20
7277741.147
 30
0.0
 40
8.0
  1
50'
 50
318.3832
  7
ROMANS
 72
     4
 11
973699.428964
 21
7277737.938944
 31
0.0
210
0.0
220
0.0
230
1.0
  0
TEXT
  8
11
  6
CONTINUOUS
 62
     7
  5
52
 10
973726.309
 20
7277704.97
 30
0.0
 40
8.0
  1
50'
 50
318.3832
  7
ROMANS
 72
     4
 11
973735.942964
 21
7277701.761944
 31
0.0
210
0.0
220
0.0
230
1.0
  0
TEXT
  8
11
  6
CONTINUOUS
 62
     7
  5
53
 10
968600.695
 20
7273048.776
 30
0.0
 40
8.0
  1
50'
 50
318.3832
  7
ROMANS
 72
     4
 11
968610.328964
 21
7273045.567944
 31
0.0
210
0.0
220
0.0
230
1.0
  0
TEXT
  8
11
  6
CONTINUOUS
 62
     7
  5
54
 10
968640.012
 20
7273009.63
 30
0.0
 40
8.0
  1
50'
 50
318.3832
  7
ROMANS
 72
     4
 11
968649.645964
 21
7273006.421944
 31
0.0
210
0.0
220
0.0
230
1.0
  0
TEXT
  8
11
  6
CONTINUOUS
 62
     7
  5
55
 10
971446.183
 20
7275688.831
 30
0.0
 40
8.0
  1
75'
 50
318.3832
  7
ROMANS
 72
     4
 11
971455.816964
 21
7275685.622944
 31
0.0
210
0.0
220
0.0
230
1.0
  0
TEXT
  8
11
  6
CONTINUOUS
 62
     7
  5
56
 10
971503.473
 20
7275638.586
 30
0.0
 40
8.0
  1
75'
 50
318.3832
  7
ROMANS
 72
     4
 11
971513.106964
 21
7275635.377944
 31
0.0
210
0.0
220
0.0
230
1.0
  0
TEXT
  8
11
  6
CONTINUOUS
 62
     7
  5
57
 10
968796.4
 20
7275969.964
 30
0.0
 40
8.0
  1
3942.52'
 50
88.3832
  7
ROMANS
 72
     4
 11
968793.229215
 21
7275999.398181
 31
0.0
210
0.0
220
0.0
230
1.0
  0
TEXT
  8
11
  6
CONTINUOUS
 62
     7
  5
58
 10
969094.376
 20
7273961.651
 30
0.0
 40
8.0
  1
819.12'
 50
358.3832
  7
ROMANS
 72
     4
 11
969119.811774
 21
7273964.934644
 31
0.0
210
0.0
220
0.0
230
1.0
  0
TEXT
  8
11
  6
CONTINUOUS
 62
     7
  5
59
 10
968708.599
 20
7272849.706
 30
0.0
 40
8.0
  1
430.46'
 50
88.3832
  7
ROMANS
 72
     4
 11
968705.315356
 21
7272875.141774
 31
0.0
210
0.0
220
0.0
230
1.0
  0
TEXT
  8
19
  6
CONTINUOUS
 62
     1
  5
5C
 10
973076.247
 20
7272575.958
 30
0.0
 40
24.0
  1
E   19TH   ST
 50
358.3832
  7
ROMANC
 72
     4
 11
973243.847961
 21
7272583.232079
 31
0.0
210
0.0
220
0.0
230
1.0
  0
TEXT
  8
19
  6
CONTINUOUS
 62
     1
  5
5D
 10
968652.514
 20
7275249.101
 30
0.0
 40
24.0
  1
OLIVE    AVE
 50
88.3832
  7
ROMANC
 72
     4
 11
968644.757393
 21
7275399.606769
 31
0.0
210
0.0
220
0.0
230
1.0
  0
TEXT
  8
19
  6
CONTINUOUS
 62
     1
  5
5E
 10
968716.87
 20
7277529.905
 30
0.0
 40
24.0
  1
OLIVE    AVE
 50
88.3832
  7
ROMANC
 72
     4
 11
968709.113393
 21
7277680.410769
 31
0.0
210
0.0
220
0.0
230
1.0
  0
TEXT
  8
19
  6
CONTINUOUS
 62
     1
  5
5F
 10
973950.674
 20
7277417.437
 30
0.0
 40
24.0
  1
WOOD AVE
 50
88.3832
  7
ROMANC
 72
     4
 11
973941.707122
 21
7277525.064846
 31
0.0
210
0.0
220
0.0
230
1.0
  0
TEXT
  8
19
  6
CONTINUOUS
 62
     1
  5
60
 10
973815.363
 20
7272727.028
 30
0.0
 40
24.0
  1
WOOD AVE
 50
88.3832
  7
ROMANC
 72
     4
 11
973806.396122
 21
7272834.655846
 31
0.0
210
0.0
220
0.0
230
1.0
  0
TEXT
  8
19
  6
CONTINUOUS
 62
     1
  5
61
 10
973890.766
 20
7275204.987
 30
0.0
 40
24.0
  1
WOOD AVE
 50
88.3832
  7
ROMANC
 72
     4
 11
973881.799122
 21
7275312.614846
 31
0.0
210
0.0
220
0.0
230
1.0
  0
TEXT
  8
22
  6
CONTINUOUS
 62
     3
  5
64
 10
972551.415
 20
7273972.167
 30
0.0
 40
6.0
  1
WARRANTY DEED
 50
358.3832
  7
txt
 72
     4
 11
972590.340175
 21
7273974.069494
 31
0.0
210
0.0
220
0.0
230
1.0
  0
TEXT
  8
13
  6
CONTINUOUS
 62
    14
  5
66
 10
972553.402
 20
7273948.009
 30
0.0
 40
8.0
  1
V3401 P326
 50
358.3832
  7
txt
 72
     4
 11
972589.688452
 21
7273950.986373
 31
0.0
210
0.0
220
0.0
230
1.0
  0
TEXT
  8
13
  6
CONTINUOUS
 62
    14
  5
67
 10
972464.087
 20
7272605.058
 30
0.0
 40
8.0
  1
V2958 P175
 50
358.3832
  7
txt
 72
     4
 11
972501.663938
 21
7272607.998947
 31
0.0
210
0.0
220
0.0
230
1.0
  0
POLYLINE
  8
21
  6
DASHDOT
 62
     7
  5
69
 66
     1
 10
0.0
 20
0.0
 30
0.0
 70
     1
  0
VERTEX
  8
21
  6
DASHDOT
 62
     7
  5
6A
 10
973822.906
 20
7272537.65
 30
0.0
  0
VERTEX
  8
21
  6
DASHDOT
 62
     7
  5
6B
 10
971183.509
 20
7272609.677
 30
0.0
  0
VERTEX
  8
21
  6
DASHDOT
 62
     7
  5
6C
 10
971186.154
 20
7272708.702
 30
0.0
  0
VERTEX
  8
21
  6
DASHDOT
 62
     7
  5
6D
 10
973826.113
 20
7272657.814
 30
0.0
  0
VERTEX
  8
21
  6
DASHDOT
 62
     7
  5
6E
 10
973822.904
 20
7272537.647
 30
0.0
  0
VERTEX
  8
21
  6
DASHDOT
 62
     7
  5
6F
 10
973822.906
 20
7272537.65
 30
0.0
  0
SEQEND
  8
21
  6
DASHDOT
 62
     7
  5
70
  0
POLYLINE
  8
21
  6
DASHDOT
 62
     7
  5
71
 66
     1
 10
0.0
 20
0.0
 30
0.0
 70
     1
  0
VERTEX
  8
21
  6
DASHDOT
 62
     7
  5
72
 10
969166.4
 20
7272747.635
 30
0.0
  0
VERTEX
  8
21
  6
DASHDOT
 62
     7
  5
73
 10
971186.154
 20
7272708.702
 30
0.0
  0
VERTEX
  8
21
  6
DASHDOT
 62
     7
  5
74
 10
971183.509
 20
7272609.677
 30
0.0
  0
VERTEX
  8
21
  6
DASHDOT
 62
     7
  5
75
 10
969082.001
 20
7272667.027
 30
0.0
  0
VERTEX
  8
21
  6
DASHDOT
 62
     7
  5
76
 10
969166.404
 20
7272747.634
 30
0.0
  0
VERTEX
  8
21
  6
DASHDOT
 62
     7
  5
77
 10
969166.4
 20
7272747.635
 30
0.0
  0
SEQEND
  8
21
  6
DASHDOT
 62
     7
  5
78
  0
TEXT
  8
13
  6
CONTINUOUS
 62
    14
  5
79
 10
970103.31
 20
7272658.301
 30
0.0
 40
8.0
  1
V3030 P107
 50
358.3832
  7
txt
 72
     4
 11
970140.949913
 21
7272661.24017
 31
0.0
210
0.0
220
0.0
230
1.0
  0
SOLID
  8
21
  6
DASHDOT
 62
     7
  5
7A
 10
968655.758
 20
7276585.083
 30
0.0
 11
968680.754
 21
7276584.592
 31
0.0
 12
968653.722
 22
7276510.11
 32
0.0
 13
968678.674
 23
7276509.621
 33
0.0
  0
SOLID
  8
21
  6
DASHDOT
 62
     7
  5
7B
 10
968700.75
 20
7276584.198
 30
0.0
 11
968855.72
 21
7276581.147
 31
0.0
 12
968698.669
 22
7276509.227
 32
0.0
 13
968853.684
 23
7276506.175
 33
0.0
  0
TEXT
  8
22
  6
CONTINUOUS
 62
     3
  5
7C
 10
968770.551
 20
7276574.17
 30
0.0
 40
6.0
  1
200'
 50
358.3832
  7
txt
 72
     4
 11
968780.811591
 21
7276576.88158
 31
0.0
210
0.0
220
0.0
230
1.0
  0
TEXT
  8
22
  6
CONTINUOUS
 62
     3
  5
7D
 10
968852.72
 20
7276537.856
 30
0.0
 40
6.0
  1
75'
 50
88.3832
  7
txt
 72
     4
 11
968849.925808
 21
7276545.189757
 31
0.0
210
0.0
220
0.0
230
1.0
  0
TEXT
  8
22
  6
CONTINUOUS
 62
     3
  5
7E
 10
968717.711
 20
7276560.239
 30
0.0
 40
6.0
  1
DRAINAGE EASEMENT
 50
358.3832
  7
txt
 72
     4
 11
968766.009442
 21
7276561.876924
 31
0.0
210
0.0
220
0.0
230
1.0
  0
TEXT
  8
13
  6
CONTINUOUS
 62
    14
  5
7F
 10
968720.327
 20
7276524.035
 30
0.0
 40
8.0
  1
V2280 P063
 50
358.3832
  7
txt
 72
     4
 11
968759.194424
 21
7276526.939522
 31
0.0
210
0.0
220
0.0
230
1.0
  0
TEXT
  8
19
  6
CONTINUOUS
 62
     1
  5
80
 10
969888.499
 20
7277893.574
 30
0.0
 40
24.0
  1
E 4TH ST
 50
358.3832
  7
ROMANC
 72
     4
 11
969991.499689
 21
7277902.671484
 31
0.0
210
0.0
220
0.0
230
1.0
  0
TEXT
  8
19
  6
CONTINUOUS
 62
     1
  5
81
 10
972349.636
 20
7277826.041
 30
0.0
 40
24.0
  1
E 4TH ST
 50
358.3832
  7
ROMANC
 72
     4
 11
972452.636689
 21
7277835.138484
 31
0.0
210
0.0
220
0.0
230
1.0
  0
TEXT
  8
19
  6
CONTINUOUS
 62
     1
  5
82
 10
968609.053
 20
7273259.141
 30
0.0
 40
24.0
  1
OLIVE AVE
 50
88.3832
  7
ROMANC
 72
     4
 11
968600.192745
 21
7273370.546342
 31
0.0
210
0.0
220
0.0
230
1.0
  0
TEXT
  8
19
  6
CONTINUOUS
 62
     1
  5
83
 10
968831.928
 20
7272692.862
 30
0.0
 40
24.0
  1
E 19TH ST
 50
358.3832
  7
ROMANC
 72
     4
 11
968942.862529
 21
7272701.735544
 31
0.0
210
0.0
220
0.0
230
1.0
  0
TEXT
  8
19
  6
CONTINUOUS
 62
     1
  5
84
 10
970950.001
 20
7272632.767
 30
0.0
 40
24.0
  1
E 19TH ST
 50
358.3832
  7
ROMANC
 72
     4
 11
971060.935529
 21
7272641.640544
 31
0.0
210
0.0
220
0.0
230
1.0
  0
TEXT
  8
10
  6
CONTINUOUS
 62
   134
  5
86
 10
970123.401
 20
7276435.268
 30
0.0
 40
13.999
  1
UNSUBDIVIDED
 50
358.3832
  7
ROMANS
 11
970123.795978
 21
7276449.261427
 31
0.0
210
0.0
220
0.0
230
1.0
 73
     3
  0
POLYLINE
  8
1
  6
HIDDEN
 62
   253
  5
88
 66
     1
 10
0.0
 20
0.0
 30
0.0
 70
     1
  0
VERTEX
  8
1
  6
HIDDEN
 62
   253
  5
89
 10
973936.092
 20
7277868.763
 30
0.0
  0
VERTEX
  8
1
  6
HIDDEN
 62
   253
  5
8A
 10
968645.066
 20
7278025.97
 30
0.0
  0
VERTEX
  8
1
  6
HIDDEN
 62
   253
  5
8B
 10
968502.53
 20
7272731.712
 30
0.0
  0
VERTEX
  8
1
  6
HIDDEN
 62
   253
  5
8C
 10
973788.964
 20
7272570.878
 30
0.0
  0
SEQEND
  8
1
  6
HIDDEN
 62
   253
  5
8D
  0
LINE
  8
6
  6
CONTINUOUS
 62
     7
  5
8E
 10
973832.885
 20
7272592.451
 30
0.0
 11
973979.737
 21
7277795.17
 31
0.0
  0
LINE
  8
6
  6
CONTINUOUS
 62
     7
  5
8F
 10
973906.546
 20
7275202.127
 30
0.0
 11
971268.937
 21
7275276.576
 31
0.0
  0
LINE
  8
6
  6
CONTINUOUS
 62
     7
  5
90
 10
971268.937
 20
7275276.576
 30
0.0
 11
971195.276
 21
7272666.9
 31
0.0
  0
LINE
  8
58
  6
DIVIDE
 62
   216
  5
92
 10
969545.53
 20
7273943.956
 30
0.0
 11
968704.182
 21
7273168.126
 31
0.0
  0
LINE
  8
58
  6
DIVIDE
 62
   216
  5
93
 10
968704.182
 20
7273168.126
 30
0.0
 11
968690.337
 21
7272677.58
 31
0.0
  0
TEXT
  8
28
  6
CONTINUOUS
 62
    32
  5
95
 10
973450.082
 20
7277447.977
 30
0.0
 40
24.0
  1
FW & DC
 50
43.0
  7
txt
 72
     4
 11
973505.540419
 21
7277516.100742
 31
0.0
210
0.0
220
0.0
230
1.0
  0
TEXT
  8
28
  6
CONTINUOUS
 62
    32
  5
96
 10
968882.019
 20
7273233.951
 30
0.0
 40
24.0
  1
FW & DC
 50
43.0
  7
txt
 72
     4
 11
968937.477419
 21
7273302.074742
 31
0.0
210
0.0
220
0.0
230
1.0
  0
LINE
  8
27
  6
CONTINUOUS
 62
    32
  5
98
 10
968550.778
 20
7272917.801
 30
0.0
 11
973860.192
 21
7277813.76
 31
0.0
  0
LINE
  8
58
  6
DIVIDE
 62
   216
  5
99
 10
968726.733
 20
7273967.067
 30
0.0
 11
969545.53
 21
7273943.956
 31
0.0
  0
LINE
  8
58
  6
DIVIDE
 62
   216
  5
9A
 10
968839.31
 20
7277955.479
 30
0.0
 11
968726.733
 21
7273967.067
 31
0.0
  0
ENDSEC
  0
EOF
