  0
SECTION
  2
HEADER
  9
$ACADVER
  1
AC1009
  9
$INSBASE
 10
0.0
 20
0.0
 30
0.0
  9
$EXTMIN
 10
968786.958
 20
7282972.884
 30
0.0
  9
$EXTMAX
 10
979538.068
 20
7289051.697
 30
0.0
  9
$LIMMIN
 10
0.0
 20
0.0
  9
$LIMMAX
 10
12.0
 20
9.0
  9
$ORTHOMODE
 70
     0
  9
$REGENMODE
 70
     1
  9
$FILLMODE
 70
     1
  9
$QTEXTMODE
 70
     0
  9
$MIRRTEXT
 70
     1
  9
$DRAGMODE
 70
     2
  9
$LTSCALE
 40
1.0
  9
$OSMODE
 70
     0
  9
$ATTMODE
 70
     1
  9
$TEXTSIZE
 40
0.2
  9
$TRACEWID
 40
0.05
  9
$TEXTSTYLE
  7
STANDARD
  9
$CLAYER
  8
0
  9
$CELTYPE
  6
CONTINUOUS
  9
$CECOLOR
 62
   256
  9
$DIMSCALE
 40
1.0
  9
$DIMASZ
 40
0.18
  9
$DIMEXO
 40
0.0625
  9
$DIMDLI
 40
0.38
  9
$DIMRND
 40
0.0
  9
$DIMDLE
 40
0.0
  9
$DIMEXE
 40
0.18
  9
$DIMTP
 40
0.0
  9
$DIMTM
 40
0.0
  9
$DIMTXT
 40
0.18
  9
$DIMCEN
 40
0.09
  9
$DIMTSZ
 40
0.0
  9
$DIMTOL
 70
     0
  9
$DIMLIM
 70
     0
  9
$DIMTIH
 70
     1
  9
$DIMTOH
 70
     1
  9
$DIMSE1
 70
     0
  9
$DIMSE2
 70
     0
  9
$DIMTAD
 70
     0
  9
$DIMZIN
 70
     0
  9
$DIMBLK
  1

  9
$DIMASO
 70
     1
  9
$DIMSHO
 70
     1
  9
$DIMPOST
  1

  9
$DIMAPOST
  1

  9
$DIMALT
 70
     0
  9
$DIMALTD
 70
     2
  9
$DIMALTF
 40
25.4
  9
$DIMLFAC
 40
1.0
  9
$DIMTOFL
 70
     0
  9
$DIMTVP
 40
0.0
  9
$DIMTIX
 70
     0
  9
$DIMSOXD
 70
     0
  9
$DIMSAH
 70
     0
  9
$DIMBLK1
  1

  9
$DIMBLK2
  1

  9
$DIMSTYLE
  2
STANDARD
  9
$DIMCLRD
 70
     0
  9
$DIMCLRE
 70
     0
  9
$DIMCLRT
 70
     0
  9
$DIMTFAC
 40
1.0
  9
$DIMGAP
 40
0.09
  9
$LUNITS
 70
     2
  9
$LUPREC
 70
     4
  9
$AXISMODE
 70
     0
  9
$AXISUNIT
 10
0.0
 20
0.0
  9
$SKETCHINC
 40
0.1
  9
$FILLETRAD
 40
0.0
  9
$AUNITS
 70
     0
  9
$AUPREC
 70
     0
  9
$MENU
  1
acad
  9
$ELEVATION
 40
0.0
  9
$PELEVATION
 40
0.0
  9
$THICKNESS
 40
0.0
  9
$LIMCHECK
 70
     0
  9
$BLIPMODE
 70
     1
  9
$CHAMFERA
 40
0.0
  9
$CHAMFERB
 40
0.0
  9
$SKPOLY
 70
     0
  9
$TDCREATE
 40
2453013.903368055
  9
$TDUPDATE
 40
2453013.903368055
  9
$TDINDWG
 40
0.0000000000
  9
$TDUSRTIMER
 40
0.0000000000
  9
$USRTIMER
 70
     1
  9
$ANGBASE
 50
0.0
  9
$ANGDIR
 70
     0
  9
$PDMODE
 70
     0
  9
$PDSIZE
 40
0.0
  9
$PLINEWID
 40
0.0
  9
$COORDS
 70
     0
  9
$SPLFRAME
 70
     0
  9
$SPLINETYPE
 70
     6
  9
$SPLINESEGS
 70
    10
  9
$ATTDIA
 70
     0
  9
$ATTREQ
 70
     1
  9
$HANDLING
 70
     1
  9
$HANDSEED
  5
3B5
  9
$SURFTAB1
 70
     6
  9
$SURFTAB2
 70
     6
  9
$SURFTYPE
 70
     6
  9
$SURFU
 70
     6
  9
$SURFV
 70
     6
  9
$UCSNAME
  2

  9
$UCSORG
 10
0.0
 20
0.0
 30
0.0
  9
$UCSXDIR
 10
1.0
 20
0.0
 30
0.0
  9
$UCSYDIR
 10
0.0
 20
1.0
 30
0.0
  9
$PUCSNAME
  2

  9
$PUCSORG
 10
0.0
 20
0.0
 30
0.0
  9
$PUCSXDIR
 10
1.0
 20
0.0
 30
0.0
  9
$PUCSYDIR
 10
0.0
 20
1.0
 30
0.0
  9
$USERI1
 70
     0
  9
$USERI2
 70
     0
  9
$USERI3
 70
     0
  9
$USERI4
 70
     0
  9
$USERI5
 70
     0
  9
$USERR1
 40
0.0
  9
$USERR2
 40
0.0
  9
$USERR3
 40
0.0
  9
$USERR4
 40
0.0
  9
$USERR5
 40
0.0
  9
$WORLDVIEW
 70
     1
  9
$SHADEDGE
 70
     3
  9
$SHADEDIF
 70
    70
  9
$TILEMODE
 70
     1
  9
$MAXACTVP
 70
    16
  9
$PINSBASE
 10
0.0
 20
0.0
 30
0.0
  9
$PLIMCHECK
 70
     0
  9
$PEXTMIN
 10
-1.000000E+20
 20
-1.000000E+20
 30
-1.000000E+20
  9
$PEXTMAX
 10
-1.000000E+20
 20
-1.000000E+20
 30
-1.000000E+20
  9
$PLIMMIN
 10
0.0
 20
0.0
  9
$PLIMMAX
 10
12.0
 20
9.0
  9
$UNITMODE
 70
     0
  9
$VISRETAIN
 70
     0
  9
$PLINEGEN
 70
     1
  9
$PSLTSCALE
 70
     0
  9
$TREEDEPTH
 70
  3020
  9
$DWGCODEPAGE
  3
ansi_1252
  0
ENDSEC
  0
SECTION
  2
TABLES
  0
TABLE
  2
VPORT
 70
     1
  0
VPORT
  2
*ACTIVE
 70
     0
 10
0.0
 20
0.0
 11
1.0
 21
1.0
 12
0.0
 22
0.0
 13
0.0
 23
0.0
 14
0.0
 24
0.0
 15
0.0
 25
0.0
 16
0.0
 26
0.0
 36
1.0
 17
971242.516872
 27
7285696.863859
 37
0.0
 40
5406.966
 41
1.246459
 42
50.0
 43
0.004
 44
0.0
 50
1.720973
 51
0.0
 71
     0
 72
   100
 73
     1
 74
     0
 75
     0
 76
     0
 77
     0
 78
     0
  0
ENDTAB
  0
TABLE
  2
LTYPE
 70
     7
  0
LTYPE
  2
CONTINUOUS
 70
     0
  3
Solid line
 72
    65
 73
     0
 40
0.0
  0
LTYPE
  2
DOT
 70
    64
  3
. . . . . . . . . . . . . . . . . . . . . . . . . . . . . . . . .
 72
    65
 73
     2
 40
0.25
 49
0.0
 49
-0.25
  0
LTYPE
  2
HIDDEN
 70
    64
  3
__ __ __ __ __ __ __ __ __ __ __ __ __ __ __ __ __ __ __ __ __ 
 72
    65
 73
     2
 40
0.375
 49
0.25
 49
-0.125
  0
LTYPE
  2
DASHED
 70
    64
  3
__ __ __ __ __ __ __ __ __ __ __ __ __ __ __ __ __ __ __ __ __
 72
    65
 73
     2
 40
0.75
 49
0.5
 49
-0.25
  0
LTYPE
  2
DASHDOT
 70
    64
  3
__ . __ . __ . __ . __ . __ . __ . __ . __ . __ . __ . __ . _
 72
    65
 73
     4
 40
1.0
 49
0.5
 49
-0.25
 49
0.0
 49
-0.25
  0
LTYPE
  2
DIVIDE
 70
    64
  3
____ . . ____ . . ____ . . ____ . . ____ . . ____ . . ____ . .
 72
    65
 73
     6
 40
1.25
 49
0.5
 49
-0.25
 49
0.0
 49
-0.25
 49
0.0
 49
-0.25
  0
LTYPE
  2
CENTER
 70
    64
  3
____ _ ____ _ ____ _ ____ _ ____ _ ____ _ ____ _ ____ _ ____ _
 72
    65
 73
     4
 40
2.0
 49
1.25
 49
-0.25
 49
0.25
 49
-0.25
  0
ENDTAB
  0
TABLE
  2
LAYER
 70
    26
  0
LAYER
  2
0
 70
     0
 62
     7
  6
CONTINUOUS
  0
LAYER
  2
CONSTRUCTION_CLASS
 70
     1
 62
     7
  6
CONTINUOUS
  0
LAYER
  2
PATTERN_CLASS
 70
     0
 62
     7
  6
CONTINUOUS
  0
LAYER
  2
7
 70
    64
 62
     7
  6
CONTINUOUS
  0
LAYER
  2
6
 70
    64
 62
     7
  6
CONTINUOUS
  0
LAYER
  2
25
 70
    64
 62
     7
  6
CONTINUOUS
  0
LAYER
  2
15
 70
    64
 62
     7
  6
CONTINUOUS
  0
LAYER
  2
11
 70
    64
 62
     7
  6
CONTINUOUS
  0
LAYER
  2
DEFPOINTS
 70
    64
 62
     7
  6
CONTINUOUS
  0
LAYER
  2
21
 70
    64
 62
     7
  6
CONTINUOUS
  0
LAYER
  2
1
 70
    64
 62
     7
  6
CONTINUOUS
  0
LAYER
  2
19
 70
    64
 62
     7
  6
CONTINUOUS
  0
LAYER
  2
22
 70
    64
 62
     7
  6
CONTINUOUS
  0
LAYER
  2
13
 70
    64
 62
     7
  6
CONTINUOUS
  0
LAYER
  2
10
 70
    64
 62
     7
  6
CONTINUOUS
  0
LAYER
  2
58
 70
    64
 62
     7
  6
CONTINUOUS
  0
LAYER
  2
R-6
 70
    64
 62
     7
  6
CONTINUOUS
  0
LAYER
  2
R-27
 70
    64
 62
     7
  6
CONTINUOUS
  0
LAYER
  2
R-11
 70
    64
 62
     7
  6
CONTINUOUS
  0
LAYER
  2
R-19
 70
    64
 62
     7
  6
CONTINUOUS
  0
LAYER
  2
R-1
 70
    64
 62
     7
  6
CONTINUOUS
  0
LAYER
  2
R-7
 70
    64
 62
     7
  6
CONTINUOUS
  0
LAYER
  2
R-10
 70
    64
 62
     7
  6
CONTINUOUS
  0
LAYER
  2
R-15
 70
    64
 62
     7
  6
CONTINUOUS
  0
LAYER
  2
R-58
 70
    64
 62
     7
  6
CONTINUOUS
  0
LAYER
  2
R-28
 70
    64
 62
     7
  6
CONTINUOUS
  0
ENDTAB
  0
TABLE
  2
STYLE
 70
     5
  0
STYLE
  2
STANDARD
 70
     0
 40
0.0
 41
1.0
 50
0.0
 71
     0
 42
0.0
  3
txt
  4

  0
STYLE
  2
ROMANC
 70
     0
 40
0.2
 41
1.0
 50
0.0
 71
     0
 42
0.2
  3
ROMANC
  4

  0
STYLE
  2
ROMANS
 70
     0
 40
0.2
 41
1.0
 50
0.0
 71
     0
 42
0.2
  3
ROMANS
  4

  0
STYLE
  2
MONOTXT
 70
     0
 40
0.2
 41
1.0
 50
0.0
 71
     0
 42
0.2
  3
MONOTXT
  4

  0
STYLE
  2
txt
 70
     0
 40
0.2
 41
1.0
 50
0.0
 71
     0
 42
0.2
  3
TXT
  4

  0
ENDTAB
  0
TABLE
  2
VIEW
 70
     0
  0
ENDTAB
  0
TABLE
  2
UCS
 70
     0
  0
ENDTAB
  0
TABLE
  2
APPID
 70
     1
  0
APPID
  2
ACAD
 70
     0
  0
ENDTAB
  0
TABLE
  2
DIMSTYLE
 70
     2
  0
DIMSTYLE
  2
STANDARD
 70
     0
  3

  4

  5

  6

  7

 40
1.0
 41
0.18
 42
0.0625
 43
0.38
 44
0.18
 45
0.0
 46
0.0
 47
0.0
 48
0.0
140
0.18
141
0.09
142
0.0
143
25.4
144
1.0
145
0.0
146
1.0
147
0.09
 71
     0
 72
     0
 73
     1
 74
     1
 75
     0
 76
     0
 77
     0
 78
     0
170
     0
171
     2
172
     0
173
     0
174
     0
175
     0
176
     0
177
     0
178
     0
  0
DIMSTYLE
  2
MSADIM
 70
     0
  3

  4

  5

  6

  7

 40
1.0
 41
8.0
 42
4.0
 43
0.0
 44
4.0
 45
0.0
 46
0.0
 47
0.0
 48
0.0
140
8.0
141
4.0
142
0.0
143
25.4
144
1.0
145
4.0
146
1.0
147
4.0
 71
     0
 72
     0
 73
     1
 74
     1
 75
     1
 76
     1
 77
     0
 78
     2
170
     0
171
     2
172
     0
173
     0
174
     0
175
     0
176
     0
177
     0
178
     0
  0
ENDTAB
  0
ENDSEC
  0
SECTION
  2
BLOCKS
  0
BLOCK
  8
11
  6
CONTINUOUS
 62
     7
  5
16A
  2
*D0
 70
     1
 10
0.0
 20
0.0
 30
0.0
  3
*N0
  0
TEXT
  8
11
  6
CONTINUOUS
 62
     7
  5
16B
 10
970242.935
 20
7284787.63
 30
0.0
 40
10.0
  1
N42.6976%%dW
 50
312.697597
  7
MONOTXT
 72
     1
 11
970282.288043
 21
7284759.726387
 31
0.0
210
0.0
220
0.0
230
1.0
 73
     3
  0
TEXT
  8
11
  6
CONTINUOUS
 62
     7
  5
16C
 10
970273.566
 20
7284783.925
 30
0.0
 40
10.0
  1
325.13
 50
312.697597
  7
MONOTXT
 72
     1
 11
970289.637654
 21
7284766.50685
 31
0.0
210
0.0
220
0.0
230
1.0
  0
ENDBLK
  8
11
  6
CONTINUOUS
 62
     7
  5
16D
  0
BLOCK
  8
11
  6
CONTINUOUS
 62
     7
  5
18C
  2
*D1
 70
     1
 10
0.0
 20
0.0
 30
0.0
  3
*N1
  0
TEXT
  8
11
  6
CONTINUOUS
 62
     7
  5
18D
 10
968964.658
 20
7283434.402
 30
0.0
 40
10.0
  1
N56.9028%%dE
 50
33.097167
  7
MONOTXT
 72
     1
 11
968997.282991
 21
7283467.604461
 31
0.0
210
0.0
220
0.0
230
1.0
 73
     3
  0
TEXT
  8
11
  6
CONTINUOUS
 62
     7
  5
18E
 10
968981.73
 20
7283469.403
 30
0.0
 40
10.0
  1
58'
 50
33.097167
  7
MONOTXT
 72
     1
 11
968991.822323
 21
7283475.981391
 31
0.0
210
0.0
220
0.0
230
1.0
  0
ENDBLK
  8
11
  6
CONTINUOUS
 62
     7
  5
18F
  0
BLOCK
  8
11
  6
CONTINUOUS
 62
     7
  5
192
  2
*D2
 70
     1
 10
0.0
 20
0.0
 30
0.0
  3
*N2
  0
TEXT
  8
11
  6
CONTINUOUS
 62
     7
  5
193
 10
969099.59
 20
7283510.323
 30
0.0
 40
10.0
  1
S62.9323%%dW
 50
27.067692
  7
MONOTXT
 72
     1
 11
969137.030553
 21
7283540.685696
 31
0.0
210
0.0
220
0.0
230
1.0
 73
     3
  0
TEXT
  8
11
  6
CONTINUOUS
 62
     7
  5
194
 10
969119.263
 20
7283542.837
 30
0.0
 40
10.0
  1
310'
 50
27.067692
  7
MONOTXT
 72
     1
 11
969132.479349
 21
7283549.590746
 31
0.0
210
0.0
220
0.0
230
1.0
  0
ENDBLK
  8
11
  6
CONTINUOUS
 62
     7
  5
195
  0
BLOCK
  8
11
  6
CONTINUOUS
 62
     7
  5
20B
  2
*D3
 70
     1
 10
0.0
 20
0.0
 30
0.0
  3
*N3
  0
POLYLINE
  8
11
  6
CONTINUOUS
 62
     7
  5
20C
 66
     1
 10
0.0
 20
0.0
 30
0.0
  0
VERTEX
  8
11
  6
CONTINUOUS
 62
     7
  5
20D
 10
974234.022
 20
7287695.652
 30
0.0
  0
VERTEX
  8
11
  6
CONTINUOUS
 62
     7
  5
20E
 10
974240.131
 20
7287701.191
 30
0.0
  0
VERTEX
  8
11
  6
CONTINUOUS
 62
     7
  5
20F
 10
974237.348
 20
7287693.429
 30
0.0
  0
SEQEND
  8
11
  6
CONTINUOUS
 62
     7
  5
210
  0
LINE
  8
11
  6
CONTINUOUS
 62
     7
  5
211
 10
974240.131
 20
7287701.191
 30
0.0
 11
974203.463
 21
7287646.342
 31
0.0
  0
ENDBLK
  8
11
  6
CONTINUOUS
 62
     7
  5
212
  0
BLOCK
  8
R-11
  6
CONTINUOUS
 62
     7
  5
370
  2
*D4
 70
     1
 10
0.0
 20
0.0
 30
0.0
  3
*N4
  0
TEXT
  8
R-11
  6
CONTINUOUS
 62
     7
  5
371
 10
978482.32
 20
7284632.942
 30
0.0
 40
8.0
  1
N28%%d24'07"E
 50
61.598178
  7
ROMANS
 72
     1
 11
978495.49815
 21
7284674.131639
 31
0.0
210
0.0
220
0.0
230
1.0
 73
     3
  0
TEXT
  8
R-11
  6
CONTINUOUS
 62
     7
  5
372
 10
978474.508
 20
7284652.135
 30
0.0
 40
8.0
  1
4011.03'
 50
61.598178
  7
ROMANS
 72
     1
 11
978488.460306
 21
7284677.937288
 31
0.0
210
0.0
220
0.0
230
1.0
  0
ENDBLK
  8
R-11
  6
CONTINUOUS
 62
     7
  5
373
  0
ENDSEC
  0
SECTION
  2
ENTITIES
  0
POLYLINE
  8
7
  6
CONTINUOUS
 62
     7
  5
29
 66
     1
 10
0.0
 20
0.0
 30
0.0
  0
VERTEX
  8
7
  6
CONTINUOUS
 62
     7
  5
2A
 10
972388.156
 20
7286104.733
 30
0.0
  0
VERTEX
  8
7
  6
CONTINUOUS
 62
     7
  5
2B
 10
972875.821
 20
7285578.911
 30
0.0
  0
VERTEX
  8
7
  6
CONTINUOUS
 62
     7
  5
2C
 10
972801.13
 20
7284998.698
 30
0.0
  0
VERTEX
  8
7
  6
CONTINUOUS
 62
     7
  5
2D
 10
971818.686
 20
7284628.155
 30
0.0
  0
VERTEX
  8
7
  6
CONTINUOUS
 62
     7
  5
2E
 10
971495.386
 20
7284628.767
 30
0.0
  0
VERTEX
  8
7
  6
CONTINUOUS
 62
     7
  5
2F
 10
971169.431
 20
7284980.225
 30
0.0
  0
SEQEND
  8
7
  6
CONTINUOUS
 62
     7
  5
30
  0
POLYLINE
  8
7
  6
CONTINUOUS
 62
     7
  5
31
 66
     1
 10
0.0
 20
0.0
 30
0.0
  0
VERTEX
  8
7
  6
CONTINUOUS
 62
     7
  5
32
 10
969558.538
 20
7283493.967
 30
0.0
  0
VERTEX
  8
7
  6
CONTINUOUS
 62
     7
  5
33
 10
969701.339
 20
7283339.994
 30
0.0
  0
VERTEX
  8
7
  6
CONTINUOUS
 62
     7
  5
34
 10
969937.623
 20
7283559.131
 30
0.0
  0
SEQEND
  8
7
  6
CONTINUOUS
 62
     7
  5
35
  0
LINE
  8
7
  6
CONTINUOUS
 62
     7
  5
36
 10
969937.623
 20
7283559.131
 30
0.0
 11
969794.823
 21
7283713.104
 31
0.0
  0
POLYLINE
  8
7
  6
CONTINUOUS
 62
     7
  5
37
 66
     1
 10
0.0
 20
0.0
 30
0.0
  0
VERTEX
  8
7
  6
CONTINUOUS
 62
     7
  5
38
 10
973450.0
 20
7286107.32
 30
0.0
  0
VERTEX
  8
7
  6
CONTINUOUS
 62
     7
  5
39
 10
973465.282
 20
7286762.942
 30
0.0
  0
VERTEX
  8
7
  6
CONTINUOUS
 62
     7
  5
3A
 10
973325.02
 20
7286766.212
 30
0.0
  0
VERTEX
  8
7
  6
CONTINUOUS
 62
     7
  5
3B
 10
973329.93
 20
7286976.854
 30
0.0
  0
SEQEND
  8
7
  6
CONTINUOUS
 62
     7
  5
3C
  0
POLYLINE
  8
7
  6
CONTINUOUS
 62
     7
  5
3D
 66
     1
 10
0.0
 20
0.0
 30
0.0
  0
VERTEX
  8
7
  6
CONTINUOUS
 62
     7
  5
3E
 10
973450.0
 20
7286107.32
 30
0.0
  0
VERTEX
  8
7
  6
CONTINUOUS
 62
     7
  5
3F
 10
972982.826
 20
7286118.21
 30
0.0
  0
VERTEX
  8
7
  6
CONTINUOUS
 62
     7
  5
40
 10
972995.652
 20
7286668.419
 30
0.0
  0
SEQEND
  8
7
  6
CONTINUOUS
 62
     7
  5
41
  0
LINE
  8
6
  6
CONTINUOUS
 62
     7
  5
43
 10
974352.537
 20
7288298.649
 30
0.0
 11
969282.67
 21
7283620.725
 31
0.0
  0
POLYLINE
  8
7
  6
CONTINUOUS
 62
     7
  5
44
 66
     1
 10
0.0
 20
0.0
 30
0.0
  0
VERTEX
  8
7
  6
CONTINUOUS
 62
     7
  5
45
 10
974288.88
 20
7287856.231
 30
0.0
  0
VERTEX
  8
7
  6
CONTINUOUS
 62
     7
  5
46
 10
974284.204
 20
7287655.636
 30
0.0
  0
VERTEX
  8
7
  6
CONTINUOUS
 62
     7
  5
47
 10
974229.219
 20
7287656.917
 30
0.0
  0
SEQEND
  8
7
  6
CONTINUOUS
 62
     7
  5
48
  0
LINE
  8
7
  6
CONTINUOUS
 62
     7
  5
49
 10
974229.219
 20
7287656.917
 30
0.0
 11
974157.472
 21
7287734.982
 31
0.0
  0
LINE
  8
6
  6
CONTINUOUS
 62
     7
  5
4A
 10
968958.035
 20
7283447.99
 30
0.0
 11
969006.625
 21
7283479.662
 31
0.0
  0
LINE
  8
6
  6
CONTINUOUS
 62
     7
  5
4B
 10
969282.67
 20
7283620.725
 30
0.0
 11
969006.625
 21
7283479.662
 31
0.0
  0
LINE
  8
7
  6
CONTINUOUS
 62
     7
  5
4C
 10
970257.981
 20
7284520.635
 30
0.0
 11
970037.501
 21
7284759.587
 31
0.0
  0
LINE
  8
7
  6
CONTINUOUS
 62
     7
  5
4D
 10
970393.945
 20
7284646.088
 30
0.0
 11
970173.465
 21
7284885.04
 31
0.0
  0
LINE
  8
7
  6
CONTINUOUS
 62
     7
  5
4E
 10
970037.501
 20
7284759.587
 30
0.0
 11
970173.465
 21
7284885.04
 31
0.0
  0
TEXT
  8
25
  6
CONTINUOUS
 62
   212
  5
51
 10
970088.28
 20
7284166.24
 30
0.0
 40
24.0
  1
 
 50
42.697486
  7
ROMANC
 72
     1
 11
970094.159555
 21
7284171.665019
 31
0.0
210
0.0
220
0.0
230
1.0
  0
TEXT
  8
25
  6
CONTINUOUS
 62
   212
  5
52
 10
970105.918
 20
7284182.515
 30
0.0
 40
24.0
  1
 
 50
42.697486
  7
ROMANC
 72
     1
 11
970111.797555
 21
7284187.940019
 31
0.0
210
0.0
220
0.0
230
1.0
  0
TEXT
  8
25
  6
CONTINUOUS
 62
   212
  5
53
 10
970123.557
 20
7284198.789
 30
0.0
 40
24.0
  1
 
 50
42.697486
  7
ROMANC
 72
     1
 11
970129.436555
 21
7284204.214019
 31
0.0
210
0.0
220
0.0
230
1.0
  0
TEXT
  8
25
  6
CONTINUOUS
 62
   212
  5
54
 10
970141.196
 20
7284215.064
 30
0.0
 40
24.0
  1
 
 50
42.697486
  7
ROMANC
 72
     1
 11
970147.075555
 21
7284220.489019
 31
0.0
210
0.0
220
0.0
230
1.0
  0
TEXT
  8
25
  6
CONTINUOUS
 62
   212
  5
55
 10
971443.154
 20
7285400.24
 30
0.0
 40
24.0
  1
 
 50
42.697486
  7
ROMANC
 72
     1
 11
971449.033555
 21
7285405.665019
 31
0.0
210
0.0
220
0.0
230
1.0
  0
TEXT
  8
25
  6
CONTINUOUS
 62
   212
  5
56
 10
971478.431
 20
7285432.791
 30
0.0
 40
24.0
  1
 
 50
42.697486
  7
ROMANC
 72
     1
 11
971484.310555
 21
7285438.216019
 31
0.0
210
0.0
220
0.0
230
1.0
  0
TEXT
  8
25
  6
CONTINUOUS
 62
   212
  5
57
 10
973278.422
 20
7287098.271
 30
0.0
 40
24.0
  1
 
 50
42.697486
  7
ROMANC
 72
     1
 11
973284.301555
 21
7287103.696019
 31
0.0
210
0.0
220
0.0
230
1.0
  0
TEXT
  8
25
  6
CONTINUOUS
 62
   212
  5
58
 10
973296.062
 20
7287114.547
 30
0.0
 40
24.0
  1
 
 50
42.697486
  7
ROMANC
 72
     1
 11
973301.941555
 21
7287119.972019
 31
0.0
210
0.0
220
0.0
230
1.0
  0
TEXT
  8
25
  6
CONTINUOUS
 62
   212
  5
59
 10
973313.699
 20
7287130.821
 30
0.0
 40
24.0
  1
 
 50
42.697486
  7
ROMANC
 72
     1
 11
973319.578555
 21
7287136.246019
 31
0.0
210
0.0
220
0.0
230
1.0
  0
TEXT
  8
25
  6
CONTINUOUS
 62
   212
  5
5A
 10
973331.338
 20
7287147.096
 30
0.0
 40
24.0
  1
 
 50
42.697486
  7
ROMANC
 72
     1
 11
973337.217555
 21
7287152.521019
 31
0.0
210
0.0
220
0.0
230
1.0
  0
TEXT
  8
25
  6
CONTINUOUS
 62
   212
  5
5B
 10
973348.976
 20
7287163.371
 30
0.0
 40
24.0
  1
 
 50
42.697486
  7
ROMANC
 72
     1
 11
973354.855555
 21
7287168.796019
 31
0.0
210
0.0
220
0.0
230
1.0
  0
TEXT
  8
25
  6
CONTINUOUS
 62
   212
  5
5C
 10
973543.002
 20
7287342.396
 30
0.0
 40
24.0
  1
 
 50
42.697486
  7
ROMANC
 72
     1
 11
973548.881555
 21
7287347.821019
 31
0.0
210
0.0
220
0.0
230
1.0
  0
TEXT
  8
15
  6
CONTINUOUS
 62
    30
  5
5E
 10
970104.747
 20
7284748.936
 30
0.0
 40
20.0
  1
AMELIA
 50
28.6647
  7
ROMANC
 72
     4
 11
970153.905825
 21
7284787.207085
 31
0.0
210
0.0
220
0.0
230
1.0
  0
TEXT
  8
11
  6
CONTINUOUS
 62
     7
  5
61
 10
968967.675
 20
7283377.935
 30
0.0
 40
8.0
  1
119.9'
 50
88.6647
  7
ROMANS
210
0.0
220
0.0
230
1.0
  0
TEXT
  8
11
  6
CONTINUOUS
 62
     7
  5
62
 10
969632.711
 20
7283547.436
 30
0.0
 40
8.0
  1
3
 50
42.697486
  7
ROMANS
 72
     1
 11
969629.000606
 21
7283554.897626
 31
0.0
210
0.0
220
0.0
230
1.0
 73
     3
  0
TEXT
  8
11
  6
CONTINUOUS
 62
     7
  5
63
 10
969638.59
 20
7283552.862
 30
0.0
 40
8.0
  1
2
 50
42.697486
  7
ROMANS
 72
     1
 11
969634.879606
 21
7283560.323626
 31
0.0
210
0.0
220
0.0
230
1.0
 73
     3
  0
TEXT
  8
11
  6
CONTINUOUS
 62
     7
  5
64
 10
969644.47
 20
7283558.288
 30
0.0
 40
8.0
  1
2
 50
42.697486
  7
ROMANS
 72
     1
 11
969640.759606
 21
7283565.749626
 31
0.0
210
0.0
220
0.0
230
1.0
 73
     3
  0
TEXT
  8
11
  6
CONTINUOUS
 62
     7
  5
65
 10
969651.112
 20
7283564.417
 30
0.0
 40
8.0
  1
.
 50
42.697486
  7
ROMANS
 72
     1
 11
969646.658577
 21
7283571.193039
 31
0.0
210
0.0
220
0.0
230
1.0
 73
     3
  0
TEXT
  8
11
  6
CONTINUOUS
 62
     7
  5
66
 10
969656.229
 20
7283569.137
 30
0.0
 40
8.0
  1
2
 50
42.697486
  7
ROMANS
 72
     1
 11
969652.518606
 21
7283576.598626
 31
0.0
210
0.0
220
0.0
230
1.0
 73
     3
  0
TEXT
  8
11
  6
CONTINUOUS
 62
     7
  5
67
 10
969661.969
 20
7283574.434
 30
0.0
 40
8.0
  1
6
 50
42.697486
  7
ROMANS
 72
     1
 11
969658.39604
 21
7283582.022436
 31
0.0
210
0.0
220
0.0
230
1.0
 73
     3
  0
TEXT
  8
11
  6
CONTINUOUS
 62
     7
  5
68
 10
969668.729
 20
7283580.671
 30
0.0
 40
8.0
  1
'
 50
42.697486
  7
ROMANS
 72
     1
 11
969664.284396
 21
7283587.455177
 31
0.0
210
0.0
220
0.0
230
1.0
 73
     3
  0
TEXT
  8
11
  6
CONTINUOUS
 62
     7
  5
69
 10
969820.202
 20
7283454.324
 30
0.0
 40
8.0
  1
3
 50
42.84385
  7
ROMANS
 72
     1
 11
969821.912578
 21
7283455.910446
 31
0.0
210
0.0
220
0.0
230
1.0
  0
TEXT
  8
11
  6
CONTINUOUS
 62
     7
  5
6A
 10
969826.069
 20
7283459.764
 30
0.0
 40
8.0
  1
2
 50
42.84385
  7
ROMANS
 72
     1
 11
969827.779578
 21
7283461.350446
 31
0.0
210
0.0
220
0.0
230
1.0
  0
TEXT
  8
11
  6
CONTINUOUS
 62
     7
  5
6B
 10
969831.934
 20
7283465.204
 30
0.0
 40
8.0
  1
2
 50
42.84385
  7
ROMANS
 72
     1
 11
969833.644578
 21
7283466.790446
 31
0.0
210
0.0
220
0.0
230
1.0
  0
TEXT
  8
11
  6
CONTINUOUS
 62
     7
  5
6C
 10
969838.562
 20
7283471.351
 30
0.0
 40
8.0
  1
.
 50
42.84385
  7
ROMANS
 72
     1
 11
969839.531303
 21
7283472.249964
 31
0.0
210
0.0
220
0.0
230
1.0
  0
TEXT
  8
11
  6
CONTINUOUS
 62
     7
  5
6D
 10
969843.667
 20
7283476.084
 30
0.0
 40
8.0
  1
2
 50
42.84385
  7
ROMANS
 72
     1
 11
969845.377578
 21
7283477.670446
 31
0.0
210
0.0
220
0.0
230
1.0
  0
TEXT
  8
11
  6
CONTINUOUS
 62
     7
  5
6E
 10
969849.394
 20
7283481.396
 30
0.0
 40
8.0
  1
6
 50
42.84385
  7
ROMANS
 72
     1
 11
969851.241688
 21
7283483.109607
 31
0.0
210
0.0
220
0.0
230
1.0
  0
TEXT
  8
11
  6
CONTINUOUS
 62
     7
  5
6F
 10
969856.136
 20
7283487.649
 30
0.0
 40
8.0
  1
'
 50
42.84385
  7
ROMANS
 72
     1
 11
969857.113368
 21
7283488.555444
 31
0.0
210
0.0
220
0.0
230
1.0
  0
TEXT
  8
11
  6
CONTINUOUS
 62
     7
  5
70
 10
969619.271
 20
7283432.894
 30
0.0
 40
8.0
  1
2
 50
312.843969
  7
ROMANS
 72
     1
 11
969620.85745
 21
7283431.183425
 31
0.0
210
0.0
220
0.0
230
1.0
  0
TEXT
  8
11
  6
CONTINUOUS
 62
     7
  5
71
 10
969625.398
 20
7283426.29
 30
0.0
 40
8.0
  1
1
 50
312.843969
  7
ROMANS
 72
     1
 11
969626.305126
 21
7283425.3119
 31
0.0
210
0.0
220
0.0
230
1.0
  0
TEXT
  8
11
  6
CONTINUOUS
 62
     7
  5
72
 10
969629.938
 20
7283421.393
 30
0.0
 40
8.0
  1
0
 50
312.843969
  7
ROMANS
 72
     1
 11
969631.740691
 21
7283419.449265
 31
0.0
210
0.0
220
0.0
230
1.0
  0
TEXT
  8
11
  6
CONTINUOUS
 62
     7
  5
73
 10
969636.277
 20
7283414.558
 30
0.0
 40
8.0
  1
'
 50
312.843969
  7
ROMANS
 72
     1
 11
969637.184126
 21
7283413.5799
 31
0.0
210
0.0
220
0.0
230
1.0
  0
TEXT
  8
11
  6
CONTINUOUS
 62
     7
  5
74
 10
969843.373
 20
7283644.578
 30
0.0
 40
8.0
  1
2
 50
312.843969
  7
ROMANS
 72
     1
 11
969850.825116
 21
7283648.307459
 31
0.0
210
0.0
220
0.0
230
1.0
 73
     3
  0
TEXT
  8
11
  6
CONTINUOUS
 62
     7
  5
75
 10
969849.5
 20
7283637.973
 30
0.0
 40
8.0
  1
1
 50
312.843969
  7
ROMANS
 72
     1
 11
969856.272791
 21
7283642.434934
 31
0.0
210
0.0
220
0.0
230
1.0
 73
     3
  0
TEXT
  8
11
  6
CONTINUOUS
 62
     7
  5
76
 10
969854.039
 20
7283633.077
 30
0.0
 40
8.0
  1
0
 50
312.843969
  7
ROMANS
 72
     1
 11
969861.707357
 21
7283636.573298
 31
0.0
210
0.0
220
0.0
230
1.0
 73
     3
  0
TEXT
  8
11
  6
CONTINUOUS
 62
     7
  5
77
 10
969860.38
 20
7283626.242
 30
0.0
 40
8.0
  1
'
 50
312.843969
  7
ROMANS
 72
     1
 11
969867.152791
 21
7283630.703934
 31
0.0
210
0.0
220
0.0
230
1.0
 73
     3
  0
TEXT
  8
11
  6
CONTINUOUS
 62
     7
  5
78
 10
969839.456
 20
7283669.39
 30
0.0
 40
8.0
  1
S
 50
312.843969
  7
ROMANS
 72
     1
 11
969841.165531
 21
7283667.546714
 31
0.0
210
0.0
220
0.0
230
1.0
  0
TEXT
  8
11
  6
CONTINUOUS
 62
     7
  5
79
 10
969845.003
 20
7283663.41
 30
0.0
 40
8.0
  1
4
 50
312.843969
  7
ROMANS
 72
     1
 11
969846.58945
 21
7283661.699425
 31
0.0
210
0.0
220
0.0
230
1.0
  0
TEXT
  8
11
  6
CONTINUOUS
 62
     7
  5
7A
 10
969850.442
 20
7283657.545
 30
0.0
 40
8.0
  1
4
 50
312.843969
  7
ROMANS
 72
     1
 11
969852.02845
 21
7283655.834425
 31
0.0
210
0.0
220
0.0
230
1.0
  0
TEXT
  8
11
  6
CONTINUOUS
 62
     7
  5
7B
 10
969856.503
 20
7283651.009
 30
0.0
 40
8.0
  1
%%d
 50
312.843969
  7
ROMANS
 72
     1
 11
969857.480166
 21
7283649.95538
 31
0.0
210
0.0
220
0.0
230
1.0
  0
TEXT
  8
11
  6
CONTINUOUS
 62
     7
  5
7C
 10
969862.008
 20
7283645.075
 30
0.0
 40
8.0
  1
1
 50
312.843969
  7
ROMANS
 72
     1
 11
969862.915126
 21
7283644.0969
 31
0.0
210
0.0
220
0.0
230
1.0
  0
TEXT
  8
11
  6
CONTINUOUS
 62
     7
  5
7D
 10
969866.548
 20
7283640.178
 30
0.0
 40
8.0
  1
0
 50
312.843969
  7
ROMANS
 72
     1
 11
969868.350691
 21
7283638.234265
 31
0.0
210
0.0
220
0.0
230
1.0
  0
TEXT
  8
11
  6
CONTINUOUS
 62
     7
  5
7E
 10
969872.888
 20
7283633.343
 30
0.0
 40
8.0
  1
'
 50
312.843969
  7
ROMANS
 72
     1
 11
969873.795126
 21
7283632.3649
 31
0.0
210
0.0
220
0.0
230
1.0
  0
TEXT
  8
11
  6
CONTINUOUS
 62
     7
  5
7F
 10
969877.642
 20
7283628.216
 30
0.0
 40
8.0
  1
4
 50
312.843969
  7
ROMANS
 72
     1
 11
969879.22845
 21
7283626.505425
 31
0.0
210
0.0
220
0.0
230
1.0
  0
TEXT
  8
11
  6
CONTINUOUS
 62
     7
  5
80
 10
969883.083
 20
7283622.35
 30
0.0
 40
8.0
  1
5
 50
312.843969
  7
ROMANS
 72
     1
 11
969884.67693
 21
7283620.63136
 31
0.0
210
0.0
220
0.0
230
1.0
  0
TEXT
  8
11
  6
CONTINUOUS
 62
     7
  5
81
 10
969888.351
 20
7283616.669
 30
0.0
 40
8.0
  1
"
 50
312.843969
  7
ROMANS
 72
     1
 11
969890.107451
 21
7283614.775123
 31
0.0
210
0.0
220
0.0
230
1.0
  0
TEXT
  8
11
  6
CONTINUOUS
 62
     7
  5
82
 10
969893.855
 20
7283610.734
 30
0.0
 40
8.0
  1
E
 50
312.843969
  7
ROMANS
 72
     1
 11
969895.55501
 21
7283608.900979
 31
0.0
210
0.0
220
0.0
230
1.0
  0
TEXT
  8
11
  6
CONTINUOUS
 62
     7
  5
83
 10
969681.027
 20
7283611.068
 30
0.0
 40
8.0
  1
S
 50
42.697486
  7
ROMANS
 72
     1
 11
969682.87465
 21
7283612.772812
 31
0.0
210
0.0
220
0.0
230
1.0
  0
TEXT
  8
11
  6
CONTINUOUS
 62
     7
  5
84
 10
969687.022
 20
7283616.6
 30
0.0
 40
8.0
  1
4
 50
42.697486
  7
ROMANS
 72
     1
 11
969688.736625
 21
7283618.182071
 31
0.0
210
0.0
220
0.0
230
1.0
  0
TEXT
  8
11
  6
CONTINUOUS
 62
     7
  5
85
 10
969692.901
 20
7283622.023
 30
0.0
 40
8.0
  1
5
 50
42.697486
  7
ROMANS
 72
     1
 11
969694.62371
 21
7283623.612531
 31
0.0
210
0.0
220
0.0
230
1.0
  0
TEXT
  8
11
  6
CONTINUOUS
 62
     7
  5
86
 10
969699.453
 20
7283628.068
 30
0.0
 40
8.0
  1
%%d
 50
42.697486
  7
ROMANS
 72
     1
 11
969700.509115
 21
7283629.042469
 31
0.0
210
0.0
220
0.0
230
1.0
  0
TEXT
  8
11
  6
CONTINUOUS
 62
     7
  5
87
 10
969704.66
 20
7283632.875
 30
0.0
 40
8.0
  1
4
 50
42.697486
  7
ROMANS
 72
     1
 11
969706.374625
 21
7283634.457071
 31
0.0
210
0.0
220
0.0
230
1.0
  0
TEXT
  8
11
  6
CONTINUOUS
 62
     7
  5
88
 10
969710.54
 20
7283638.3
 30
0.0
 40
8.0
  1
9
 50
42.697486
  7
ROMANS
 72
     1
 11
969712.254625
 21
7283639.882071
 31
0.0
210
0.0
220
0.0
230
1.0
  0
TEXT
  8
11
  6
CONTINUOUS
 62
     7
  5
89
 10
969717.16
 20
7283644.408
 30
0.0
 40
8.0
  1
'
 50
42.697486
  7
ROMANS
 72
     1
 11
969718.140416
 21
7283645.312622
 31
0.0
210
0.0
220
0.0
230
1.0
  0
TEXT
  8
11
  6
CONTINUOUS
 62
     7
  5
8A
 10
969723.04
 20
7283649.833
 30
0.0
 40
8.0
  1
1
 50
42.697486
  7
ROMANS
 72
     1
 11
969724.020416
 21
7283650.737622
 31
0.0
210
0.0
220
0.0
230
1.0
  0
TEXT
  8
11
  6
CONTINUOUS
 62
     7
  5
8B
 10
969728.179
 20
7283654.575
 30
0.0
 40
8.0
  1
5
 50
42.697486
  7
ROMANS
 72
     1
 11
969729.90171
 21
7283656.164531
 31
0.0
210
0.0
220
0.0
230
1.0
  0
TEXT
  8
11
  6
CONTINUOUS
 62
     7
  5
8C
 10
969733.873
 20
7283659.828
 30
0.0
 40
8.0
  1
"
 50
42.697486
  7
ROMANS
 72
     1
 11
969735.771361
 21
7283661.579603
 31
0.0
210
0.0
220
0.0
230
1.0
  0
TEXT
  8
11
  6
CONTINUOUS
 62
     7
  5
8D
 10
969739.568
 20
7283665.083
 30
0.0
 40
8.0
  1
W
 50
42.697486
  7
ROMANS
 72
     1
 11
969741.672881
 21
7283667.025157
 31
0.0
210
0.0
220
0.0
230
1.0
  0
TEXT
  8
11
  6
CONTINUOUS
 62
     7
  5
8E
 10
971032.123
 20
7284858.377
 30
0.0
 40
8.0
  1
S
 50
42.697486
  7
ROMANS
 72
     1
 11
971033.97065
 21
7284860.081812
 31
0.0
210
0.0
220
0.0
230
1.0
  0
TEXT
  8
11
  6
CONTINUOUS
 62
     7
  5
8F
 10
971038.118
 20
7284863.907
 30
0.0
 40
8.0
  1
4
 50
42.697486
  7
ROMANS
 72
     1
 11
971039.832625
 21
7284865.489071
 31
0.0
210
0.0
220
0.0
230
1.0
  0
TEXT
  8
11
  6
CONTINUOUS
 62
     7
  5
90
 10
971043.998
 20
7284869.333
 30
0.0
 40
8.0
  1
5
 50
42.697486
  7
ROMANS
 72
     1
 11
971045.72071
 21
7284870.922531
 31
0.0
210
0.0
220
0.0
230
1.0
  0
TEXT
  8
11
  6
CONTINUOUS
 62
     7
  5
91
 10
971050.55
 20
7284875.377
 30
0.0
 40
8.0
  1
%%d
 50
42.697486
  7
ROMANS
 72
     1
 11
971051.606115
 21
7284876.351469
 31
0.0
210
0.0
220
0.0
230
1.0
  0
TEXT
  8
11
  6
CONTINUOUS
 62
     7
  5
92
 10
971055.757
 20
7284880.183
 30
0.0
 40
8.0
  1
4
 50
42.697486
  7
ROMANS
 72
     1
 11
971057.471625
 21
7284881.765071
 31
0.0
210
0.0
220
0.0
230
1.0
  0
TEXT
  8
11
  6
CONTINUOUS
 62
     7
  5
93
 10
971061.637
 20
7284885.608
 30
0.0
 40
8.0
  1
9
 50
42.697486
  7
ROMANS
 72
     1
 11
971063.351625
 21
7284887.190071
 31
0.0
210
0.0
220
0.0
230
1.0
  0
TEXT
  8
11
  6
CONTINUOUS
 62
     7
  5
94
 10
971068.258
 20
7284891.717
 30
0.0
 40
8.0
  1
'
 50
42.697486
  7
ROMANS
 72
     1
 11
971069.238416
 21
7284892.621622
 31
0.0
210
0.0
220
0.0
230
1.0
  0
TEXT
  8
11
  6
CONTINUOUS
 62
     7
  5
95
 10
971074.137
 20
7284897.143
 30
0.0
 40
8.0
  1
1
 50
42.697486
  7
ROMANS
 72
     1
 11
971075.117416
 21
7284898.047622
 31
0.0
210
0.0
220
0.0
230
1.0
  0
TEXT
  8
11
  6
CONTINUOUS
 62
     7
  5
96
 10
971079.276
 20
7284901.883
 30
0.0
 40
8.0
  1
5
 50
42.697486
  7
ROMANS
 72
     1
 11
971080.99871
 21
7284903.472531
 31
0.0
210
0.0
220
0.0
230
1.0
  0
TEXT
  8
11
  6
CONTINUOUS
 62
     7
  5
97
 10
971084.97
 20
7284907.138
 30
0.0
 40
8.0
  1
"
 50
42.697486
  7
ROMANS
 72
     1
 11
971086.868361
 21
7284908.889603
 31
0.0
210
0.0
220
0.0
230
1.0
  0
TEXT
  8
11
  6
CONTINUOUS
 62
     7
  5
98
 10
971090.665
 20
7284912.392
 30
0.0
 40
8.0
  1
W
 50
42.697486
  7
ROMANS
 72
     1
 11
971092.769881
 21
7284914.334157
 31
0.0
210
0.0
220
0.0
230
1.0
  0
TEXT
  8
11
  6
CONTINUOUS
 62
     7
  5
99
 10
971786.511
 20
7285553.681
 30
0.0
 40
8.0
  1
S
 50
42.697486
  7
ROMANS
 72
     1
 11
971788.35865
 21
7285555.385812
 31
0.0
210
0.0
220
0.0
230
1.0
  0
TEXT
  8
11
  6
CONTINUOUS
 62
     7
  5
9A
 10
971792.505
 20
7285559.213
 30
0.0
 40
8.0
  1
4
 50
42.697486
  7
ROMANS
 72
     1
 11
971794.219625
 21
7285560.795071
 31
0.0
210
0.0
220
0.0
230
1.0
  0
TEXT
  8
11
  6
CONTINUOUS
 62
     7
  5
9B
 10
971798.385
 20
7285564.637
 30
0.0
 40
8.0
  1
5
 50
42.697486
  7
ROMANS
 72
     1
 11
971800.10771
 21
7285566.226531
 31
0.0
210
0.0
220
0.0
230
1.0
  0
TEXT
  8
11
  6
CONTINUOUS
 62
     7
  5
9C
 10
971804.936
 20
7285570.683
 30
0.0
 40
8.0
  1
%%d
 50
42.697486
  7
ROMANS
 72
     1
 11
971805.992115
 21
7285571.657469
 31
0.0
210
0.0
220
0.0
230
1.0
  0
TEXT
  8
11
  6
CONTINUOUS
 62
     7
  5
9D
 10
971810.145
 20
7285575.488
 30
0.0
 40
8.0
  1
4
 50
42.697486
  7
ROMANS
 72
     1
 11
971811.859625
 21
7285577.070071
 31
0.0
210
0.0
220
0.0
230
1.0
  0
TEXT
  8
11
  6
CONTINUOUS
 62
     7
  5
9E
 10
971816.024
 20
7285580.913
 30
0.0
 40
8.0
  1
9
 50
42.697486
  7
ROMANS
 72
     1
 11
971817.738625
 21
7285582.495071
 31
0.0
210
0.0
220
0.0
230
1.0
  0
TEXT
  8
11
  6
CONTINUOUS
 62
     7
  5
9F
 10
971822.645
 20
7285587.022
 30
0.0
 40
8.0
  1
'
 50
42.697486
  7
ROMANS
 72
     1
 11
971823.625416
 21
7285587.926622
 31
0.0
210
0.0
220
0.0
230
1.0
  0
TEXT
  8
11
  6
CONTINUOUS
 62
     7
  5
A0
 10
971828.524
 20
7285592.447
 30
0.0
 40
8.0
  1
1
 50
42.697486
  7
ROMANS
 72
     1
 11
971829.504416
 21
7285593.351622
 31
0.0
210
0.0
220
0.0
230
1.0
  0
TEXT
  8
11
  6
CONTINUOUS
 62
     7
  5
A1
 10
971833.663
 20
7285597.188
 30
0.0
 40
8.0
  1
5
 50
42.697486
  7
ROMANS
 72
     1
 11
971835.38571
 21
7285598.777531
 31
0.0
210
0.0
220
0.0
230
1.0
  0
TEXT
  8
11
  6
CONTINUOUS
 62
     7
  5
A2
 10
971839.356
 20
7285602.442
 30
0.0
 40
8.0
  1
"
 50
42.697486
  7
ROMANS
 72
     1
 11
971841.254361
 21
7285604.193603
 31
0.0
210
0.0
220
0.0
230
1.0
  0
TEXT
  8
11
  6
CONTINUOUS
 62
     7
  5
A3
 10
971845.052
 20
7285607.697
 30
0.0
 40
8.0
  1
W
 50
42.697486
  7
ROMANS
 72
     1
 11
971847.156881
 21
7285609.639157
 31
0.0
210
0.0
220
0.0
230
1.0
  0
TEXT
  8
11
  6
CONTINUOUS
 62
     7
  5
A4
 10
973713.275
 20
7287331.909
 30
0.0
 40
8.0
  1
S
 50
42.697486
  7
ROMANS
 72
     1
 11
973715.12265
 21
7287333.613812
 31
0.0
210
0.0
220
0.0
230
1.0
  0
TEXT
  8
11
  6
CONTINUOUS
 62
     7
  5
A5
 10
973719.269
 20
7287337.439
 30
0.0
 40
8.0
  1
4
 50
42.697486
  7
ROMANS
 72
     1
 11
973720.983625
 21
7287339.021071
 31
0.0
210
0.0
220
0.0
230
1.0
  0
TEXT
  8
11
  6
CONTINUOUS
 62
     7
  5
A6
 10
973725.149
 20
7287342.865
 30
0.0
 40
8.0
  1
5
 50
42.697486
  7
ROMANS
 72
     1
 11
973726.87171
 21
7287344.454531
 31
0.0
210
0.0
220
0.0
230
1.0
  0
TEXT
  8
11
  6
CONTINUOUS
 62
     7
  5
A7
 10
973731.7
 20
7287348.909
 30
0.0
 40
8.0
  1
%%d
 50
42.697486
  7
ROMANS
 72
     1
 11
973732.756115
 21
7287349.883469
 31
0.0
210
0.0
220
0.0
230
1.0
  0
TEXT
  8
11
  6
CONTINUOUS
 62
     7
  5
A8
 10
973736.909
 20
7287353.715
 30
0.0
 40
8.0
  1
4
 50
42.697486
  7
ROMANS
 72
     1
 11
973738.623625
 21
7287355.297071
 31
0.0
210
0.0
220
0.0
230
1.0
  0
TEXT
  8
11
  6
CONTINUOUS
 62
     7
  5
A9
 10
973742.788
 20
7287359.14
 30
0.0
 40
8.0
  1
9
 50
42.697486
  7
ROMANS
 72
     1
 11
973744.502625
 21
7287360.722071
 31
0.0
210
0.0
220
0.0
230
1.0
  0
TEXT
  8
11
  6
CONTINUOUS
 62
     7
  5
AA
 10
973749.408
 20
7287365.249
 30
0.0
 40
8.0
  1
'
 50
42.697486
  7
ROMANS
 72
     1
 11
973750.388416
 21
7287366.153622
 31
0.0
210
0.0
220
0.0
230
1.0
  0
TEXT
  8
11
  6
CONTINUOUS
 62
     7
  5
AB
 10
973755.287
 20
7287370.674
 30
0.0
 40
8.0
  1
1
 50
42.697486
  7
ROMANS
 72
     1
 11
973756.267416
 21
7287371.578622
 31
0.0
210
0.0
220
0.0
230
1.0
  0
TEXT
  8
11
  6
CONTINUOUS
 62
     7
  5
AC
 10
973760.426
 20
7287375.415
 30
0.0
 40
8.0
  1
5
 50
42.697486
  7
ROMANS
 72
     1
 11
973762.14871
 21
7287377.004531
 31
0.0
210
0.0
220
0.0
230
1.0
  0
TEXT
  8
11
  6
CONTINUOUS
 62
     7
  5
AD
 10
973766.12
 20
7287380.67
 30
0.0
 40
8.0
  1
"
 50
42.697486
  7
ROMANS
 72
     1
 11
973768.018361
 21
7287382.421603
 31
0.0
210
0.0
220
0.0
230
1.0
  0
TEXT
  8
11
  6
CONTINUOUS
 62
     7
  5
AE
 10
973771.816
 20
7287385.923
 30
0.0
 40
8.0
  1
W
 50
42.697486
  7
ROMANS
 72
     1
 11
973773.920881
 21
7287387.865157
 31
0.0
210
0.0
220
0.0
230
1.0
  0
TEXT
  8
11
  6
CONTINUOUS
 62
     7
  5
AF
 10
970093.827
 20
7284796.591
 30
0.0
 40
8.0
  1
1
 50
42.697344
  7
ROMANS
 72
     1
 11
970089.381678
 21
7284803.37451
 31
0.0
210
0.0
220
0.0
230
1.0
 73
     3
  0
TEXT
  8
11
  6
CONTINUOUS
 62
     7
  5
B0
 10
970098.964
 20
7284801.332
 30
0.0
 40
8.0
  1
8
 50
42.697344
  7
ROMANS
 72
     1
 11
970095.253624
 21
7284808.793635
 31
0.0
210
0.0
220
0.0
230
1.0
 73
     3
  0
TEXT
  8
11
  6
CONTINUOUS
 62
     7
  5
B1
 10
970104.845
 20
7284806.757
 30
0.0
 40
8.0
  1
5
 50
42.697344
  7
ROMANS
 72
     1
 11
970101.142709
 21
7284814.226095
 31
0.0
210
0.0
220
0.0
230
1.0
 73
     3
  0
TEXT
  8
11
  6
CONTINUOUS
 62
     7
  5
B2
 10
970111.487
 20
7284812.887
 30
0.0
 40
8.0
  1
.
 50
42.697344
  7
ROMANS
 72
     1
 11
970107.033594
 21
7284819.66305
 31
0.0
210
0.0
220
0.0
230
1.0
 73
     3
  0
TEXT
  8
11
  6
CONTINUOUS
 62
     7
  5
B3
 10
970116.604
 20
7284817.607
 30
0.0
 40
8.0
  1
2
 50
42.697344
  7
ROMANS
 72
     1
 11
970112.893624
 21
7284825.068635
 31
0.0
210
0.0
220
0.0
230
1.0
 73
     3
  0
TEXT
  8
11
  6
CONTINUOUS
 62
     7
  5
B4
 10
970123.224
 20
7284823.716
 30
0.0
 40
8.0
  1
1
 50
42.697344
  7
ROMANS
 72
     1
 11
970118.778678
 21
7284830.49951
 31
0.0
210
0.0
220
0.0
230
1.0
 73
     3
  0
TEXT
  8
11
  6
CONTINUOUS
 62
     7
  5
B5
 10
970129.103
 20
7284829.141
 30
0.0
 40
8.0
  1
'
 50
42.697344
  7
ROMANS
 72
     1
 11
970124.657678
 21
7284835.92451
 31
0.0
210
0.0
220
0.0
230
1.0
 73
     3
  0
TEXT
  8
11
  6
CONTINUOUS
 62
     7
  5
B6
 10
970312.872
 20
7284575.366
 30
0.0
 40
8.0
  1
1
 50
42.697481
  7
ROMANS
 72
     1
 11
970313.851681
 21
7284576.269944
 31
0.0
210
0.0
220
0.0
230
1.0
  0
TEXT
  8
11
  6
CONTINUOUS
 62
     7
  5
B7
 10
970318.011
 20
7284580.107
 30
0.0
 40
8.0
  1
8
 50
42.697481
  7
ROMANS
 72
     1
 11
970319.725625
 21
7284581.689071
 31
0.0
210
0.0
220
0.0
230
1.0
  0
TEXT
  8
11
  6
CONTINUOUS
 62
     7
  5
B8
 10
970323.89
 20
7284585.531
 30
0.0
 40
8.0
  1
4
 50
42.697481
  7
ROMANS
 72
     1
 11
970325.604625
 21
7284587.113071
 31
0.0
210
0.0
220
0.0
230
1.0
  0
TEXT
  8
11
  6
CONTINUOUS
 62
     7
  5
B9
 10
970330.51
 20
7284591.64
 30
0.0
 40
8.0
  1
'
 50
42.697481
  7
ROMANS
 72
     1
 11
970331.489681
 21
7284592.543944
 31
0.0
210
0.0
220
0.0
230
1.0
  0
TEXT
  8
11
  6
CONTINUOUS
 62
     7
  5
BA
 10
970135.31
 20
7284658.008
 30
0.0
 40
8.0
  1
3
 50
312.697436
  7
ROMANS
 72
     1
 11
970136.89207
 21
7284656.293373
 31
0.0
210
0.0
220
0.0
230
1.0
  0
TEXT
  8
11
  6
CONTINUOUS
 62
     7
  5
BB
 10
970140.735
 20
7284652.129
 30
0.0
 40
8.0
  1
2
 50
312.697436
  7
ROMANS
 72
     1
 11
970142.31707
 21
7284650.414373
 31
0.0
210
0.0
220
0.0
230
1.0
  0
TEXT
  8
11
  6
CONTINUOUS
 62
     7
  5
BC
 10
970146.159
 20
7284646.249
 30
0.0
 40
8.0
  1
5
 50
312.697436
  7
ROMANS
 72
     1
 11
970147.748529
 21
7284644.526289
 31
0.0
210
0.0
220
0.0
230
1.0
  0
TEXT
  8
11
  6
CONTINUOUS
 62
     7
  5
BD
 10
970152.289
 20
7284639.606
 30
0.0
 40
8.0
  1
.
 50
312.697436
  7
ROMANS
 72
     1
 11
970153.185484
 21
7284638.634403
 31
0.0
210
0.0
220
0.0
230
1.0
  0
TEXT
  8
11
  6
CONTINUOUS
 62
     7
  5
BE
 10
970157.694
 20
7284633.748
 30
0.0
 40
8.0
  1
1
 50
312.697436
  7
ROMANS
 72
     1
 11
970158.597943
 21
7284632.768318
 31
0.0
210
0.0
220
0.0
230
1.0
  0
TEXT
  8
11
  6
CONTINUOUS
 62
     7
  5
BF
 10
970162.434
 20
7284628.611
 30
0.0
 40
8.0
  1
3
 50
312.697436
  7
ROMANS
 72
     1
 11
970164.01607
 21
7284626.896373
 31
0.0
210
0.0
220
0.0
230
1.0
  0
TEXT
  8
11
  6
CONTINUOUS
 62
     7
  5
C0
 10
970168.544
 20
7284621.989
 30
0.0
 40
8.0
  1
'
 50
312.697436
  7
ROMANS
 72
     1
 11
970169.447943
 21
7284621.009318
 31
0.0
210
0.0
220
0.0
230
1.0
  0
TEXT
  8
11
  6
CONTINUOUS
 62
     7
  5
C1
 10
973250.125
 20
7283231.012
 30
0.0
 40
8.0
  1
4
 50
358.6647
  7
ROMANS
 72
     1
 11
973252.457366
 21
7283230.957633
 31
0.0
210
0.0
220
0.0
230
1.0
  0
TEXT
  8
11
  6
CONTINUOUS
 62
     7
  5
C2
 10
973257.808
 20
7283230.833
 30
0.0
 40
8.0
  1
0
 50
358.6647
  7
ROMANS
 72
     1
 11
973260.45828
 21
7283230.771223
 31
0.0
210
0.0
220
0.0
230
1.0
  0
TEXT
  8
11
  6
CONTINUOUS
 62
     7
  5
C3
 10
973266.12
 20
7283230.639
 30
0.0
 40
8.0
  1
3
 50
358.6647
  7
ROMANS
 72
     1
 11
973268.452366
 21
7283230.584633
 31
0.0
210
0.0
220
0.0
230
1.0
  0
TEXT
  8
11
  6
CONTINUOUS
 62
     7
  5
C4
 10
973273.803
 20
7283230.46
 30
0.0
 40
8.0
  1
0
 50
358.6647
  7
ROMANS
 72
     1
 11
973276.45328
 21
7283230.398223
 31
0.0
210
0.0
220
0.0
230
1.0
  0
TEXT
  8
11
  6
CONTINUOUS
 62
     7
  5
C5
 10
973283.123
 20
7283230.243
 30
0.0
 40
8.0
  1
'
 50
358.6647
  7
ROMANS
 72
     1
 11
973284.456638
 21
7283230.211913
 31
0.0
210
0.0
220
0.0
230
1.0
  0
TEXT
  8
11
  6
CONTINUOUS
 62
     7
  5
C6
 10
971343.838
 20
7283275.447
 30
0.0
 40
8.0
  1
4
 50
358.6647
  7
ROMANS
 72
     1
 11
971346.170366
 21
7283275.392633
 31
0.0
210
0.0
220
0.0
230
1.0
  0
TEXT
  8
11
  6
CONTINUOUS
 62
     7
  5
C7
 10
971351.521
 20
7283275.268
 30
0.0
 40
8.0
  1
0
 50
358.6647
  7
ROMANS
 72
     1
 11
971354.17128
 21
7283275.206223
 31
0.0
210
0.0
220
0.0
230
1.0
  0
TEXT
  8
11
  6
CONTINUOUS
 62
     7
  5
C8
 10
971359.833
 20
7283275.074
 30
0.0
 40
8.0
  1
3
 50
358.6647
  7
ROMANS
 72
     1
 11
971362.165366
 21
7283275.019633
 31
0.0
210
0.0
220
0.0
230
1.0
  0
TEXT
  8
11
  6
CONTINUOUS
 62
     7
  5
C9
 10
971367.516
 20
7283274.894
 30
0.0
 40
8.0
  1
0
 50
358.6647
  7
ROMANS
 72
     1
 11
971370.16628
 21
7283274.832223
 31
0.0
210
0.0
220
0.0
230
1.0
  0
TEXT
  8
11
  6
CONTINUOUS
 62
     7
  5
CA
 10
971376.836
 20
7283274.678
 30
0.0
 40
8.0
  1
'
 50
358.6647
  7
ROMANS
 72
     1
 11
971378.169638
 21
7283274.646913
 31
0.0
210
0.0
220
0.0
230
1.0
  0
TEXT
  8
11
  6
CONTINUOUS
 62
     7
  5
CB
 10
970317.957
 20
7284408.659
 30
0.0
 40
8.0
  1
280'
 50
309.416122
  7
ROMANS
210
0.0
220
0.0
230
1.0
  0
TEXT
  8
11
  6
CONTINUOUS
 62
     7
  5
CC
 10
969409.339
 20
7283562.756
 30
0.0
 40
8.0
  1
280'
 50
309.416122
  7
ROMANS
210
0.0
220
0.0
230
1.0
  0
TEXT
  8
11
  6
CONTINUOUS
 62
     7
  5
CD
 10
971155.821
 20
7285199.654
 30
0.0
 40
8.0
  1
280'
 50
309.416122
  7
ROMANS
210
0.0
220
0.0
230
1.0
  0
TEXT
  8
11
  6
CONTINUOUS
 62
     7
  5
CE
 10
972337.203
 20
7286265.905
 30
0.0
 40
8.0
  1
280'
 50
309.416122
  7
ROMANS
210
0.0
220
0.0
230
1.0
  0
TEXT
  8
11
  6
CONTINUOUS
 62
     7
  5
CF
 10
973300.055
 20
7287165.964
 30
0.0
 40
8.0
  1
280'
 50
309.416122
  7
ROMANS
210
0.0
220
0.0
230
1.0
  0
TEXT
  8
11
  6
CONTINUOUS
 62
     7
  5
D0
 10
974221.57
 20
7288012.846
 30
0.0
 40
8.0
  1
280'
 50
309.416122
  7
ROMANS
210
0.0
220
0.0
230
1.0
  0
TEXT
  8
11
  6
CONTINUOUS
 62
     7
  5
D1
 10
972577.665
 20
7285884.217
 30
0.0
 40
8.0
  1
7
 50
312.843825
  7
ROMANS
 72
     1
 11
972585.117125
 21
7285887.94644
 31
0.0
210
0.0
220
0.0
230
1.0
 73
     3
  0
TEXT
  8
11
  6
CONTINUOUS
 62
     7
  5
D2
 10
972583.106
 20
7285878.353
 30
0.0
 40
8.0
  1
2
 50
312.843825
  7
ROMANS
 72
     1
 11
972590.558125
 21
7285882.08244
 31
0.0
210
0.0
220
0.0
230
1.0
 73
     3
  0
TEXT
  8
11
  6
CONTINUOUS
 62
     7
  5
D3
 10
972588.545
 20
7285872.487
 30
0.0
 40
8.0
  1
3
 50
312.843825
  7
ROMANS
 72
     1
 11
972595.997125
 21
7285876.21644
 31
0.0
210
0.0
220
0.0
230
1.0
 73
     3
  0
TEXT
  8
11
  6
CONTINUOUS
 62
     7
  5
D4
 10
972594.672
 20
7285865.882
 30
0.0
 40
8.0
  1
'
 50
312.843825
  7
ROMANS
 72
     1
 11
972601.444803
 21
7285870.343917
 31
0.0
210
0.0
220
0.0
230
1.0
 73
     3
  0
TEXT
  8
11
  6
CONTINUOUS
 62
     7
  5
D5
 10
972598.313
 20
7285861.956
 30
0.0
 40
8.0
  1
 
 50
312.843825
  7
ROMANS
 72
     1
 11
972605.991566
 21
7285865.441281
 31
0.0
210
0.0
220
0.0
230
1.0
 73
     3
  0
TEXT
  8
11
  6
CONTINUOUS
 62
     7
  5
D6
 10
972603.753
 20
7285856.091
 30
0.0
 40
8.0
  1
 
 50
312.843825
  7
ROMANS
 72
     1
 11
972611.431566
 21
7285859.576281
 31
0.0
210
0.0
220
0.0
230
1.0
 73
     3
  0
TEXT
  8
11
  6
CONTINUOUS
 62
     7
  5
D7
 10
972609.193
 20
7285850.225
 30
0.0
 40
8.0
  1
 
 50
312.843825
  7
ROMANS
 72
     1
 11
972616.871566
 21
7285853.710281
 31
0.0
210
0.0
220
0.0
230
1.0
 73
     3
  0
TEXT
  8
11
  6
CONTINUOUS
 62
     7
  5
D8
 10
972615.64
 20
7285843.274
 30
0.0
 40
8.0
  1
S
 50
312.843825
  7
ROMANS
 72
     1
 11
972623.215205
 21
7285846.870729
 31
0.0
210
0.0
220
0.0
230
1.0
 73
     3
  0
TEXT
  8
11
  6
CONTINUOUS
 62
     7
  5
D9
 10
972621.185
 20
7285837.293
 30
0.0
 40
8.0
  1
4
 50
312.843825
  7
ROMANS
 72
     1
 11
972628.637125
 21
7285841.02244
 31
0.0
210
0.0
220
0.0
230
1.0
 73
     3
  0
TEXT
  8
11
  6
CONTINUOUS
 62
     7
  5
DA
 10
972626.626
 20
7285831.427
 30
0.0
 40
8.0
  1
4
 50
312.843825
  7
ROMANS
 72
     1
 11
972634.078125
 21
7285835.15644
 31
0.0
210
0.0
220
0.0
230
1.0
 73
     3
  0
TEXT
  8
11
  6
CONTINUOUS
 62
     7
  5
DB
 10
972632.688
 20
7285824.891
 30
0.0
 40
8.0
  1
%%d
 50
312.843825
  7
ROMANS
 72
     1
 11
972639.530843
 21
7285829.277396
 31
0.0
210
0.0
220
0.0
230
1.0
 73
     3
  0
TEXT
  8
11
  6
CONTINUOUS
 62
     7
  5
DC
 10
972638.192
 20
7285818.957
 30
0.0
 40
8.0
  1
1
 50
312.843825
  7
ROMANS
 72
     1
 11
972644.964803
 21
7285823.418917
 31
0.0
210
0.0
220
0.0
230
1.0
 73
     3
  0
TEXT
  8
11
  6
CONTINUOUS
 62
     7
  5
DD
 10
972642.733
 20
7285814.062
 30
0.0
 40
8.0
  1
0
 50
312.843825
  7
ROMANS
 72
     1
 11
972650.401366
 21
7285817.558279
 31
0.0
210
0.0
220
0.0
230
1.0
 73
     3
  0
TEXT
  8
11
  6
CONTINUOUS
 62
     7
  5
DE
 10
972649.071
 20
7285807.224
 30
0.0
 40
8.0
  1
'
 50
312.843825
  7
ROMANS
 72
     1
 11
972655.843803
 21
7285811.685917
 31
0.0
210
0.0
220
0.0
230
1.0
 73
     3
  0
TEXT
  8
11
  6
CONTINUOUS
 62
     7
  5
DF
 10
972653.826
 20
7285802.098
 30
0.0
 40
8.0
  1
4
 50
312.843825
  7
ROMANS
 72
     1
 11
972661.278125
 21
7285805.82744
 31
0.0
210
0.0
220
0.0
230
1.0
 73
     3
  0
TEXT
  8
11
  6
CONTINUOUS
 62
     7
  5
E0
 10
972659.267
 20
7285796.233
 30
0.0
 40
8.0
  1
5
 50
312.843825
  7
ROMANS
 72
     1
 11
972666.726605
 21
7285799.954375
 31
0.0
210
0.0
220
0.0
230
1.0
 73
     3
  0
TEXT
  8
11
  6
CONTINUOUS
 62
     7
  5
E1
 10
972664.535
 20
7285790.552
 30
0.0
 40
8.0
  1
"
 50
312.843825
  7
ROMANS
 72
     1
 11
972672.157126
 21
7285794.098137
 31
0.0
210
0.0
220
0.0
230
1.0
 73
     3
  0
TEXT
  8
11
  6
CONTINUOUS
 62
     7
  5
E2
 10
972670.04
 20
7285784.617
 30
0.0
 40
8.0
  1
E
 50
312.843825
  7
ROMANS
 72
     1
 11
972677.605685
 21
7285788.223994
 31
0.0
210
0.0
220
0.0
230
1.0
 73
     3
  0
TEXT
  8
11
  6
CONTINUOUS
 62
     7
  5
E3
 10
972830.691
 20
7285251.836
 30
0.0
 40
8.0
  1
5
 50
82.664711
  7
ROMANS
 72
     1
 11
972830.990271
 21
7285254.160817
 31
0.0
210
0.0
220
0.0
230
1.0
  0
TEXT
  8
11
  6
CONTINUOUS
 62
     7
  5
E4
 10
972831.712
 20
7285259.771
 30
0.0
 40
8.0
  1
8
 50
82.664711
  7
ROMANS
 72
     1
 11
972832.009867
 21
7285262.084907
 31
0.0
210
0.0
220
0.0
230
1.0
  0
TEXT
  8
11
  6
CONTINUOUS
 62
     7
  5
E5
 10
972832.735
 20
7285267.705
 30
0.0
 40
8.0
  1
5
 50
82.664711
  7
ROMANS
 72
     1
 11
972833.034271
 21
7285270.029817
 31
0.0
210
0.0
220
0.0
230
1.0
  0
TEXT
  8
11
  6
CONTINUOUS
 62
     7
  5
E6
 10
972833.885
 20
7285276.639
 30
0.0
 40
8.0
  1
'
 50
82.664711
  7
ROMANS
 72
     1
 11
972834.055191
 21
7285277.961091
 31
0.0
210
0.0
220
0.0
230
1.0
  0
TEXT
  8
11
  6
CONTINUOUS
 62
     7
  5
E7
 10
972834.568
 20
7285281.951
 30
0.0
 40
8.0
  1
 
 50
82.664711
  7
ROMANS
 72
     1
 11
972834.908383
 21
7285284.595181
 31
0.0
210
0.0
220
0.0
230
1.0
  0
TEXT
  8
11
  6
CONTINUOUS
 62
     7
  5
E8
 10
972835.589
 20
7285289.884
 30
0.0
 40
8.0
  1
 
 50
82.664711
  7
ROMANS
 72
     1
 11
972835.929383
 21
7285292.528181
 31
0.0
210
0.0
220
0.0
230
1.0
  0
TEXT
  8
11
  6
CONTINUOUS
 62
     7
  5
E9
 10
972836.611
 20
7285297.819
 30
0.0
 40
8.0
  1
 
 50
82.664711
  7
ROMANS
 72
     1
 11
972836.951383
 21
7285300.463181
 31
0.0
210
0.0
220
0.0
230
1.0
  0
TEXT
  8
11
  6
CONTINUOUS
 62
     7
  5
EA
 10
972837.632
 20
7285305.753
 30
0.0
 40
8.0
  1
 
 50
82.664711
  7
ROMANS
 72
     1
 11
972837.972383
 21
7285308.397181
 31
0.0
210
0.0
220
0.0
230
1.0
  0
TEXT
  8
11
  6
CONTINUOUS
 62
     7
  5
EB
 10
972838.843
 20
7285315.156
 30
0.0
 40
8.0
  1
S
 50
82.664711
  7
ROMANS
 72
     1
 11
972839.163976
 21
7285317.649425
 31
0.0
210
0.0
220
0.0
230
1.0
  0
TEXT
  8
11
  6
CONTINUOUS
 62
     7
  5
EC
 10
972839.861
 20
7285323.06
 30
0.0
 40
8.0
  1
6
 50
82.664711
  7
ROMANS
 72
     1
 11
972840.182742
 21
7285325.559376
 31
0.0
210
0.0
220
0.0
230
1.0
  0
TEXT
  8
11
  6
CONTINUOUS
 62
     7
  5
ED
 10
972841.022
 20
7285332.088
 30
0.0
 40
8.0
  1
%%d
 50
82.664711
  7
ROMANS
 72
     1
 11
972841.20547
 21
7285333.51324
 31
0.0
210
0.0
220
0.0
230
1.0
  0
TEXT
  8
11
  6
CONTINUOUS
 62
     7
  5
EE
 10
972841.864
 20
7285338.617
 30
0.0
 40
8.0
  1
W
 50
82.664711
  7
ROMANS
 72
     1
 11
972842.229663
 21
7285341.457561
 31
0.0
210
0.0
220
0.0
230
1.0
  0
TEXT
  8
11
  6
CONTINUOUS
 62
     7
  5
EF
 10
972257.707
 20
7284796.945
 30
0.0
 40
8.0
  1
1
 50
20.664706
  7
ROMANS
 72
     1
 11
972258.954237
 21
7284797.415414
 31
0.0
210
0.0
220
0.0
230
1.0
  0
TEXT
  8
11
  6
CONTINUOUS
 62
     7
  5
F0
 10
972263.955
 20
7284799.302
 30
0.0
 40
8.0
  1
0
 50
20.664706
  7
ROMANS
 72
     1
 11
972266.435439
 21
7284800.237534
 31
0.0
210
0.0
220
0.0
230
1.0
  0
TEXT
  8
11
  6
CONTINUOUS
 62
     7
  5
F1
 10
972271.734
 20
7284802.236
 30
0.0
 40
8.0
  1
5
 50
20.664706
  7
ROMANS
 72
     1
 11
972273.927191
 21
7284803.063194
 31
0.0
210
0.0
220
0.0
230
1.0
  0
TEXT
  8
11
  6
CONTINUOUS
 62
     7
  5
F2
 10
972278.924
 20
7284804.947
 30
0.0
 40
8.0
  1
0
 50
20.664706
  7
ROMANS
 72
     1
 11
972281.404439
 21
7284805.882534
 31
0.0
210
0.0
220
0.0
230
1.0
  0
TEXT
  8
11
  6
CONTINUOUS
 62
     7
  5
F3
 10
972287.648
 20
7284808.237
 30
0.0
 40
8.0
  1
'
 50
20.664706
  7
ROMANS
 72
     1
 11
972288.895237
 21
7284808.707414
 31
0.0
210
0.0
220
0.0
230
1.0
  0
TEXT
  8
11
  6
CONTINUOUS
 62
     7
  5
F4
 10
972292.657
 20
7284810.126
 30
0.0
 40
8.0
  1
 
 50
20.664706
  7
ROMANS
 72
     1
 11
972295.151474
 21
7284811.066828
 31
0.0
210
0.0
220
0.0
230
1.0
  0
TEXT
  8
11
  6
CONTINUOUS
 62
     7
  5
F5
 10
972300.143
 20
7284812.95
 30
0.0
 40
8.0
  1
 
 50
20.664706
  7
ROMANS
 72
     1
 11
972302.637474
 21
7284813.890828
 31
0.0
210
0.0
220
0.0
230
1.0
  0
TEXT
  8
11
  6
CONTINUOUS
 62
     7
  5
F6
 10
972307.628
 20
7284815.773
 30
0.0
 40
8.0
  1
 
 50
20.664706
  7
ROMANS
 72
     1
 11
972310.122474
 21
7284816.713828
 31
0.0
210
0.0
220
0.0
230
1.0
  0
TEXT
  8
11
  6
CONTINUOUS
 62
     7
  5
F7
 10
972315.113
 20
7284818.597
 30
0.0
 40
8.0
  1
 
 50
20.664706
  7
ROMANS
 72
     1
 11
972317.607474
 21
7284819.537828
 31
0.0
210
0.0
220
0.0
230
1.0
  0
TEXT
  8
11
  6
CONTINUOUS
 62
     7
  5
F8
 10
972322.598
 20
7284821.419
 30
0.0
 40
8.0
  1
 
 50
20.664706
  7
ROMANS
 72
     1
 11
972325.092474
 21
7284822.359828
 31
0.0
210
0.0
220
0.0
230
1.0
  0
TEXT
  8
11
  6
CONTINUOUS
 62
     7
  5
F9
 10
972331.47
 20
7284824.765
 30
0.0
 40
8.0
  1
S
 50
20.664706
  7
ROMANS
 72
     1
 11
972333.822253
 21
7284825.652187
 31
0.0
210
0.0
220
0.0
230
1.0
  0
TEXT
  8
11
  6
CONTINUOUS
 62
     7
  5
FA
 10
972338.925
 20
7284827.577
 30
0.0
 40
8.0
  1
6
 50
20.664706
  7
ROMANS
 72
     1
 11
972341.282867
 21
7284828.466304
 31
0.0
210
0.0
220
0.0
230
1.0
  0
TEXT
  8
11
  6
CONTINUOUS
 62
     7
  5
FB
 10
972346.587
 20
7284830.467
 30
0.0
 40
8.0
  1
8
 50
20.664706
  7
ROMANS
 72
     1
 11
972348.769899
 21
7284831.290312
 31
0.0
210
0.0
220
0.0
230
1.0
  0
TEXT
  8
11
  6
CONTINUOUS
 62
     7
  5
FC
 10
972354.928
 20
7284833.613
 30
0.0
 40
8.0
  1
%%d
 50
20.664706
  7
ROMANS
 72
     1
 11
972356.272546
 21
7284834.120115
 31
0.0
210
0.0
220
0.0
230
1.0
  0
TEXT
  8
11
  6
CONTINUOUS
 62
     7
  5
FD
 10
972361.087
 20
7284835.936
 30
0.0
 40
8.0
  1
W
 50
20.664706
  7
ROMANS
 72
     1
 11
972363.766735
 21
7284836.946701
 31
0.0
210
0.0
220
0.0
230
1.0
  0
TEXT
  8
11
  6
CONTINUOUS
 62
     7
  5
FE
 10
971555.186
 20
7284631.653
 30
0.0
 40
8.0
  1
3
 50
359.8917
  7
ROMANS
 72
     1
 11
971557.518996
 21
7284631.64859
 31
0.0
210
0.0
220
0.0
230
1.0
  0
TEXT
  8
11
  6
CONTINUOUS
 62
     7
  5
FF
 10
971563.186
 20
7284631.638
 30
0.0
 40
8.0
  1
2
 50
359.8917
  7
ROMANS
 72
     1
 11
971565.518996
 21
7284631.63359
 31
0.0
210
0.0
220
0.0
230
1.0
  0
TEXT
  8
11
  6
CONTINUOUS
 62
     7
  5
100
 10
971571.185
 20
7284631.623
 30
0.0
 40
8.0
  1
3
 50
359.8917
  7
ROMANS
 72
     1
 11
971573.517996
 21
7284631.61859
 31
0.0
210
0.0
220
0.0
230
1.0
  0
TEXT
  8
11
  6
CONTINUOUS
 62
     7
  5
101
 10
971580.225
 20
7284631.606
 30
0.0
 40
8.0
  1
.
 50
359.8917
  7
ROMANS
 72
     1
 11
971581.546998
 21
7284631.603501
 31
0.0
210
0.0
220
0.0
230
1.0
  0
TEXT
  8
11
  6
CONTINUOUS
 62
     7
  5
102
 10
971587.185
 20
7284631.593
 30
0.0
 40
8.0
  1
3
 50
359.8917
  7
ROMANS
 72
     1
 11
971589.517996
 21
7284631.58859
 31
0.0
210
0.0
220
0.0
230
1.0
  0
TEXT
  8
11
  6
CONTINUOUS
 62
     7
  5
103
 10
971594.87
 20
7284631.577
 30
0.0
 40
8.0
  1
0
 50
359.8917
  7
ROMANS
 72
     1
 11
971597.520995
 21
7284631.571989
 31
0.0
210
0.0
220
0.0
230
1.0
  0
TEXT
  8
11
  6
CONTINUOUS
 62
     7
  5
104
 10
971604.193
 20
7284631.561
 30
0.0
 40
8.0
  1
'
 50
359.8917
  7
ROMANS
 72
     1
 11
971605.526998
 21
7284631.558478
 31
0.0
210
0.0
220
0.0
230
1.0
  0
TEXT
  8
11
  6
CONTINUOUS
 62
     7
  5
105
 10
971609.547
 20
7284631.55
 30
0.0
 40
8.0
  1
 
 50
359.8917
  7
ROMANS
 72
     1
 11
971612.212995
 21
7284631.544961
 31
0.0
210
0.0
220
0.0
230
1.0
  0
TEXT
  8
11
  6
CONTINUOUS
 62
     7
  5
106
 10
971617.547
 20
7284631.535
 30
0.0
 40
8.0
  1
 
 50
359.8917
  7
ROMANS
 72
     1
 11
971620.212995
 21
7284631.529961
 31
0.0
210
0.0
220
0.0
230
1.0
  0
TEXT
  8
11
  6
CONTINUOUS
 62
     7
  5
107
 10
971625.547
 20
7284631.52
 30
0.0
 40
8.0
  1
 
 50
359.8917
  7
ROMANS
 72
     1
 11
971628.212995
 21
7284631.514961
 31
0.0
210
0.0
220
0.0
230
1.0
  0
TEXT
  8
11
  6
CONTINUOUS
 62
     7
  5
108
 10
971633.547
 20
7284631.506
 30
0.0
 40
8.0
  1
 
 50
359.8917
  7
ROMANS
 72
     1
 11
971636.212995
 21
7284631.500961
 31
0.0
210
0.0
220
0.0
230
1.0
  0
TEXT
  8
11
  6
CONTINUOUS
 62
     7
  5
109
 10
971643.027
 20
7284631.488
 30
0.0
 40
8.0
  1
S
 50
359.8917
  7
ROMANS
 72
     1
 11
971645.540996
 21
7284631.483248
 31
0.0
210
0.0
220
0.0
230
1.0
  0
TEXT
  8
11
  6
CONTINUOUS
 62
     7
  5
10A
 10
971651.186
 20
7284631.471
 30
0.0
 40
8.0
  1
8
 50
359.8917
  7
ROMANS
 72
     1
 11
971653.518996
 21
7284631.46659
 31
0.0
210
0.0
220
0.0
230
1.0
  0
TEXT
  8
11
  6
CONTINUOUS
 62
     7
  5
10B
 10
971659.185
 20
7284631.457
 30
0.0
 40
8.0
  1
8
 50
359.8917
  7
ROMANS
 72
     1
 11
971661.517996
 21
7284631.45259
 31
0.0
210
0.0
220
0.0
230
1.0
  0
TEXT
  8
11
  6
CONTINUOUS
 62
     7
  5
10C
 10
971668.099
 20
7284631.44
 30
0.0
 40
8.0
  1
%%d
 50
359.8917
  7
ROMANS
 72
     1
 11
971669.535997
 21
7284631.437284
 31
0.0
210
0.0
220
0.0
230
1.0
  0
TEXT
  8
11
  6
CONTINUOUS
 62
     7
  5
10D
 10
971675.185
 20
7284631.426
 30
0.0
 40
8.0
  1
4
 50
359.8917
  7
ROMANS
 72
     1
 11
971677.517996
 21
7284631.42159
 31
0.0
210
0.0
220
0.0
230
1.0
  0
TEXT
  8
11
  6
CONTINUOUS
 62
     7
  5
10E
 10
971683.185
 20
7284631.411
 30
0.0
 40
8.0
  1
5
 50
359.8917
  7
ROMANS
 72
     1
 11
971685.528996
 21
7284631.406569
 31
0.0
210
0.0
220
0.0
230
1.0
  0
TEXT
  8
11
  6
CONTINUOUS
 62
     7
  5
10F
 10
971692.193
 20
7284631.395
 30
0.0
 40
8.0
  1
'
 50
359.8917
  7
ROMANS
 72
     1
 11
971693.526998
 21
7284631.392478
 31
0.0
210
0.0
220
0.0
230
1.0
  0
TEXT
  8
11
  6
CONTINUOUS
 62
     7
  5
110
 10
971699.186
 20
7284631.381
 30
0.0
 40
8.0
  1
8
 50
359.8917
  7
ROMANS
 72
     1
 11
971701.518996
 21
7284631.37659
 31
0.0
210
0.0
220
0.0
230
1.0
  0
TEXT
  8
11
  6
CONTINUOUS
 62
     7
  5
111
 10
971707.185
 20
7284631.366
 30
0.0
 40
8.0
  1
3
 50
359.8917
  7
ROMANS
 72
     1
 11
971709.517996
 21
7284631.36159
 31
0.0
210
0.0
220
0.0
230
1.0
  0
TEXT
  8
11
  6
CONTINUOUS
 62
     7
  5
112
 10
971714.933
 20
7284631.352
 30
0.0
 40
8.0
  1
"
 50
359.8917
  7
ROMANS
 72
     1
 11
971717.515995
 21
7284631.347118
 31
0.0
210
0.0
220
0.0
230
1.0
  0
TEXT
  8
11
  6
CONTINUOUS
 62
     7
  5
113
 10
971722.681
 20
7284631.336
 30
0.0
 40
8.0
  1
W
 50
359.8917
  7
ROMANS
 72
     1
 11
971725.544995
 21
7284631.330586
 31
0.0
210
0.0
220
0.0
230
1.0
  0
TEXT
  8
11
  6
CONTINUOUS
 62
     7
  5
114
 10
971290.215
 20
7284854.402
 30
0.0
 40
8.0
  1
4
 50
312.843897
  7
ROMANS
 72
     1
 11
971291.802128
 21
7284852.69069
 31
0.0
210
0.0
220
0.0
230
1.0
  0
TEXT
  8
11
  6
CONTINUOUS
 62
     7
  5
115
 10
971295.656
 20
7284848.536
 30
0.0
 40
8.0
  1
7
 50
312.843897
  7
ROMANS
 72
     1
 11
971297.243128
 21
7284846.82469
 31
0.0
210
0.0
220
0.0
230
1.0
  0
TEXT
  8
11
  6
CONTINUOUS
 62
     7
  5
116
 10
971301.096
 20
7284842.67
 30
0.0
 40
8.0
  1
5
 50
312.843897
  7
ROMANS
 72
     1
 11
971302.689928
 21
7284840.951358
 31
0.0
210
0.0
220
0.0
230
1.0
  0
TEXT
  8
11
  6
CONTINUOUS
 62
     7
  5
117
 10
971307.221
 20
7284836.067
 30
0.0
 40
8.0
  1
'
 50
312.843897
  7
ROMANS
 72
     1
 11
971308.128124
 21
7284835.088899
 31
0.0
210
0.0
220
0.0
230
1.0
  0
TEXT
  8
11
  6
CONTINUOUS
 62
     7
  5
118
 10
971310.861
 20
7284832.14
 30
0.0
 40
8.0
  1
 
 50
312.843897
  7
ROMANS
 72
     1
 11
971312.673889
 21
7284830.185265
 31
0.0
210
0.0
220
0.0
230
1.0
  0
TEXT
  8
11
  6
CONTINUOUS
 62
     7
  5
119
 10
971316.301
 20
7284826.274
 30
0.0
 40
8.0
  1
 
 50
312.843897
  7
ROMANS
 72
     1
 11
971318.113889
 21
7284824.319265
 31
0.0
210
0.0
220
0.0
230
1.0
  0
TEXT
  8
11
  6
CONTINUOUS
 62
     7
  5
11A
 10
971321.742
 20
7284820.409
 30
0.0
 40
8.0
  1
 
 50
312.843897
  7
ROMANS
 72
     1
 11
971323.554889
 21
7284818.454265
 31
0.0
210
0.0
220
0.0
230
1.0
  0
TEXT
  8
11
  6
CONTINUOUS
 62
     7
  5
11B
 10
971328.167
 20
7284813.481
 30
0.0
 40
8.0
  1
N
 50
312.843897
  7
ROMANS
 72
     1
 11
971329.880608
 21
7284811.633313
 31
0.0
210
0.0
220
0.0
230
1.0
  0
TEXT
  8
11
  6
CONTINUOUS
 62
     7
  5
11C
 10
971333.736
 20
7284807.475
 30
0.0
 40
8.0
  1
4
 50
312.843897
  7
ROMANS
 72
     1
 11
971335.323128
 21
7284805.76369
 31
0.0
210
0.0
220
0.0
230
1.0
  0
TEXT
  8
11
  6
CONTINUOUS
 62
     7
  5
11D
 10
971339.176
 20
7284801.611
 30
0.0
 40
8.0
  1
4
 50
312.843897
  7
ROMANS
 72
     1
 11
971340.763128
 21
7284799.89969
 31
0.0
210
0.0
220
0.0
230
1.0
  0
TEXT
  8
11
  6
CONTINUOUS
 62
     7
  5
11E
 10
971345.237
 20
7284795.075
 30
0.0
 40
8.0
  1
%%d
 50
312.843897
  7
ROMANS
 72
     1
 11
971346.214165
 21
7284794.021379
 31
0.0
210
0.0
220
0.0
230
1.0
  0
TEXT
  8
11
  6
CONTINUOUS
 62
     7
  5
11F
 10
971350.741
 20
7284789.14
 30
0.0
 40
8.0
  1
1
 50
312.843897
  7
ROMANS
 72
     1
 11
971351.648124
 21
7284788.161899
 31
0.0
210
0.0
220
0.0
230
1.0
  0
TEXT
  8
11
  6
CONTINUOUS
 62
     7
  5
120
 10
971355.281
 20
7284784.244
 30
0.0
 40
8.0
  1
0
 50
312.843897
  7
ROMANS
 72
     1
 11
971357.083689
 21
7284782.300263
 31
0.0
210
0.0
220
0.0
230
1.0
  0
TEXT
  8
11
  6
CONTINUOUS
 62
     7
  5
121
 10
971361.621
 20
7284777.41
 30
0.0
 40
8.0
  1
'
 50
312.843897
  7
ROMANS
 72
     1
 11
971362.528124
 21
7284776.431899
 31
0.0
210
0.0
220
0.0
230
1.0
  0
TEXT
  8
11
  6
CONTINUOUS
 62
     7
  5
122
 10
971366.376
 20
7284772.282
 30
0.0
 40
8.0
  1
4
 50
312.843897
  7
ROMANS
 72
     1
 11
971367.963128
 21
7284770.57069
 31
0.0
210
0.0
220
0.0
230
1.0
  0
TEXT
  8
11
  6
CONTINUOUS
 62
     7
  5
123
 10
971371.817
 20
7284766.417
 30
0.0
 40
8.0
  1
5
 50
312.843897
  7
ROMANS
 72
     1
 11
971373.410928
 21
7284764.698358
 31
0.0
210
0.0
220
0.0
230
1.0
  0
TEXT
  8
11
  6
CONTINUOUS
 62
     7
  5
124
 10
971377.084
 20
7284760.736
 30
0.0
 40
8.0
  1
"
 50
312.843897
  7
ROMANS
 72
     1
 11
971378.840448
 21
7284758.842121
 31
0.0
210
0.0
220
0.0
230
1.0
  0
TEXT
  8
11
  6
CONTINUOUS
 62
     7
  5
125
 10
971382.353
 20
7284755.056
 30
0.0
 40
8.0
  1
W
 50
312.843897
  7
ROMANS
 72
     1
 11
971384.300529
 21
7284752.956089
 31
0.0
210
0.0
220
0.0
230
1.0
  0
TEXT
  8
11
  6
CONTINUOUS
 62
     7
  5
126
 10
971774.919
 20
7285525.286
 30
0.0
 40
8.0
  1
1
 50
42.697486
  7
ROMANS
 72
     1
 11
971770.474396
 21
7285532.070177
 31
0.0
210
0.0
220
0.0
230
1.0
 73
     3
  0
TEXT
  8
11
  6
CONTINUOUS
 62
     7
  5
127
 10
971780.797
 20
7285529.361
 30
0.0
 40
8.0
  1
6
 50
42.697486
  7
ROMANS
 72
     1
 11
971777.22404
 21
7285536.949436
 31
0.0
210
0.0
220
0.0
230
1.0
 73
     3
  0
TEXT
  8
11
  6
CONTINUOUS
 62
     7
  5
128
 10
971786.677
 20
7285534.787
 30
0.0
 40
8.0
  1
6
 50
42.697486
  7
ROMANS
 72
     1
 11
971783.10404
 21
7285542.375436
 31
0.0
210
0.0
220
0.0
230
1.0
 73
     3
  0
TEXT
  8
11
  6
CONTINUOUS
 62
     7
  5
129
 10
971792.696
 20
7285540.339
 30
0.0
 40
8.0
  1
5
 50
42.697486
  7
ROMANS
 72
     1
 11
971788.99369
 21
7285547.808085
 31
0.0
210
0.0
220
0.0
230
1.0
 73
     3
  0
TEXT
  8
11
  6
CONTINUOUS
 62
     7
  5
12A
 10
971799.317
 20
7285546.448
 30
0.0
 40
8.0
  1
'
 50
42.697486
  7
ROMANS
 72
     1
 11
971794.872396
 21
7285553.232177
 31
0.0
210
0.0
220
0.0
230
1.0
 73
     3
  0
TEXT
  8
11
  6
CONTINUOUS
 62
     7
  5
12B
 10
973163.891
 20
7286808.684
 30
0.0
 40
8.0
  1
4
 50
42.697486
  7
ROMANS
 72
     1
 11
973160.180606
 21
7286816.145626
 31
0.0
210
0.0
220
0.0
230
1.0
 73
     3
  0
TEXT
  8
11
  6
CONTINUOUS
 62
     7
  5
12C
 10
973169.77
 20
7286814.107
 30
0.0
 40
8.0
  1
5
 50
42.697486
  7
ROMANS
 72
     1
 11
973166.06769
 21
7286821.576085
 31
0.0
210
0.0
220
0.0
230
1.0
 73
     3
  0
TEXT
  8
11
  6
CONTINUOUS
 62
     7
  5
12D
 10
973175.65
 20
7286819.533
 30
0.0
 40
8.0
  1
2
 50
42.697486
  7
ROMANS
 72
     1
 11
973171.939606
 21
7286826.994626
 31
0.0
210
0.0
220
0.0
230
1.0
 73
     3
  0
TEXT
  8
11
  6
CONTINUOUS
 62
     7
  5
12E
 10
973182.269
 20
7286825.642
 30
0.0
 40
8.0
  1
'
 50
42.697486
  7
ROMANS
 72
     1
 11
973177.824396
 21
7286832.426177
 31
0.0
210
0.0
220
0.0
230
1.0
 73
     3
  0
TEXT
  8
11
  6
CONTINUOUS
 62
     7
  5
12F
 10
973323.387
 20
7286824.877
 30
0.0
 40
8.0
  1
2
 50
88.6647
  7
ROMANS
 72
     1
 11
973323.441367
 21
7286827.209366
 31
0.0
210
0.0
220
0.0
230
1.0
  0
TEXT
  8
11
  6
CONTINUOUS
 62
     7
  5
130
 10
973323.597
 20
7286833.883
 30
0.0
 40
8.0
  1
1
 50
88.6647
  7
ROMANS
 72
     1
 11
973323.628087
 21
7286835.216638
 31
0.0
210
0.0
220
0.0
230
1.0
  0
TEXT
  8
11
  6
CONTINUOUS
 62
     7
  5
131
 10
973323.753
 20
7286840.557
 30
0.0
 40
8.0
  1
0
 50
88.6647
  7
ROMANS
 72
     1
 11
973323.814777
 21
7286843.20728
 31
0.0
210
0.0
220
0.0
230
1.0
  0
TEXT
  8
11
  6
CONTINUOUS
 62
     7
  5
132
 10
973323.97
 20
7286849.91
 30
0.0
 40
8.0
  1
.
 50
88.6647
  7
ROMANS
 72
     1
 11
973324.000807
 21
7286851.231641
 31
0.0
210
0.0
220
0.0
230
1.0
  0
TEXT
  8
11
  6
CONTINUOUS
 62
     7
  5
133
 10
973324.133
 20
7286856.869
 30
0.0
 40
8.0
  1
7
 50
88.6647
  7
ROMANS
 72
     1
 11
973324.187367
 21
7286859.201366
 31
0.0
210
0.0
220
0.0
230
1.0
  0
TEXT
  8
11
  6
CONTINUOUS
 62
     7
  5
134
 10
973324.342
 20
7286865.874
 30
0.0
 40
8.0
  1
'
 50
88.6647
  7
ROMANS
 72
     1
 11
973324.373087
 21
7286867.207638
 31
0.0
210
0.0
220
0.0
230
1.0
  0
TEXT
  8
11
  6
CONTINUOUS
 62
     7
  5
135
 10
973378.457
 20
7286753.963
 30
0.0
 40
8.0
  1
1
 50
358.6647
  7
ROMANS
 72
     1
 11
973379.977064
 21
7286761.929741
 31
0.0
210
0.0
220
0.0
230
1.0
 73
     3
  0
TEXT
  8
11
  6
CONTINUOUS
 62
     7
  5
136
 10
973385.447
 20
7286753.801
 30
0.0
 40
8.0
  1
4
 50
358.6647
  7
ROMANS
 72
     1
 11
973387.965793
 21
7286761.744461
 31
0.0
210
0.0
220
0.0
230
1.0
 73
     3
  0
TEXT
  8
11
  6
CONTINUOUS
 62
     7
  5
137
 10
973393.13
 20
7286753.621
 30
0.0
 40
8.0
  1
0
 50
358.6647
  7
ROMANS
 72
     1
 11
973395.966706
 21
7286761.557051
 31
0.0
210
0.0
220
0.0
230
1.0
 73
     3
  0
TEXT
  8
11
  6
CONTINUOUS
 62
     7
  5
138
 10
973402.482
 20
7286753.404
 30
0.0
 40
8.0
  1
.
 50
358.6647
  7
ROMANS
 72
     1
 11
973403.990067
 21
7286761.371021
 31
0.0
210
0.0
220
0.0
230
1.0
 73
     3
  0
TEXT
  8
11
  6
CONTINUOUS
 62
     7
  5
139
 10
973409.441
 20
7286753.241
 30
0.0
 40
8.0
  1
3
 50
358.6647
  7
ROMANS
 72
     1
 11
973411.959793
 21
7286761.184461
 31
0.0
210
0.0
220
0.0
230
1.0
 73
     3
  0
TEXT
  8
11
  6
CONTINUOUS
 62
     7
  5
13A
 10
973418.447
 20
7286753.031
 30
0.0
 40
8.0
  1
'
 50
358.6647
  7
ROMANS
 72
     1
 11
973419.967064
 21
7286760.997741
 31
0.0
210
0.0
220
0.0
230
1.0
 73
     3
  0
TEXT
  8
11
  6
CONTINUOUS
 62
     7
  5
13B
 10
973000.055
 20
7286385.271
 30
0.0
 40
8.0
  1
5
 50
88.6647
  7
ROMANS
 72
     1
 11
972992.111795
 21
7286387.80079
 31
0.0
210
0.0
220
0.0
230
1.0
 73
     3
  0
TEXT
  8
11
  6
CONTINUOUS
 62
     7
  5
13C
 10
973000.242
 20
7286393.269
 30
0.0
 40
8.0
  1
5
 50
88.6647
  7
ROMANS
 72
     1
 11
972992.298795
 21
7286395.79879
 31
0.0
210
0.0
220
0.0
230
1.0
 73
     3
  0
TEXT
  8
11
  6
CONTINUOUS
 62
     7
  5
13D
 10
973000.428
 20
7286401.266
 30
0.0
 40
8.0
  1
4
 50
88.6647
  7
ROMANS
 72
     1
 11
972992.484539
 21
7286403.784793
 31
0.0
210
0.0
220
0.0
230
1.0
 73
     3
  0
TEXT
  8
11
  6
CONTINUOUS
 62
     7
  5
13E
 10
973000.639
 20
7286410.305
 30
0.0
 40
8.0
  1
.
 50
88.6647
  7
ROMANS
 72
     1
 11
972992.671979
 21
7286411.813067
 31
0.0
210
0.0
220
0.0
230
1.0
 73
     3
  0
TEXT
  8
11
  6
CONTINUOUS
 62
     7
  5
13F
 10
973000.8
 20
7286417.262
 30
0.0
 40
8.0
  1
5
 50
88.6647
  7
ROMANS
 72
     1
 11
972992.856795
 21
7286419.79179
 31
0.0
210
0.0
220
0.0
230
1.0
 73
     3
  0
TEXT
  8
11
  6
CONTINUOUS
 62
     7
  5
140
 10
973001.011
 20
7286426.268
 30
0.0
 40
8.0
  1
'
 50
88.6647
  7
ROMANS
 72
     1
 11
972993.044259
 21
7286427.788064
 31
0.0
210
0.0
220
0.0
230
1.0
 73
     3
  0
TEXT
  8
11
  6
CONTINUOUS
 62
     7
  5
141
 10
973452.7
 20
7286351.872
 30
0.0
 40
8.0
  1
6
 50
88.6647
  7
ROMANS
 72
     1
 11
973452.758724
 21
7286354.391316
 31
0.0
210
0.0
220
0.0
230
1.0
  0
TEXT
  8
11
  6
CONTINUOUS
 62
     7
  5
142
 10
973452.89
 20
7286360.059
 30
0.0
 40
8.0
  1
5
 50
88.6647
  7
ROMANS
 72
     1
 11
973452.944623
 21
7286362.402363
 31
0.0
210
0.0
220
0.0
230
1.0
  0
TEXT
  8
11
  6
CONTINUOUS
 62
     7
  5
143
 10
973453.077
 20
7286368.056
 30
0.0
 40
8.0
  1
5
 50
88.6647
  7
ROMANS
 72
     1
 11
973453.131623
 21
7286370.399363
 31
0.0
210
0.0
220
0.0
230
1.0
  0
TEXT
  8
11
  6
CONTINUOUS
 62
     7
  5
144
 10
973453.287
 20
7286377.095
 30
0.0
 40
8.0
  1
.
 50
88.6647
  7
ROMANS
 72
     1
 11
973453.317807
 21
7286378.416641
 31
0.0
210
0.0
220
0.0
230
1.0
  0
TEXT
  8
11
  6
CONTINUOUS
 62
     7
  5
145
 10
973453.45
 20
7286384.052
 30
0.0
 40
8.0
  1
8
 50
88.6647
  7
ROMANS
 72
     1
 11
973453.504367
 21
7286386.384366
 31
0.0
210
0.0
220
0.0
230
1.0
  0
TEXT
  8
11
  6
CONTINUOUS
 62
     7
  5
146
 10
973453.659
 20
7286393.058
 30
0.0
 40
8.0
  1
'
 50
88.6647
  7
ROMANS
 72
     1
 11
973453.690087
 21
7286394.391638
 31
0.0
210
0.0
220
0.0
230
1.0
  0
TEXT
  8
11
  6
CONTINUOUS
 62
     7
  5
147
 10
973222.143
 20
7286115.633
 30
0.0
 40
8.0
  1
4
 50
358.6647
  7
ROMANS
 72
     1
 11
973224.475366
 21
7286115.578633
 31
0.0
210
0.0
220
0.0
230
1.0
  0
TEXT
  8
11
  6
CONTINUOUS
 62
     7
  5
148
 10
973229.952
 20
7286115.45
 30
0.0
 40
8.0
  1
6
 50
358.6647
  7
ROMANS
 72
     1
 11
973232.471316
 21
7286115.391276
 31
0.0
210
0.0
220
0.0
230
1.0
  0
TEXT
  8
11
  6
CONTINUOUS
 62
     7
  5
149
 10
973238.139
 20
7286115.259
 30
0.0
 40
8.0
  1
7
 50
358.6647
  7
ROMANS
 72
     1
 11
973240.471366
 21
7286115.204633
 31
0.0
210
0.0
220
0.0
230
1.0
  0
TEXT
  8
11
  6
CONTINUOUS
 62
     7
  5
14A
 10
973247.176
 20
7286115.049
 30
0.0
 40
8.0
  1
.
 50
358.6647
  7
ROMANS
 72
     1
 11
973248.497641
 21
7286115.018193
 31
0.0
210
0.0
220
0.0
230
1.0
  0
TEXT
  8
11
  6
CONTINUOUS
 62
     7
  5
14B
 10
973254.134
 20
7286114.887
 30
0.0
 40
8.0
  1
3
 50
358.6647
  7
ROMANS
 72
     1
 11
973256.466366
 21
7286114.832633
 31
0.0
210
0.0
220
0.0
230
1.0
  0
TEXT
  8
11
  6
CONTINUOUS
 62
     7
  5
14C
 10
973263.139
 20
7286114.677
 30
0.0
 40
8.0
  1
'
 50
358.6647
  7
ROMANS
 72
     1
 11
973264.472638
 21
7286114.645913
 31
0.0
210
0.0
220
0.0
230
1.0
  0
TEXT
  8
11
  6
CONTINUOUS
 62
     7
  5
14D
 10
974233.46
 20
7287790.127
 30
0.0
 40
8.0
  1
1
 50
42.697486
  7
ROMANS
 72
     1
 11
974229.015396
 21
7287796.911177
 31
0.0
210
0.0
220
0.0
230
1.0
 73
     3
  0
TEXT
  8
11
  6
CONTINUOUS
 62
     7
  5
14E
 10
974238.597
 20
7287794.868
 30
0.0
 40
8.0
  1
7
 50
42.697486
  7
ROMANS
 72
     1
 11
974234.886606
 21
7287802.329626
 31
0.0
210
0.0
220
0.0
230
1.0
 73
     3
  0
TEXT
  8
11
  6
CONTINUOUS
 62
     7
  5
14F
 10
974244.477
 20
7287800.294
 30
0.0
 40
8.0
  1
8
 50
42.697486
  7
ROMANS
 72
     1
 11
974240.766606
 21
7287807.755626
 31
0.0
210
0.0
220
0.0
230
1.0
 73
     3
  0
TEXT
  8
11
  6
CONTINUOUS
 62
     7
  5
150
 10
974251.12
 20
7287806.424
 30
0.0
 40
8.0
  1
.
 50
42.697486
  7
ROMANS
 72
     1
 11
974246.666577
 21
7287813.200039
 31
0.0
210
0.0
220
0.0
230
1.0
 73
     3
  0
TEXT
  8
11
  6
CONTINUOUS
 62
     7
  5
151
 10
974256.237
 20
7287811.143
 30
0.0
 40
8.0
  1
8
 50
42.697486
  7
ROMANS
 72
     1
 11
974252.526606
 21
7287818.604626
 31
0.0
210
0.0
220
0.0
230
1.0
 73
     3
  0
TEXT
  8
11
  6
CONTINUOUS
 62
     7
  5
152
 10
974262.856
 20
7287817.252
 30
0.0
 40
8.0
  1
'
 50
42.697486
  7
ROMANS
 72
     1
 11
974258.411396
 21
7287824.036177
 31
0.0
210
0.0
220
0.0
230
1.0
 73
     3
  0
TEXT
  8
11
  6
CONTINUOUS
 62
     7
  5
153
 10
974179.884
 20
7287715.03
 30
0.0
 40
8.0
  1
1
 50
312.585175
  7
ROMANS
 72
     1
 11
974180.786022
 21
7287714.048549
 31
0.0
210
0.0
220
0.0
230
1.0
  0
TEXT
  8
11
  6
CONTINUOUS
 62
     7
  5
154
 10
974184.402
 20
7287710.114
 30
0.0
 40
8.0
  1
0
 50
312.585175
  7
ROMANS
 72
     1
 11
974186.195893
 21
7287708.162142
 31
0.0
210
0.0
220
0.0
230
1.0
  0
TEXT
  8
11
  6
CONTINUOUS
 62
     7
  5
155
 10
974189.901
 20
7287704.131
 30
0.0
 40
8.0
  1
6
 50
312.585175
  7
ROMANS
 72
     1
 11
974191.606247
 21
7287702.275594
 31
0.0
210
0.0
220
0.0
230
1.0
  0
TEXT
  8
11
  6
CONTINUOUS
 62
     7
  5
156
 10
974196.145
 20
7287697.336
 30
0.0
 40
8.0
  1
.
 50
312.585175
  7
ROMANS
 72
     1
 11
974197.039578
 21
7287696.362648
 31
0.0
210
0.0
220
0.0
230
1.0
  0
TEXT
  8
11
  6
CONTINUOUS
 62
     7
  5
157
 10
974200.856
 20
7287692.211
 30
0.0
 40
8.0
  1
5
 50
312.585175
  7
ROMANS
 72
     1
 11
974202.442151
 21
7287690.485178
 31
0.0
210
0.0
220
0.0
230
1.0
  0
TEXT
  8
11
  6
CONTINUOUS
 62
     7
  5
158
 10
974206.951
 20
7287685.579
 30
0.0
 40
8.0
  1
'
 50
312.585175
  7
ROMANS
 72
     1
 11
974207.853022
 21
7287684.597549
 31
0.0
210
0.0
220
0.0
230
1.0
  0
TEXT
  8
11
  6
CONTINUOUS
 62
     7
  5
159
 10
974247.474
 20
7287659.493
 30
0.0
 40
8.0
  1
5
 50
358.6647
  7
ROMANS
 72
     1
 11
974249.817363
 21
7287659.438377
 31
0.0
210
0.0
220
0.0
230
1.0
  0
TEXT
  8
11
  6
CONTINUOUS
 62
     7
  5
15A
 10
974255.472
 20
7287659.306
 30
0.0
 40
8.0
  1
5
 50
358.6647
  7
ROMANS
 72
     1
 11
974257.815363
 21
7287659.251377
 31
0.0
210
0.0
220
0.0
230
1.0
  0
TEXT
  8
11
  6
CONTINUOUS
 62
     7
  5
15B
 10
974264.477
 20
7287659.096
 30
0.0
 40
8.0
  1
'
 50
358.6647
  7
ROMANS
 72
     1
 11
974265.810638
 21
7287659.064913
 31
0.0
210
0.0
220
0.0
230
1.0
  0
TEXT
  8
11
  6
CONTINUOUS
 62
     7
  5
15C
 10
974276.71
 20
7287806.208
 30
0.0
 40
8.0
  1
2
 50
268.6647
  7
ROMANS
 72
     1
 11
974284.653461
 21
7287803.689207
 31
0.0
210
0.0
220
0.0
230
1.0
 73
     3
  0
TEXT
  8
11
  6
CONTINUOUS
 62
     7
  5
15D
 10
974276.532
 20
7287798.525
 30
0.0
 40
8.0
  1
0
 50
268.6647
  7
ROMANS
 72
     1
 11
974284.468051
 21
7287795.688294
 31
0.0
210
0.0
220
0.0
230
1.0
 73
     3
  0
TEXT
  8
11
  6
CONTINUOUS
 62
     7
  5
15E
 10
974276.346
 20
7287790.527
 30
0.0
 40
8.0
  1
0
 50
268.6647
  7
ROMANS
 72
     1
 11
974284.282051
 21
7287787.690294
 31
0.0
210
0.0
220
0.0
230
1.0
 73
     3
  0
TEXT
  8
11
  6
CONTINUOUS
 62
     7
  5
15F
 10
974276.127
 20
7287781.175
 30
0.0
 40
8.0
  1
.
 50
268.6647
  7
ROMANS
 72
     1
 11
974284.094021
 21
7287779.666933
 31
0.0
210
0.0
220
0.0
230
1.0
 73
     3
  0
TEXT
  8
11
  6
CONTINUOUS
 62
     7
  5
160
 10
974275.969
 20
7287774.406
 30
0.0
 40
8.0
  1
6
 50
268.6647
  7
ROMANS
 72
     1
 11
974283.908103
 21
7287771.700258
 31
0.0
210
0.0
220
0.0
230
1.0
 73
     3
  0
TEXT
  8
11
  6
CONTINUOUS
 62
     7
  5
161
 10
974275.779
 20
7287766.219
 30
0.0
 40
8.0
  1
5
 50
268.6647
  7
ROMANS
 72
     1
 11
974283.722205
 21
7287763.68921
 31
0.0
210
0.0
220
0.0
230
1.0
 73
     3
  0
TEXT
  8
11
  6
CONTINUOUS
 62
     7
  5
162
 10
974275.569
 20
7287757.213
 30
0.0
 40
8.0
  1
'
 50
268.6647
  7
ROMANS
 72
     1
 11
974283.535741
 21
7287755.692936
 31
0.0
210
0.0
220
0.0
230
1.0
 73
     3
  0
TEXT
  8
25
  6
CONTINUOUS
 62
   212
  5
163
 10
972005.722
 20
7285015.152
 30
0.0
 40
50.0
  1

 50
28.6647
  7
ROMANC
210
0.0
220
0.0
230
1.0
  0
TEXT
  8
25
  6
CONTINUOUS
 62
   212
  5
164
 10
970181.169
 20
7284627.725
 30
0.0
 40
20.0
  1

 50
28.6647
  7
ROMANC
210
0.0
220
0.0
230
1.0
  0
TEXT
  8
25
  6
CONTINUOUS
 62
   212
  5
165
 10
969670.78
 20
7283403.729
 30
0.0
 40
20.0
  1

 50
28.6647
  7
ROMANC
210
0.0
220
0.0
230
1.0
  0
INSERT
  8
11
  6
CONTINUOUS
 62
     7
  5
16E
  2
*D0
 10
970393.945
 20
7284646.088
 30
0.0
 70
     0
 71
     0
  0
TEXT
  8
11
  6
CONTINUOUS
 62
     7
  5
16F
 10
972763.292
 20
7286430.875
 30
0.0
 40
10.0
  1
8
 50
42.697486
  7
MONOTXT
 72
     1
 11
972758.96985
 21
7286440.493458
 31
0.0
210
0.0
220
0.0
230
1.0
 73
     3
  0
TEXT
  8
11
  6
CONTINUOUS
 62
     7
  5
170
 10
972770.583
 20
7286437.603
 30
0.0
 40
10.0
  1
1
 50
42.697486
  7
MONOTXT
 72
     1
 11
972764.669695
 21
7286445.753312
 31
0.0
210
0.0
220
0.0
230
1.0
 73
     3
  0
TEXT
  8
11
  6
CONTINUOUS
 62
     7
  5
171
 10
972774.751
 20
7286441.448
 30
0.0
 40
10.0
  1
3
 50
42.697486
  7
MONOTXT
 72
     1
 11
972770.42885
 21
7286451.066458
 31
0.0
210
0.0
220
0.0
230
1.0
 73
     3
  0
TEXT
  8
11
  6
CONTINUOUS
 62
     7
  5
172
 10
972782.042
 20
7286448.176
 30
0.0
 40
10.0
  1
.
 50
42.697486
  7
MONOTXT
 72
     1
 11
972775.753138
 21
7286455.979789
 31
0.0
210
0.0
220
0.0
230
1.0
 73
     3
  0
TEXT
  8
11
  6
CONTINUOUS
 62
     7
  5
173
 10
972785.746
 20
7286451.593
 30
0.0
 40
10.0
  1
1
 50
42.697486
  7
MONOTXT
 72
     1
 11
972779.832695
 21
7286459.743312
 31
0.0
210
0.0
220
0.0
230
1.0
 73
     3
  0
TEXT
  8
11
  6
CONTINUOUS
 62
     7
  5
174
 10
972789.912
 20
7286455.437
 30
0.0
 40
10.0
  1
'
 50
42.697486
  7
MONOTXT
 72
     1
 11
972784.635157
 21
7286464.17457
 31
0.0
210
0.0
220
0.0
230
1.0
 73
     3
  0
TEXT
  8
11
  6
CONTINUOUS
 62
     7
  5
175
 10
973734.241
 20
7287326.762
 30
0.0
 40
10.0
  1
1
 50
42.697486
  7
MONOTXT
 72
     1
 11
973728.327695
 21
7287334.912312
 31
0.0
210
0.0
220
0.0
230
1.0
 73
     3
  0
TEXT
  8
11
  6
CONTINUOUS
 62
     7
  5
176
 10
973738.406
 20
7287330.606
 30
0.0
 40
10.0
  1
0
 50
42.697486
  7
MONOTXT
 72
     1
 11
973734.055187
 21
7287340.198011
 31
0.0
210
0.0
220
0.0
230
1.0
 73
     3
  0
TEXT
  8
11
  6
CONTINUOUS
 62
     7
  5
177
 10
973745.699
 20
7287337.334
 30
0.0
 40
10.0
  1
8
 50
42.697486
  7
MONOTXT
 72
     1
 11
973741.37685
 21
7287346.952458
 31
0.0
210
0.0
220
0.0
230
1.0
 73
     3
  0
TEXT
  8
11
  6
CONTINUOUS
 62
     7
  5
178
 10
973752.99
 20
7287344.061
 30
0.0
 40
10.0
  1
2
 50
42.697486
  7
MONOTXT
 72
     1
 11
973748.66785
 21
7287353.679458
 31
0.0
210
0.0
220
0.0
230
1.0
 73
     3
  0
TEXT
  8
11
  6
CONTINUOUS
 62
     7
  5
179
 10
973760.283
 20
7287350.79
 30
0.0
 40
10.0
  1
.
 50
42.697486
  7
MONOTXT
 72
     1
 11
973753.994138
 21
7287358.593789
 31
0.0
210
0.0
220
0.0
230
1.0
 73
     3
  0
TEXT
  8
11
  6
CONTINUOUS
 62
     7
  5
17A
 10
973763.985
 20
7287354.207
 30
0.0
 40
10.0
  1
5
 50
42.697486
  7
MONOTXT
 72
     1
 11
973759.66285
 21
7287363.825458
 31
0.0
210
0.0
220
0.0
230
1.0
 73
     3
  0
TEXT
  8
11
  6
CONTINUOUS
 62
     7
  5
17B
 10
973771.277
 20
7287360.935
 30
0.0
 40
10.0
  1
'
 50
42.697486
  7
MONOTXT
 72
     1
 11
973766.000157
 21
7287369.67257
 31
0.0
210
0.0
220
0.0
230
1.0
 73
     3
  0
TEXT
  8
11
  6
CONTINUOUS
 62
     7
  5
17C
 10
970495.008
 20
7284337.947
 30
0.0
 40
10.0
  1
1
 50
42.697486
  7
MONOTXT
 72
     1
 11
970489.094695
 21
7284346.097312
 31
0.0
210
0.0
220
0.0
230
1.0
 73
     3
  0
TEXT
  8
11
  6
CONTINUOUS
 62
     7
  5
17D
 10
970499.173
 20
7284341.791
 30
0.0
 40
10.0
  1
8
 50
42.697486
  7
MONOTXT
 72
     1
 11
970494.85085
 21
7284351.409458
 31
0.0
210
0.0
220
0.0
230
1.0
 73
     3
  0
TEXT
  8
11
  6
CONTINUOUS
 62
     7
  5
17E
 10
970506.465
 20
7284348.519
 30
0.0
 40
10.0
  1
7
 50
42.697486
  7
MONOTXT
 72
     1
 11
970502.172247
 21
7284358.164583
 31
0.0
210
0.0
220
0.0
230
1.0
 73
     3
  0
TEXT
  8
11
  6
CONTINUOUS
 62
     7
  5
17F
 10
970513.873
 20
7284355.353
 30
0.0
 40
10.0
  1
6
 50
42.697486
  7
MONOTXT
 72
     1
 11
970509.377403
 21
7284364.81142
 31
0.0
210
0.0
220
0.0
230
1.0
 73
     3
  0
TEXT
  8
11
  6
CONTINUOUS
 62
     7
  5
180
 10
970520.817
 20
7284361.762
 30
0.0
 40
10.0
  1
.
 50
42.697486
  7
MONOTXT
 72
     1
 11
970514.528138
 21
7284369.565789
 31
0.0
210
0.0
220
0.0
230
1.0
 73
     3
  0
TEXT
  8
11
  6
CONTINUOUS
 62
     7
  5
181
 10
970524.521
 20
7284365.178
 30
0.0
 40
10.0
  1
2
 50
42.697486
  7
MONOTXT
 72
     1
 11
970520.19885
 21
7284374.796458
 31
0.0
210
0.0
220
0.0
230
1.0
 73
     3
  0
TEXT
  8
11
  6
CONTINUOUS
 62
     7
  5
182
 10
970531.813
 20
7284371.906
 30
0.0
 40
10.0
  1
9
 50
42.697486
  7
MONOTXT
 72
     1
 11
970527.317403
 21
7284381.36442
 31
0.0
210
0.0
220
0.0
230
1.0
 73
     3
  0
TEXT
  8
11
  6
CONTINUOUS
 62
     7
  5
183
 10
970538.758
 20
7284378.314
 30
0.0
 40
10.0
  1
'
 50
42.697486
  7
MONOTXT
 72
     1
 11
970533.481157
 21
7284387.05157
 31
0.0
210
0.0
220
0.0
230
1.0
 73
     3
  0
TEXT
  8
11
  6
CONTINUOUS
 62
     7
  5
184
 10
969497.64
 20
7283416.572
 30
0.0
 40
10.0
  1
3
 50
42.697486
  7
MONOTXT
 72
     1
 11
969493.31785
 21
7283426.190458
 31
0.0
210
0.0
220
0.0
230
1.0
 73
     3
  0
TEXT
  8
11
  6
CONTINUOUS
 62
     7
  5
185
 10
969504.931
 20
7283423.299
 30
0.0
 40
10.0
  1
8
 50
42.697486
  7
MONOTXT
 72
     1
 11
969500.60885
 21
7283432.917458
 31
0.0
210
0.0
220
0.0
230
1.0
 73
     3
  0
TEXT
  8
11
  6
CONTINUOUS
 62
     7
  5
186
 10
969512.224
 20
7283430.028
 30
0.0
 40
10.0
  1
3
 50
42.697486
  7
MONOTXT
 72
     1
 11
969507.90185
 21
7283439.646458
 31
0.0
210
0.0
220
0.0
230
1.0
 73
     3
  0
TEXT
  8
11
  6
CONTINUOUS
 62
     7
  5
187
 10
969519.516
 20
7283436.756
 30
0.0
 40
10.0
  1
.
 50
42.697486
  7
MONOTXT
 72
     1
 11
969513.227138
 21
7283444.559789
 31
0.0
210
0.0
220
0.0
230
1.0
 73
     3
  0
TEXT
  8
11
  6
CONTINUOUS
 62
     7
  5
188
 10
969523.218
 20
7283440.172
 30
0.0
 40
10.0
  1
7
 50
42.697486
  7
MONOTXT
 72
     1
 11
969518.925247
 21
7283449.817583
 31
0.0
210
0.0
220
0.0
230
1.0
 73
     3
  0
TEXT
  8
11
  6
CONTINUOUS
 62
     7
  5
189
 10
969530.625
 20
7283447.007
 30
0.0
 40
10.0
  1
7
 50
42.697486
  7
MONOTXT
 72
     1
 11
969526.332247
 21
7283456.652583
 31
0.0
210
0.0
220
0.0
230
1.0
 73
     3
  0
TEXT
  8
11
  6
CONTINUOUS
 62
     7
  5
18A
 10
969538.033
 20
7283453.843
 30
0.0
 40
10.0
  1
'
 50
42.697486
  7
MONOTXT
 72
     1
 11
969532.756157
 21
7283462.58057
 31
0.0
210
0.0
220
0.0
230
1.0
 73
     3
  0
INSERT
  8
11
  6
CONTINUOUS
 62
     7
  5
190
  2
*D1
 10
968958.035
 20
7283447.99
 30
0.0
 70
     0
 71
     0
  0
INSERT
  8
11
  6
CONTINUOUS
 62
     7
  5
196
  2
*D2
 10
969282.67
 20
7283620.725
 30
0.0
 70
     0
 71
     0
  0
TEXT
  8
11
  6
CONTINUOUS
 62
     7
  5
197
 10
969793.706
 20
7284099.056
 30
0.0
 40
10.0
  1
1
 50
42.697481
  7
MONOTXT
 72
     1
 11
969794.573969
 21
7284099.856868
 31
0.0
210
0.0
220
0.0
230
1.0
  0
TEXT
  8
11
  6
CONTINUOUS
 62
     7
  5
198
 10
969797.872
 20
7284102.901
 30
0.0
 40
10.0
  1
3
 50
42.697481
  7
MONOTXT
 72
     1
 11
969800.331124
 21
7284105.170014
 31
0.0
210
0.0
220
0.0
230
1.0
  0
TEXT
  8
11
  6
CONTINUOUS
 62
     7
  5
199
 10
969805.164
 20
7284109.629
 30
0.0
 40
10.0
  1
2
 50
42.697481
  7
MONOTXT
 72
     1
 11
969807.623124
 21
7284111.898014
 31
0.0
210
0.0
220
0.0
230
1.0
  0
TEXT
  8
11
  6
CONTINUOUS
 62
     7
  5
19A
 10
969812.456
 20
7284116.357
 30
0.0
 40
10.0
  1
7
 50
42.697481
  7
MONOTXT
 72
     1
 11
969814.944522
 21
7284118.653139
 31
0.0
210
0.0
220
0.0
230
1.0
  0
TEXT
  8
11
  6
CONTINUOUS
 62
     7
  5
19B
 10
969819.864
 20
7284123.192
 30
0.0
 40
10.0
  1
.
 50
42.697481
  7
MONOTXT
 72
     1
 11
969820.356413
 21
7284123.646345
 31
0.0
210
0.0
220
0.0
230
1.0
  0
TEXT
  8
11
  6
CONTINUOUS
 62
     7
  5
19C
 10
969823.567
 20
7284126.608
 30
0.0
 40
10.0
  1
0
 50
42.697481
  7
MONOTXT
 72
     1
 11
969825.997461
 21
7284128.850567
 31
0.0
210
0.0
220
0.0
230
1.0
  0
TEXT
  8
11
  6
CONTINUOUS
 62
     7
  5
19D
 10
969830.859
 20
7284133.336
 30
0.0
 40
10.0
  1
5
 50
42.697481
  7
MONOTXT
 72
     1
 11
969833.318124
 21
7284135.605014
 31
0.0
210
0.0
220
0.0
230
1.0
  0
TEXT
  8
11
  6
CONTINUOUS
 62
     7
  5
19E
 10
969838.15
 20
7284140.064
 30
0.0
 40
10.0
  1
'
 50
42.697481
  7
MONOTXT
 72
     1
 11
969839.654431
 21
7284141.452127
 31
0.0
210
0.0
220
0.0
230
1.0
  0
LINE
  8
21
  6
DASHDOT
 62
     7
  5
1A0
 10
969576.912
 20
7283510.92
 30
0.0
 11
969600.603
 21
7283485.244
 31
0.0
  0
LINE
  8
21
  6
DASHDOT
 62
     7
  5
1A1
 10
969582.338
 20
7283468.305
 30
0.0
 11
969600.603
 21
7283485.244
 31
0.0
  0
LINE
  8
21
  6
DASHDOT
 62
     7
  5
1A2
 10
972145.09
 20
7285800.86
 30
0.0
 11
971433.946
 21
7285144.693
 31
0.0
  0
LINE
  8
21
  6
DASHDOT
 62
     7
  5
1A3
 10
971433.946
 20
7285144.693
 30
0.0
 11
971223.194
 21
7284922.257
 31
0.0
  0
LINE
  8
21
  6
DASHDOT
 62
     7
  5
1A4
 10
972430.795
 20
7286058.758
 30
0.0
 11
972422.134
 21
7286056.536
 31
0.0
  0
POLYLINE
  8
21
  6
DASHDOT
 62
     7
  5
1A5
 66
     1
 10
0.0
 20
0.0
 30
0.0
  0
VERTEX
  8
21
  6
DASHDOT
 62
     7
  5
1A6
 10
972422.134
 20
7286056.536
 30
0.0
  0
VERTEX
  8
21
  6
DASHDOT
 62
     7
  5
1A7
 10
972289.397
 20
7285921.305
 30
0.0
  0
VERTEX
  8
21
  6
DASHDOT
 62
     7
  5
1A8
 10
972145.09
 20
7285800.86
 30
0.0
  0
SEQEND
  8
21
  6
DASHDOT
 62
     7
  5
1A9
  0
POLYLINE
  8
1
  6
HIDDEN
 62
   253
  5
1AB
 66
     1
 10
0.0
 20
0.0
 30
0.0
  0
VERTEX
  8
1
  6
HIDDEN
 62
   253
  5
1AC
 10
968928.293
 20
7288545.999
 30
0.0
  0
VERTEX
  8
1
  6
HIDDEN
 62
   253
  5
1AD
 10
974228.189
 20
7288386.76
 30
0.0
  0
VERTEX
  8
1
  6
HIDDEN
 62
   253
  5
1AE
 10
974082.359
 20
7283135.613
 30
0.0
  0
VERTEX
  8
1
  6
HIDDEN
 62
   253
  5
1AF
 10
968786.958
 20
7283296.328
 30
0.0
  0
VERTEX
  8
1
  6
HIDDEN
 62
   253
  5
1B0
 10
968928.293
 20
7288545.999
 30
0.0
  0
SEQEND
  8
1
  6
HIDDEN
 62
   253
  5
1B1
  0
LINE
  8
6
  6
CONTINUOUS
 62
     7
  5
1B2
 10
971276.553
 20
7285474.25
 30
0.0
 11
971307.569
 21
7286485.875
 31
0.0
  0
LINE
  8
6
  6
CONTINUOUS
 62
     7
  5
1B3
 10
971307.569
 20
7286485.875
 30
0.0
 11
970954.898
 21
7286158.939
 31
0.0
  0
LINE
  8
6
  6
CONTINUOUS
 62
     7
  5
1B4
 10
970954.898
 20
7286158.939
 30
0.0
 11
970923.918
 21
7285148.876
 31
0.0
  0
TEXT
  8
11
  6
CONTINUOUS
 62
     7
  5
1B6
 10
971093.21
 20
7286272.601
 30
0.0
 40
8.0
  1
480.90'
 50
42.831386
  7
txt
 72
     1
 11
971105.07116
 21
7286294.50536
 31
0.0
210
0.0
220
0.0
230
1.0
 73
     3
  0
TEXT
  8
11
  6
CONTINUOUS
 62
     7
  5
1B7
 10
971108.927
 20
7285331.396
 30
0.0
 40
8.0
  1
480.90'
 50
42.831386
  7
txt
 72
     1
 11
971120.78816
 21
7285353.30036
 31
0.0
210
0.0
220
0.0
230
1.0
 73
     3
  0
TEXT
  8
11
  6
CONTINUOUS
 62
     7
  5
1B8
 10
970954.697
 20
7285698.006
 30
0.0
 40
8.0
  1
1012.10'
 50
88.6647
  7
txt
 72
     4
 11
970951.241938
 21
7285721.430875
 31
0.0
210
0.0
220
0.0
230
1.0
  0
TEXT
  8
11
  6
CONTINUOUS
 62
     7
  5
1B9
 10
971289.041
 20
7285953.134
 30
0.0
 40
8.0
  1
1012.10'
 50
88.6647
  7
txt
 72
     4
 11
971285.585938
 21
7285976.558875
 31
0.0
210
0.0
220
0.0
230
1.0
  0
TEXT
  8
11
  6
CONTINUOUS
 62
     7
  5
1BA
 10
972822.576
 20
7286891.049
 30
0.0
 40
8.0
  1
4061.30'
 50
42.697481
  7
ROMANS
 72
     1
 11
972844.134125
 21
7286910.94051
 31
0.0
210
0.0
220
0.0
230
1.0
  0
TEXT
  8
19
  6
CONTINUOUS
 62
     1
  5
1BC
 10
972937.101
 20
7283187.831
 30
0.0
 40
24.0
  1
ERSKINE ST
 50
358.6647
  7
ROMANC
 72
     4
 11
973059.891361
 21
7283196.972065
 31
0.0
210
0.0
220
0.0
230
1.0
  0
TEXT
  8
19
  6
CONTINUOUS
 62
     1
  5
1BD
 10
970847.136
 20
7283236.727
 30
0.0
 40
24.0
  1
ERSKINE ST
 50
358.6647
  7
ROMANC
 72
     4
 11
970969.926361
 21
7283245.868065
 31
0.0
210
0.0
220
0.0
230
1.0
  0
TEXT
  8
19
  6
CONTINUOUS
 62
     1
  5
1BE
 10
973780.042
 20
7288393.389
 30
0.0
 40
24.0
  1
URSULINE ST
 50
358.6647
  7
ROMANC
 72
     4
 11
973918.039231
 21
7288402.175599
 31
0.0
210
0.0
220
0.0
230
1.0
  0
TEXT
  8
19
  6
CONTINUOUS
 62
     1
  5
1BF
 10
969695.151
 20
7283801.839
 30
0.0
 40
24.0
  1
U.S. 62 & 82 (IDALOU HWY)
 50
43.6647
  7
ROMANC
 72
     4
 11
969896.013044
 21
7284010.138817
 31
0.0
210
0.0
220
0.0
230
1.0
  0
TEXT
  8
19
  6
CONTINUOUS
 62
     1
  5
1C0
 10
971606.225
 20
7285540.906
 30
0.0
 40
24.0
  1
U.S. 62 & 82 (IDALOU HWY)
 50
43.6647
  7
ROMANC
 72
     4
 11
971807.087044
 21
7285749.205817
 31
0.0
210
0.0
220
0.0
230
1.0
  0
TEXT
  8
19
  6
CONTINUOUS
 62
     1
  5
1C1
 10
972826.364
 20
7286677.275
 30
0.0
 40
24.0
  1
U.S. 62 & 82 (IDALOU HWY)
 50
43.6647
  7
ROMANC
 72
     4
 11
973027.226044
 21
7286885.574817
 31
0.0
210
0.0
220
0.0
230
1.0
  0
POLYLINE
  8
6
  6
CONTINUOUS
 62
     7
  5
1C2
 66
     1
 10
0.0
 20
0.0
 30
0.0
  0
VERTEX
  8
6
  6
CONTINUOUS
 62
     7
  5
1C3
 10
973450.0
 20
7286107.32
 30
0.0
  0
VERTEX
  8
6
  6
CONTINUOUS
 62
     7
  5
1C4
 10
973465.282
 20
7286762.942
 30
0.0
  0
VERTEX
  8
6
  6
CONTINUOUS
 62
     7
  5
1C5
 10
973325.02
 20
7286766.212
 30
0.0
  0
VERTEX
  8
6
  6
CONTINUOUS
 62
     7
  5
1C6
 10
973329.93
 20
7286976.854
 30
0.0
  0
SEQEND
  8
6
  6
CONTINUOUS
 62
     7
  5
1C7
  0
POLYLINE
  8
7
  6
CONTINUOUS
 62
     7
  5
1C8
 66
     1
 10
0.0
 20
0.0
 30
0.0
  0
VERTEX
  8
7
  6
CONTINUOUS
 62
     7
  5
1C9
 10
974288.88
 20
7287856.231
 30
0.0
  0
VERTEX
  8
7
  6
CONTINUOUS
 62
     7
  5
1CA
 10
974284.204
 20
7287655.636
 30
0.0
  0
VERTEX
  8
7
  6
CONTINUOUS
 62
     7
  5
1CB
 10
974229.219
 20
7287656.917
 30
0.0
  0
SEQEND
  8
7
  6
CONTINUOUS
 62
     7
  5
1CC
  0
LINE
  8
7
  6
CONTINUOUS
 62
     7
  5
1CD
 10
974229.219
 20
7287656.917
 30
0.0
 11
974157.472
 21
7287734.982
 31
0.0
  0
TEXT
  8
25
  6
CONTINUOUS
 62
   212
  5
1CE
 10
973278.422
 20
7287098.271
 30
0.0
 40
24.0
  1
 
 50
42.697486
  7
ROMANC
 72
     1
 11
973284.301555
 21
7287103.696019
 31
0.0
210
0.0
220
0.0
230
1.0
  0
TEXT
  8
25
  6
CONTINUOUS
 62
   212
  5
1CF
 10
973296.062
 20
7287114.547
 30
0.0
 40
24.0
  1
 
 50
42.697486
  7
ROMANC
 72
     1
 11
973301.941555
 21
7287119.972019
 31
0.0
210
0.0
220
0.0
230
1.0
  0
TEXT
  8
25
  6
CONTINUOUS
 62
   212
  5
1D0
 10
973313.699
 20
7287130.821
 30
0.0
 40
24.0
  1
 
 50
42.697486
  7
ROMANC
 72
     1
 11
973319.578555
 21
7287136.246019
 31
0.0
210
0.0
220
0.0
230
1.0
  0
TEXT
  8
25
  6
CONTINUOUS
 62
   212
  5
1D1
 10
973331.338
 20
7287147.096
 30
0.0
 40
24.0
  1
 
 50
42.697486
  7
ROMANC
 72
     1
 11
973337.217555
 21
7287152.521019
 31
0.0
210
0.0
220
0.0
230
1.0
  0
TEXT
  8
25
  6
CONTINUOUS
 62
   212
  5
1D2
 10
973348.976
 20
7287163.371
 30
0.0
 40
24.0
  1
 
 50
42.697486
  7
ROMANC
 72
     1
 11
973354.855555
 21
7287168.796019
 31
0.0
210
0.0
220
0.0
230
1.0
  0
TEXT
  8
25
  6
CONTINUOUS
 62
   212
  5
1D3
 10
973543.002
 20
7287342.396
 30
0.0
 40
24.0
  1
 
 50
42.697486
  7
ROMANC
 72
     1
 11
973548.881555
 21
7287347.821019
 31
0.0
210
0.0
220
0.0
230
1.0
  0
TEXT
  8
11
  6
CONTINUOUS
 62
     7
  5
1D4
 10
973713.275
 20
7287331.909
 30
0.0
 40
8.0
  1
S
 50
42.697486
  7
ROMANS
 72
     1
 11
973715.12265
 21
7287333.613812
 31
0.0
210
0.0
220
0.0
230
1.0
  0
TEXT
  8
11
  6
CONTINUOUS
 62
     7
  5
1D5
 10
973719.269
 20
7287337.439
 30
0.0
 40
8.0
  1
4
 50
42.697486
  7
ROMANS
 72
     1
 11
973720.98436
 21
7287339.021749
 31
0.0
210
0.0
220
0.0
230
1.0
  0
TEXT
  8
11
  6
CONTINUOUS
 62
     7
  5
1D6
 10
973725.149
 20
7287342.865
 30
0.0
 40
8.0
  1
5
 50
42.697486
  7
ROMANS
 72
     1
 11
973726.87171
 21
7287344.454531
 31
0.0
210
0.0
220
0.0
230
1.0
  0
TEXT
  8
11
  6
CONTINUOUS
 62
     7
  5
1D7
 10
973731.7
 20
7287348.909
 30
0.0
 40
8.0
  1
%%d
 50
42.697486
  7
ROMANS
 72
     1
 11
973732.756115
 21
7287349.883469
 31
0.0
210
0.0
220
0.0
230
1.0
  0
TEXT
  8
11
  6
CONTINUOUS
 62
     7
  5
1D8
 10
973736.909
 20
7287353.715
 30
0.0
 40
8.0
  1
4
 50
42.697486
  7
ROMANS
 72
     1
 11
973738.62436
 21
7287355.297749
 31
0.0
210
0.0
220
0.0
230
1.0
  0
TEXT
  8
11
  6
CONTINUOUS
 62
     7
  5
1D9
 10
973742.788
 20
7287359.14
 30
0.0
 40
8.0
  1
9
 50
42.697486
  7
ROMANS
 72
     1
 11
973744.50336
 21
7287360.722749
 31
0.0
210
0.0
220
0.0
230
1.0
  0
TEXT
  8
11
  6
CONTINUOUS
 62
     7
  5
1DA
 10
973749.408
 20
7287365.249
 30
0.0
 40
8.0
  1
'
 50
42.697486
  7
ROMANS
 72
     1
 11
973750.388416
 21
7287366.153622
 31
0.0
210
0.0
220
0.0
230
1.0
  0
TEXT
  8
11
  6
CONTINUOUS
 62
     7
  5
1DB
 10
973755.287
 20
7287370.674
 30
0.0
 40
8.0
  1
1
 50
42.697486
  7
ROMANS
 72
     1
 11
973756.267416
 21
7287371.578622
 31
0.0
210
0.0
220
0.0
230
1.0
  0
TEXT
  8
11
  6
CONTINUOUS
 62
     7
  5
1DC
 10
973760.426
 20
7287375.415
 30
0.0
 40
8.0
  1
5
 50
42.697486
  7
ROMANS
 72
     1
 11
973762.14871
 21
7287377.004531
 31
0.0
210
0.0
220
0.0
230
1.0
  0
TEXT
  8
11
  6
CONTINUOUS
 62
     7
  5
1DD
 10
973766.12
 20
7287380.67
 30
0.0
 40
8.0
  1
"
 50
42.697486
  7
ROMANS
 72
     1
 11
973768.018361
 21
7287382.421603
 31
0.0
210
0.0
220
0.0
230
1.0
  0
TEXT
  8
11
  6
CONTINUOUS
 62
     7
  5
1DE
 10
973771.816
 20
7287385.923
 30
0.0
 40
8.0
  1
W
 50
42.697486
  7
ROMANS
 72
     1
 11
973773.920881
 21
7287387.865157
 31
0.0
210
0.0
220
0.0
230
1.0
  0
TEXT
  8
11
  6
CONTINUOUS
 62
     7
  5
1DF
 10
973300.055
 20
7287165.964
 30
0.0
 40
8.0
  1
280'
 50
309.416122
  7
ROMANS
210
0.0
220
0.0
230
1.0
  0
TEXT
  8
11
  6
CONTINUOUS
 62
     7
  5
1E0
 10
974221.57
 20
7288012.846
 30
0.0
 40
8.0
  1
280'
 50
309.416122
  7
ROMANS
210
0.0
220
0.0
230
1.0
  0
TEXT
  8
11
  6
CONTINUOUS
 62
     7
  5
1E1
 10
973163.891
 20
7286808.684
 30
0.0
 40
8.0
  1
4
 50
42.697486
  7
ROMANS
 72
     1
 11
973160.181341
 21
7286816.146304
 31
0.0
210
0.0
220
0.0
230
1.0
 73
     3
  0
TEXT
  8
11
  6
CONTINUOUS
 62
     7
  5
1E2
 10
973169.77
 20
7286814.107
 30
0.0
 40
8.0
  1
5
 50
42.697486
  7
ROMANS
 72
     1
 11
973166.06769
 21
7286821.576085
 31
0.0
210
0.0
220
0.0
230
1.0
 73
     3
  0
TEXT
  8
11
  6
CONTINUOUS
 62
     7
  5
1E3
 10
973175.65
 20
7286819.533
 30
0.0
 40
8.0
  1
2
 50
42.697486
  7
ROMANS
 72
     1
 11
973171.940341
 21
7286826.995304
 31
0.0
210
0.0
220
0.0
230
1.0
 73
     3
  0
TEXT
  8
11
  6
CONTINUOUS
 62
     7
  5
1E4
 10
973182.269
 20
7286825.642
 30
0.0
 40
8.0
  1
'
 50
42.697486
  7
ROMANS
 72
     1
 11
973177.824396
 21
7286832.426177
 31
0.0
210
0.0
220
0.0
230
1.0
 73
     3
  0
TEXT
  8
11
  6
CONTINUOUS
 62
     7
  5
1E5
 10
973323.387
 20
7286824.877
 30
0.0
 40
8.0
  1
2
 50
88.6647
  7
ROMANS
 72
     1
 11
973323.441367
 21
7286827.209366
 31
0.0
210
0.0
220
0.0
230
1.0
  0
TEXT
  8
11
  6
CONTINUOUS
 62
     7
  5
1E6
 10
973323.597
 20
7286833.883
 30
0.0
 40
8.0
  1
1
 50
88.6647
  7
ROMANS
 72
     1
 11
973323.628087
 21
7286835.216638
 31
0.0
210
0.0
220
0.0
230
1.0
  0
TEXT
  8
11
  6
CONTINUOUS
 62
     7
  5
1E7
 10
973323.753
 20
7286840.557
 30
0.0
 40
8.0
  1
0
 50
88.6647
  7
ROMANS
 72
     1
 11
973323.814777
 21
7286843.20728
 31
0.0
210
0.0
220
0.0
230
1.0
  0
TEXT
  8
11
  6
CONTINUOUS
 62
     7
  5
1E8
 10
973323.97
 20
7286849.91
 30
0.0
 40
8.0
  1
.
 50
88.6647
  7
ROMANS
 72
     1
 11
973324.000807
 21
7286851.231641
 31
0.0
210
0.0
220
0.0
230
1.0
  0
TEXT
  8
11
  6
CONTINUOUS
 62
     7
  5
1E9
 10
973324.133
 20
7286856.869
 30
0.0
 40
8.0
  1
7
 50
88.6647
  7
ROMANS
 72
     1
 11
973324.187367
 21
7286859.201366
 31
0.0
210
0.0
220
0.0
230
1.0
  0
TEXT
  8
11
  6
CONTINUOUS
 62
     7
  5
1EA
 10
973324.342
 20
7286865.874
 30
0.0
 40
8.0
  1
'
 50
88.6647
  7
ROMANS
 72
     1
 11
973324.373087
 21
7286867.207638
 31
0.0
210
0.0
220
0.0
230
1.0
  0
TEXT
  8
11
  6
CONTINUOUS
 62
     7
  5
1EB
 10
973378.457
 20
7286753.963
 30
0.0
 40
8.0
  1
1
 50
358.6647
  7
ROMANS
 72
     1
 11
973379.977064
 21
7286761.929741
 31
0.0
210
0.0
220
0.0
230
1.0
 73
     3
  0
TEXT
  8
11
  6
CONTINUOUS
 62
     7
  5
1EC
 10
973385.447
 20
7286753.801
 30
0.0
 40
8.0
  1
4
 50
358.6647
  7
ROMANS
 72
     1
 11
973387.965793
 21
7286761.744461
 31
0.0
210
0.0
220
0.0
230
1.0
 73
     3
  0
TEXT
  8
11
  6
CONTINUOUS
 62
     7
  5
1ED
 10
973393.13
 20
7286753.621
 30
0.0
 40
8.0
  1
0
 50
358.6647
  7
ROMANS
 72
     1
 11
973395.966706
 21
7286761.557051
 31
0.0
210
0.0
220
0.0
230
1.0
 73
     3
  0
TEXT
  8
11
  6
CONTINUOUS
 62
     7
  5
1EE
 10
973402.482
 20
7286753.404
 30
0.0
 40
8.0
  1
.
 50
358.6647
  7
ROMANS
 72
     1
 11
973403.990067
 21
7286761.371021
 31
0.0
210
0.0
220
0.0
230
1.0
 73
     3
  0
TEXT
  8
11
  6
CONTINUOUS
 62
     7
  5
1EF
 10
973409.441
 20
7286753.241
 30
0.0
 40
8.0
  1
3
 50
358.6647
  7
ROMANS
 72
     1
 11
973411.959793
 21
7286761.184461
 31
0.0
210
0.0
220
0.0
230
1.0
 73
     3
  0
TEXT
  8
11
  6
CONTINUOUS
 62
     7
  5
1F0
 10
973418.447
 20
7286753.031
 30
0.0
 40
8.0
  1
'
 50
358.6647
  7
ROMANS
 72
     1
 11
973419.967064
 21
7286760.997741
 31
0.0
210
0.0
220
0.0
230
1.0
 73
     3
  0
TEXT
  8
11
  6
CONTINUOUS
 62
     7
  5
1F1
 10
974233.46
 20
7287790.127
 30
0.0
 40
8.0
  1
1
 50
42.697486
  7
ROMANS
 72
     1
 11
974229.015396
 21
7287796.911177
 31
0.0
210
0.0
220
0.0
230
1.0
 73
     3
  0
TEXT
  8
11
  6
CONTINUOUS
 62
     7
  5
1F2
 10
974238.597
 20
7287794.868
 30
0.0
 40
8.0
  1
7
 50
42.697486
  7
ROMANS
 72
     1
 11
974234.887341
 21
7287802.330304
 31
0.0
210
0.0
220
0.0
230
1.0
 73
     3
  0
TEXT
  8
11
  6
CONTINUOUS
 62
     7
  5
1F3
 10
974244.477
 20
7287800.294
 30
0.0
 40
8.0
  1
8
 50
42.697486
  7
ROMANS
 72
     1
 11
974240.767341
 21
7287807.756304
 31
0.0
210
0.0
220
0.0
230
1.0
 73
     3
  0
TEXT
  8
11
  6
CONTINUOUS
 62
     7
  5
1F4
 10
974251.12
 20
7287806.424
 30
0.0
 40
8.0
  1
.
 50
42.697486
  7
ROMANS
 72
     1
 11
974246.666577
 21
7287813.200039
 31
0.0
210
0.0
220
0.0
230
1.0
 73
     3
  0
TEXT
  8
11
  6
CONTINUOUS
 62
     7
  5
1F5
 10
974256.237
 20
7287811.143
 30
0.0
 40
8.0
  1
8
 50
42.697486
  7
ROMANS
 72
     1
 11
974252.527341
 21
7287818.605304
 31
0.0
210
0.0
220
0.0
230
1.0
 73
     3
  0
TEXT
  8
11
  6
CONTINUOUS
 62
     7
  5
1F6
 10
974262.856
 20
7287817.252
 30
0.0
 40
8.0
  1
'
 50
42.697486
  7
ROMANS
 72
     1
 11
974258.411396
 21
7287824.036177
 31
0.0
210
0.0
220
0.0
230
1.0
 73
     3
  0
TEXT
  8
11
  6
CONTINUOUS
 62
     7
  5
1F7
 10
974179.884
 20
7287715.03
 30
0.0
 40
8.0
  1
1
 50
312.585175
  7
ROMANS
 72
     1
 11
974180.786022
 21
7287714.048549
 31
0.0
210
0.0
220
0.0
230
1.0
  0
TEXT
  8
11
  6
CONTINUOUS
 62
     7
  5
1F8
 10
974184.402
 20
7287710.114
 30
0.0
 40
8.0
  1
0
 50
312.585175
  7
ROMANS
 72
     1
 11
974186.195893
 21
7287708.162142
 31
0.0
210
0.0
220
0.0
230
1.0
  0
TEXT
  8
11
  6
CONTINUOUS
 62
     7
  5
1F9
 10
974189.901
 20
7287704.131
 30
0.0
 40
8.0
  1
6
 50
312.585175
  7
ROMANS
 72
     1
 11
974191.606247
 21
7287702.275594
 31
0.0
210
0.0
220
0.0
230
1.0
  0
TEXT
  8
11
  6
CONTINUOUS
 62
     7
  5
1FA
 10
974196.145
 20
7287697.336
 30
0.0
 40
8.0
  1
.
 50
312.585175
  7
ROMANS
 72
     1
 11
974197.039578
 21
7287696.362648
 31
0.0
210
0.0
220
0.0
230
1.0
  0
TEXT
  8
11
  6
CONTINUOUS
 62
     7
  5
1FB
 10
974200.856
 20
7287692.211
 30
0.0
 40
8.0
  1
5
 50
312.585175
  7
ROMANS
 72
     1
 11
974202.442151
 21
7287690.485178
 31
0.0
210
0.0
220
0.0
230
1.0
  0
TEXT
  8
11
  6
CONTINUOUS
 62
     7
  5
1FC
 10
974206.951
 20
7287685.579
 30
0.0
 40
8.0
  1
'
 50
312.585175
  7
ROMANS
 72
     1
 11
974207.853022
 21
7287684.597549
 31
0.0
210
0.0
220
0.0
230
1.0
  0
TEXT
  8
11
  6
CONTINUOUS
 62
     7
  5
1FD
 10
974247.474
 20
7287659.493
 30
0.0
 40
8.0
  1
5
 50
358.6647
  7
ROMANS
 72
     1
 11
974249.817363
 21
7287659.438377
 31
0.0
210
0.0
220
0.0
230
1.0
  0
TEXT
  8
11
  6
CONTINUOUS
 62
     7
  5
1FE
 10
974255.472
 20
7287659.306
 30
0.0
 40
8.0
  1
5
 50
358.6647
  7
ROMANS
 72
     1
 11
974257.815363
 21
7287659.251377
 31
0.0
210
0.0
220
0.0
230
1.0
  0
TEXT
  8
11
  6
CONTINUOUS
 62
     7
  5
1FF
 10
974264.477
 20
7287659.096
 30
0.0
 40
8.0
  1
'
 50
358.6647
  7
ROMANS
 72
     1
 11
974265.810638
 21
7287659.064913
 31
0.0
210
0.0
220
0.0
230
1.0
  0
TEXT
  8
11
  6
CONTINUOUS
 62
     7
  5
200
 10
974276.71
 20
7287806.208
 30
0.0
 40
8.0
  1
2
 50
268.6647
  7
ROMANS
 72
     1
 11
974284.653461
 21
7287803.689207
 31
0.0
210
0.0
220
0.0
230
1.0
 73
     3
  0
TEXT
  8
11
  6
CONTINUOUS
 62
     7
  5
201
 10
974276.532
 20
7287798.525
 30
0.0
 40
8.0
  1
0
 50
268.6647
  7
ROMANS
 72
     1
 11
974284.468051
 21
7287795.688294
 31
0.0
210
0.0
220
0.0
230
1.0
 73
     3
  0
TEXT
  8
11
  6
CONTINUOUS
 62
     7
  5
202
 10
974276.346
 20
7287790.527
 30
0.0
 40
8.0
  1
0
 50
268.6647
  7
ROMANS
 72
     1
 11
974284.282051
 21
7287787.690294
 31
0.0
210
0.0
220
0.0
230
1.0
 73
     3
  0
TEXT
  8
11
  6
CONTINUOUS
 62
     7
  5
203
 10
974276.127
 20
7287781.175
 30
0.0
 40
8.0
  1
.
 50
268.6647
  7
ROMANS
 72
     1
 11
974284.094021
 21
7287779.666933
 31
0.0
210
0.0
220
0.0
230
1.0
 73
     3
  0
TEXT
  8
11
  6
CONTINUOUS
 62
     7
  5
204
 10
974275.969
 20
7287774.406
 30
0.0
 40
8.0
  1
6
 50
268.6647
  7
ROMANS
 72
     1
 11
974283.908103
 21
7287771.700258
 31
0.0
210
0.0
220
0.0
230
1.0
 73
     3
  0
TEXT
  8
11
  6
CONTINUOUS
 62
     7
  5
205
 10
974275.779
 20
7287766.219
 30
0.0
 40
8.0
  1
5
 50
268.6647
  7
ROMANS
 72
     1
 11
974283.722205
 21
7287763.68921
 31
0.0
210
0.0
220
0.0
230
1.0
 73
     3
  0
TEXT
  8
11
  6
CONTINUOUS
 62
     7
  5
206
 10
974275.569
 20
7287757.213
 30
0.0
 40
8.0
  1
'
 50
268.6647
  7
ROMANS
 72
     1
 11
974283.535741
 21
7287755.692936
 31
0.0
210
0.0
220
0.0
230
1.0
 73
     3
  0
TEXT
  8
11
  6
CONTINUOUS
 62
     7
  5
207
 10
974114.953
 20
7287634.738
 30
0.0
 40
8.0
  1
SPECIAL NOTE SEE
 50
358.6647
  7
ROMANS
210
0.0
220
0.0
230
1.0
  0
TEXT
  8
11
  6
CONTINUOUS
 62
     7
  5
208
 10
974114.696
 20
7287623.741
 30
0.0
 40
8.0
  1
"CITY PROPERTY"
 50
358.6647
  7
ROMANS
210
0.0
220
0.0
230
1.0
  0
TEXT
  8
11
  6
CONTINUOUS
 62
     7
  5
209
 10
974114.44
 20
7287612.744
 30
0.0
 40
8.0
  1
BOOK MAP NO. 299
 50
358.6647
  7
ROMANS
210
0.0
220
0.0
230
1.0
  0
INSERT
  8
11
  6
CONTINUOUS
 62
     7
  5
213
  2
*D3
 10
974240.131
 20
7287701.191
 30
0.0
 70
     0
 71
     0
  0
TEXT
  8
11
  6
CONTINUOUS
 62
     7
  5
214
 10
973734.241
 20
7287326.762
 30
0.0
 40
10.0
  1
1
 50
42.697486
  7
MONOTXT
 72
     1
 11
973728.327695
 21
7287334.912312
 31
0.0
210
0.0
220
0.0
230
1.0
 73
     3
  0
TEXT
  8
11
  6
CONTINUOUS
 62
     7
  5
215
 10
973738.406
 20
7287330.606
 30
0.0
 40
10.0
  1
0
 50
42.697486
  7
MONOTXT
 72
     1
 11
973734.055187
 21
7287340.198011
 31
0.0
210
0.0
220
0.0
230
1.0
 73
     3
  0
TEXT
  8
11
  6
CONTINUOUS
 62
     7
  5
216
 10
973745.699
 20
7287337.334
 30
0.0
 40
10.0
  1
8
 50
42.697486
  7
MONOTXT
 72
     1
 11
973741.37685
 21
7287346.952458
 31
0.0
210
0.0
220
0.0
230
1.0
 73
     3
  0
TEXT
  8
11
  6
CONTINUOUS
 62
     7
  5
217
 10
973752.99
 20
7287344.061
 30
0.0
 40
10.0
  1
2
 50
42.697486
  7
MONOTXT
 72
     1
 11
973748.66785
 21
7287353.679458
 31
0.0
210
0.0
220
0.0
230
1.0
 73
     3
  0
TEXT
  8
11
  6
CONTINUOUS
 62
     7
  5
218
 10
973760.283
 20
7287350.79
 30
0.0
 40
10.0
  1
.
 50
42.697486
  7
MONOTXT
 72
     1
 11
973753.994138
 21
7287358.593789
 31
0.0
210
0.0
220
0.0
230
1.0
 73
     3
  0
TEXT
  8
11
  6
CONTINUOUS
 62
     7
  5
219
 10
973763.985
 20
7287354.207
 30
0.0
 40
10.0
  1
5
 50
42.697486
  7
MONOTXT
 72
     1
 11
973759.66285
 21
7287363.825458
 31
0.0
210
0.0
220
0.0
230
1.0
 73
     3
  0
TEXT
  8
11
  6
CONTINUOUS
 62
     7
  5
21A
 10
973771.277
 20
7287360.935
 30
0.0
 40
10.0
  1
'
 50
42.697486
  7
MONOTXT
 72
     1
 11
973766.000157
 21
7287369.67257
 31
0.0
210
0.0
220
0.0
230
1.0
 73
     3
  0
TEXT
  8
11
  6
CONTINUOUS
 62
     7
  5
21B
 10
972822.576
 20
7286891.049
 30
0.0
 40
8.0
  1
4061.30'
 50
42.697481
  7
ROMANS
 72
     1
 11
972844.134125
 21
7286910.94051
 31
0.0
210
0.0
220
0.0
230
1.0
  0
TEXT
  8
19
  6
CONTINUOUS
 62
     1
  5
21C
 10
974321.754
 20
7287353.178
 30
0.0
 40
24.0
  1
WOOD AVE
 50
88.6647
  7
ROMANC
 72
     4
 11
974312.258445
 21
7287460.760492
 31
0.0
210
0.0
220
0.0
230
1.0
  0
TEXT
  8
19
  6
CONTINUOUS
 62
     1
  5
21D
 10
973780.042
 20
7288393.389
 30
0.0
 40
24.0
  1
URSULINE ST
 50
358.6647
  7
ROMANC
 72
     4
 11
973918.039231
 21
7288402.175599
 31
0.0
210
0.0
220
0.0
230
1.0
  0
LINE
  8
25
  6
CONTINUOUS
 62
   212
  5
21E
 10
972481.436
 20
7287881.583
 30
0.0
 11
972466.44
 21
7287881.934
 31
0.0
  0
LINE
  8
25
  6
CONTINUOUS
 62
   212
  5
21F
 10
972466.44
 20
7287881.934
 30
0.0
 11
972486.434
 21
7287881.466
 31
0.0
  0
LINE
  8
25
  6
CONTINUOUS
 62
   212
  5
220
 10
972477.107
 20
7288314.801
 30
0.0
 11
972497.103
 21
7288314.335
 31
0.0
  0
LINE
  8
25
  6
CONTINUOUS
 62
   212
  5
221
 10
972456.326
 20
7288283.277
 30
0.0
 11
972476.32
 21
7288282.811
 31
0.0
  0
LINE
  8
25
  6
CONTINUOUS
 62
   212
  5
222
 10
972453.863
 20
7288183.307
 30
0.0
 11
972473.856
 21
7288182.841
 31
0.0
  0
SOLID
  8
21
  6
DASHDOT
 62
     7
  5
223
 10
974279.196
 20
7288412.41
 30
0.0
 11
972047.302
 21
7288464.435
 31
0.0
 12
974278.273
 22
7288372.821
 32
0.0
 13
972046.379
 23
7288424.846
 33
0.0
  0
POLYLINE
  8
21
  6
DASHDOT
 62
     7
  5
224
 66
     1
 10
0.0
 20
0.0
 30
0.0
 70
     1
  0
VERTEX
  8
21
  6
DASHDOT
 62
     7
  5
225
 10
972125.874
 20
7287390.713
 30
0.0
  0
VERTEX
  8
21
  6
DASHDOT
 62
     7
  5
226
 10
972151.298
 20
7288422.4
 30
0.0
  0
VERTEX
  8
21
  6
DASHDOT
 62
     7
  5
227
 10
972201.285
 20
7288421.235
 30
0.0
  0
VERTEX
  8
21
  6
DASHDOT
 62
     7
  5
228
 10
972175.86
 20
7287389.547
 30
0.0
  0
VERTEX
  8
21
  6
DASHDOT
 62
     7
  5
229
 10
972125.874
 20
7287390.713
 30
0.0
  0
SEQEND
  8
21
  6
DASHDOT
 62
     7
  5
22A
  0
POLYLINE
  8
21
  6
DASHDOT
 62
     7
  5
22B
 66
     1
 10
0.0
 20
0.0
 30
0.0
 70
     1
  0
VERTEX
  8
21
  6
DASHDOT
 62
     7
  5
22C
 10
972715.714
 20
7287376.963
 30
0.0
  0
VERTEX
  8
21
  6
DASHDOT
 62
     7
  5
22D
 10
972741.137
 20
7288408.651
 30
0.0
  0
VERTEX
  8
21
  6
DASHDOT
 62
     7
  5
22E
 10
972791.124
 20
7288407.485
 30
0.0
  0
VERTEX
  8
21
  6
DASHDOT
 62
     7
  5
22F
 10
972765.699
 20
7287375.798
 30
0.0
  0
VERTEX
  8
21
  6
DASHDOT
 62
     7
  5
230
 10
972715.714
 20
7287376.963
 30
0.0
  0
SEQEND
  8
21
  6
DASHDOT
 62
     7
  5
231
  0
POLYLINE
  8
21
  6
DASHDOT
 62
     7
  5
232
 66
     1
 10
0.0
 20
0.0
 30
0.0
 70
     1
  0
VERTEX
  8
21
  6
DASHDOT
 62
     7
  5
233
 10
972125.873
 20
7287390.714
 30
0.0
  0
VERTEX
  8
21
  6
DASHDOT
 62
     7
  5
234
 10
973108.407
 20
7287367.81
 30
0.0
  0
VERTEX
  8
21
  6
DASHDOT
 62
     7
  5
235
 10
973185.109
 20
7287222.265
 30
0.0
  0
VERTEX
  8
21
  6
DASHDOT
 62
     7
  5
236
 10
973146.981
 20
7287187.259
 30
0.0
  0
VERTEX
  8
21
  6
DASHDOT
 62
     7
  5
237
 10
973077.815
 20
7287318.512
 30
0.0
  0
VERTEX
  8
21
  6
DASHDOT
 62
     7
  5
238
 10
972124.652
 20
7287340.728
 30
0.0
  0
SEQEND
  8
21
  6
DASHDOT
 62
     7
  5
239
  0
POLYLINE
  8
21
  6
DASHDOT
 62
     7
  5
23A
 66
     1
 10
0.0
 20
0.0
 30
0.0
 70
     1
  0
VERTEX
  8
21
  6
DASHDOT
 62
     7
  5
23B
 10
974288.88
 20
7287856.231
 30
0.0
  0
VERTEX
  8
21
  6
DASHDOT
 62
     7
  5
23C
 10
974158.072
 20
7287734.483
 30
0.0
  0
VERTEX
  8
21
  6
DASHDOT
 62
     7
  5
23D
 10
974230.612
 20
7287656.506
 30
0.0
  0
VERTEX
  8
21
  6
DASHDOT
 62
     7
  5
23E
 10
974285.605
 20
7287655.608
 30
0.0
  0
VERTEX
  8
21
  6
DASHDOT
 62
     7
  5
23F
 10
974288.88
 20
7287856.231
 30
0.0
  0
SEQEND
  8
21
  6
DASHDOT
 62
     7
  5
240
  0
POLYLINE
  8
21
  6
DASHDOT
 62
     7
  5
241
 66
     1
 10
0.0
 20
0.0
 30
0.0
 70
     1
  0
VERTEX
  8
21
  6
DASHDOT
 62
     7
  5
242
 10
972479.572
 20
7288414.77
 30
0.0
  0
VERTEX
  8
21
  6
DASHDOT
 62
     7
  5
243
 10
972459.577
 20
7288415.236
 30
0.0
  0
VERTEX
  8
21
  6
DASHDOT
 62
     7
  5
244
 10
972456.326
 20
7288283.277
 30
0.0
  0
VERTEX
  8
21
  6
DASHDOT
 62
     7
  5
245
 10
972476.32
 20
7288282.811
 30
0.0
  0
VERTEX
  8
21
  6
DASHDOT
 62
     7
  5
246
 10
972479.572
 20
7288414.77
 30
0.0
  0
SEQEND
  8
21
  6
DASHDOT
 62
     7
  5
247
  0
POLYLINE
  8
21
  6
DASHDOT
 62
     7
  5
248
 66
     1
 10
0.0
 20
0.0
 30
0.0
 70
     1
  0
VERTEX
  8
21
  6
DASHDOT
 62
     7
  5
249
 10
972499.567
 20
7288414.304
 30
0.0
  0
VERTEX
  8
21
  6
DASHDOT
 62
     7
  5
24A
 10
972479.572
 20
7288414.77
 30
0.0
  0
VERTEX
  8
21
  6
DASHDOT
 62
     7
  5
24B
 10
972477.107
 20
7288314.801
 30
0.0
  0
VERTEX
  8
21
  6
DASHDOT
 62
     7
  5
24C
 10
972497.103
 20
7288314.335
 30
0.0
  0
VERTEX
  8
21
  6
DASHDOT
 62
     7
  5
24D
 10
972499.567
 20
7288414.304
 30
0.0
  0
SEQEND
  8
21
  6
DASHDOT
 62
     7
  5
24E
  0
POLYLINE
  8
21
  6
DASHDOT
 62
     7
  5
24F
 66
     1
 10
0.0
 20
0.0
 30
0.0
 70
     1
  0
VERTEX
  8
21
  6
DASHDOT
 62
     7
  5
250
 10
972476.32
 20
7288282.811
 30
0.0
  0
VERTEX
  8
21
  6
DASHDOT
 62
     7
  5
251
 10
972456.326
 20
7288283.277
 30
0.0
  0
VERTEX
  8
21
  6
DASHDOT
 62
     7
  5
252
 10
972453.863
 20
7288183.307
 30
0.0
  0
VERTEX
  8
21
  6
DASHDOT
 62
     7
  5
253
 10
972473.856
 20
7288182.841
 30
0.0
  0
VERTEX
  8
21
  6
DASHDOT
 62
     7
  5
254
 10
972476.32
 20
7288282.811
 30
0.0
  0
SEQEND
  8
21
  6
DASHDOT
 62
     7
  5
255
  0
POLYLINE
  8
21
  6
DASHDOT
 62
     7
  5
256
 66
     1
 10
0.0
 20
0.0
 30
0.0
 70
     1
  0
VERTEX
  8
21
  6
DASHDOT
 62
     7
  5
257
 10
972497.103
 20
7288314.335
 30
0.0
  0
VERTEX
  8
21
  6
DASHDOT
 62
     7
  5
258
 10
972477.107
 20
7288314.801
 30
0.0
  0
VERTEX
  8
21
  6
DASHDOT
 62
     7
  5
259
 10
972474.521
 20
7288209.833
 30
0.0
  0
VERTEX
  8
21
  6
DASHDOT
 62
     7
  5
25A
 10
972489.515
 20
7288209.484
 30
0.0
  0
VERTEX
  8
21
  6
DASHDOT
 62
     7
  5
25B
 10
972494.515
 20
7288209.367
 30
0.0
  0
VERTEX
  8
21
  6
DASHDOT
 62
     7
  5
25C
 10
972497.103
 20
7288314.335
 30
0.0
  0
SEQEND
  8
21
  6
DASHDOT
 62
     7
  5
25D
  0
POLYLINE
  8
21
  6
DASHDOT
 62
     7
  5
25E
 66
     1
 10
0.0
 20
0.0
 30
0.0
 70
     1
  0
VERTEX
  8
21
  6
DASHDOT
 62
     7
  5
25F
 10
972494.515
 20
7288209.367
 30
0.0
  0
VERTEX
  8
21
  6
DASHDOT
 62
     7
  5
260
 10
972474.521
 20
7288209.833
 30
0.0
  0
VERTEX
  8
21
  6
DASHDOT
 62
     7
  5
261
 10
972472.056
 20
7288109.864
 30
0.0
  0
VERTEX
  8
21
  6
DASHDOT
 62
     7
  5
262
 10
972492.052
 20
7288109.397
 30
0.0
  0
VERTEX
  8
21
  6
DASHDOT
 62
     7
  5
263
 10
972494.515
 20
7288209.367
 30
0.0
  0
SEQEND
  8
21
  6
DASHDOT
 62
     7
  5
264
  0
POLYLINE
  8
21
  6
DASHDOT
 62
     7
  5
265
 66
     1
 10
0.0
 20
0.0
 30
0.0
 70
     1
  0
VERTEX
  8
21
  6
DASHDOT
 62
     7
  5
266
 10
972473.856
 20
7288182.841
 30
0.0
  0
VERTEX
  8
21
  6
DASHDOT
 62
     7
  5
267
 10
972453.863
 20
7288183.307
 30
0.0
  0
VERTEX
  8
21
  6
DASHDOT
 62
     7
  5
268
 10
972451.398
 20
7288083.339
 30
0.0
  0
VERTEX
  8
21
  6
DASHDOT
 62
     7
  5
269
 10
972471.393
 20
7288082.872
 30
0.0
  0
VERTEX
  8
21
  6
DASHDOT
 62
     7
  5
26A
 10
972473.856
 20
7288182.841
 30
0.0
  0
SEQEND
  8
21
  6
DASHDOT
 62
     7
  5
26B
  0
POLYLINE
  8
21
  6
DASHDOT
 62
     7
  5
26C
 66
     1
 10
0.0
 20
0.0
 30
0.0
 70
     1
  0
VERTEX
  8
21
  6
DASHDOT
 62
     7
  5
26D
 10
972492.052
 20
7288109.397
 30
0.0
  0
VERTEX
  8
21
  6
DASHDOT
 62
     7
  5
26E
 10
972472.056
 20
7288109.864
 30
0.0
  0
VERTEX
  8
21
  6
DASHDOT
 62
     7
  5
26F
 10
972469.347
 20
7287999.898
 30
0.0
  0
VERTEX
  8
21
  6
DASHDOT
 62
     7
  5
270
 10
972489.341
 20
7287999.43
 30
0.0
  0
VERTEX
  8
21
  6
DASHDOT
 62
     7
  5
271
 10
972492.052
 20
7288109.397
 30
0.0
  0
SEQEND
  8
21
  6
DASHDOT
 62
     7
  5
272
  0
POLYLINE
  8
21
  6
DASHDOT
 62
     7
  5
273
 66
     1
 10
0.0
 20
0.0
 30
0.0
 70
     1
  0
VERTEX
  8
21
  6
DASHDOT
 62
     7
  5
274
 10
972451.398
 20
7288083.339
 30
0.0
  0
VERTEX
  8
21
  6
DASHDOT
 62
     7
  5
275
 10
972471.393
 20
7288082.872
 30
0.0
  0
VERTEX
  8
21
  6
DASHDOT
 62
     7
  5
276
 10
972472.056
 20
7288109.864
 30
0.0
  0
VERTEX
  8
21
  6
DASHDOT
 62
     7
  5
277
 10
972469.347
 20
7287999.898
 30
0.0
  0
VERTEX
  8
21
  6
DASHDOT
 62
     7
  5
278
 10
972468.929
 20
7287982.903
 30
0.0
  0
VERTEX
  8
21
  6
DASHDOT
 62
     7
  5
279
 10
972448.934
 20
7287983.369
 30
0.0
  0
VERTEX
  8
21
  6
DASHDOT
 62
     7
  5
27A
 10
972451.398
 20
7288083.339
 30
0.0
  0
SEQEND
  8
21
  6
DASHDOT
 62
     7
  5
27B
  0
POLYLINE
  8
21
  6
DASHDOT
 62
     7
  5
27C
 66
     1
 10
0.0
 20
0.0
 30
0.0
 70
     1
  0
VERTEX
  8
21
  6
DASHDOT
 62
     7
  5
27D
 10
972448.934
 20
7287983.369
 30
0.0
  0
VERTEX
  8
21
  6
DASHDOT
 62
     7
  5
27E
 10
972468.929
 20
7287982.903
 30
0.0
  0
VERTEX
  8
21
  6
DASHDOT
 62
     7
  5
27F
 10
972469.347
 20
7287999.898
 30
0.0
  0
VERTEX
  8
21
  6
DASHDOT
 62
     7
  5
280
 10
972466.44
 20
7287881.934
 30
0.0
  0
VERTEX
  8
21
  6
DASHDOT
 62
     7
  5
281
 10
972466.416
 20
7287880.934
 30
0.0
  0
VERTEX
  8
21
  6
DASHDOT
 62
     7
  5
282
 10
972446.422
 20
7287881.401
 30
0.0
  0
VERTEX
  8
21
  6
DASHDOT
 62
     7
  5
283
 10
972448.934
 20
7287983.369
 30
0.0
  0
SEQEND
  8
21
  6
DASHDOT
 62
     7
  5
284
  0
POLYLINE
  8
21
  6
DASHDOT
 62
     7
  5
285
 66
     1
 10
0.0
 20
0.0
 30
0.0
 70
     1
  0
VERTEX
  8
21
  6
DASHDOT
 62
     7
  5
286
 10
972481.436
 20
7287881.583
 30
0.0
  0
VERTEX
  8
21
  6
DASHDOT
 62
     7
  5
287
 10
972466.44
 20
7287881.934
 30
0.0
  0
VERTEX
  8
21
  6
DASHDOT
 62
     7
  5
288
 10
972463.977
 20
7287781.964
 30
0.0
  0
VERTEX
  8
21
  6
DASHDOT
 62
     7
  5
289
 10
972478.972
 20
7287781.614
 30
0.0
  0
VERTEX
  8
21
  6
DASHDOT
 62
     7
  5
28A
 10
972481.436
 20
7287881.583
 30
0.0
  0
SEQEND
  8
21
  6
DASHDOT
 62
     7
  5
28B
  0
POLYLINE
  8
21
  6
DASHDOT
 62
     7
  5
28C
 66
     1
 10
0.0
 20
0.0
 30
0.0
 70
     1
  0
VERTEX
  8
21
  6
DASHDOT
 62
     7
  5
28D
 10
972484.342
 20
7287999.547
 30
0.0
  0
VERTEX
  8
21
  6
DASHDOT
 62
     7
  5
28E
 10
972469.347
 20
7287999.898
 30
0.0
  0
VERTEX
  8
21
  6
DASHDOT
 62
     7
  5
28F
 10
972466.44
 20
7287881.934
 30
0.0
  0
VERTEX
  8
21
  6
DASHDOT
 62
     7
  5
290
 10
972481.436
 20
7287881.583
 30
0.0
  0
VERTEX
  8
21
  6
DASHDOT
 62
     7
  5
291
 10
972486.434
 20
7287881.466
 30
0.0
  0
VERTEX
  8
21
  6
DASHDOT
 62
     7
  5
292
 10
972489.341
 20
7287999.43
 30
0.0
  0
VERTEX
  8
21
  6
DASHDOT
 62
     7
  5
293
 10
972484.342
 20
7287999.547
 30
0.0
  0
SEQEND
  8
21
  6
DASHDOT
 62
     7
  5
294
  0
POLYLINE
  8
21
  6
DASHDOT
 62
     7
  5
295
 66
     1
 10
0.0
 20
0.0
 30
0.0
 70
     1
  0
VERTEX
  8
21
  6
DASHDOT
 62
     7
  5
296
 10
972443.958
 20
7287781.431
 30
0.0
  0
VERTEX
  8
21
  6
DASHDOT
 62
     7
  5
297
 10
972463.952
 20
7287780.964
 30
0.0
  0
VERTEX
  8
21
  6
DASHDOT
 62
     7
  5
298
 10
972463.977
 20
7287781.964
 30
0.0
  0
VERTEX
  8
21
  6
DASHDOT
 62
     7
  5
299
 10
972466.44
 20
7287881.934
 30
0.0
  0
VERTEX
  8
21
  6
DASHDOT
 62
     7
  5
29A
 10
972466.416
 20
7287880.934
 30
0.0
  0
VERTEX
  8
21
  6
DASHDOT
 62
     7
  5
29B
 10
972446.422
 20
7287881.401
 30
0.0
  0
VERTEX
  8
21
  6
DASHDOT
 62
     7
  5
29C
 10
972443.958
 20
7287781.431
 30
0.0
  0
SEQEND
  8
21
  6
DASHDOT
 62
     7
  5
29D
  0
POLYLINE
  8
21
  6
DASHDOT
 62
     7
  5
29E
 66
     1
 10
0.0
 20
0.0
 30
0.0
 70
     1
  0
VERTEX
  8
21
  6
DASHDOT
 62
     7
  5
29F
 10
972463.952
 20
7287780.964
 30
0.0
  0
VERTEX
  8
21
  6
DASHDOT
 62
     7
  5
2A0
 10
972443.958
 20
7287781.431
 30
0.0
  0
VERTEX
  8
21
  6
DASHDOT
 62
     7
  5
2A1
 10
972441.322
 20
7287674.463
 30
0.0
  0
VERTEX
  8
21
  6
DASHDOT
 62
     7
  5
2A2
 10
972461.316
 20
7287673.997
 30
0.0
  0
VERTEX
  8
21
  6
DASHDOT
 62
     7
  5
2A3
 10
972463.952
 20
7287780.964
 30
0.0
  0
SEQEND
  8
21
  6
DASHDOT
 62
     7
  5
2A4
  0
POLYLINE
  8
21
  6
DASHDOT
 62
     7
  5
2A5
 66
     1
 10
0.0
 20
0.0
 30
0.0
 70
     1
  0
VERTEX
  8
21
  6
DASHDOT
 62
     7
  5
2A6
 10
972478.972
 20
7287781.614
 30
0.0
  0
VERTEX
  8
21
  6
DASHDOT
 62
     7
  5
2A7
 10
972463.977
 20
7287781.964
 30
0.0
  0
VERTEX
  8
21
  6
DASHDOT
 62
     7
  5
2A8
 10
972461.513
 20
7287681.993
 30
0.0
  0
VERTEX
  8
21
  6
DASHDOT
 62
     7
  5
2A9
 10
972476.508
 20
7287681.644
 30
0.0
  0
VERTEX
  8
21
  6
DASHDOT
 62
     7
  5
2AA
 10
972478.972
 20
7287781.614
 30
0.0
  0
SEQEND
  8
21
  6
DASHDOT
 62
     7
  5
2AB
  0
POLYLINE
  8
21
  6
DASHDOT
 62
     7
  5
2AC
 66
     1
 10
0.0
 20
0.0
 30
0.0
 70
     1
  0
VERTEX
  8
21
  6
DASHDOT
 62
     7
  5
2AD
 10
972439.006
 20
7287580.492
 30
0.0
  0
VERTEX
  8
21
  6
DASHDOT
 62
     7
  5
2AE
 10
972458.999
 20
7287580.027
 30
0.0
  0
VERTEX
  8
21
  6
DASHDOT
 62
     7
  5
2AF
 10
972459.048
 20
7287582.025
 30
0.0
  0
VERTEX
  8
21
  6
DASHDOT
 62
     7
  5
2B0
 10
972461.513
 20
7287681.993
 30
0.0
  0
VERTEX
  8
21
  6
DASHDOT
 62
     7
  5
2B1
 10
972461.316
 20
7287673.997
 30
0.0
  0
VERTEX
  8
21
  6
DASHDOT
 62
     7
  5
2B2
 10
972441.322
 20
7287674.463
 30
0.0
  0
VERTEX
  8
21
  6
DASHDOT
 62
     7
  5
2B3
 10
972439.006
 20
7287580.492
 30
0.0
  0
SEQEND
  8
21
  6
DASHDOT
 62
     7
  5
2B4
  0
POLYLINE
  8
21
  6
DASHDOT
 62
     7
  5
2B5
 66
     1
 10
0.0
 20
0.0
 30
0.0
 70
     1
  0
VERTEX
  8
21
  6
DASHDOT
 62
     7
  5
2B6
 10
972476.508
 20
7287681.644
 30
0.0
  0
VERTEX
  8
21
  6
DASHDOT
 62
     7
  5
2B7
 10
972461.513
 20
7287681.993
 30
0.0
  0
VERTEX
  8
21
  6
DASHDOT
 62
     7
  5
2B8
 10
972459.048
 20
7287582.025
 30
0.0
  0
VERTEX
  8
21
  6
DASHDOT
 62
     7
  5
2B9
 10
972474.043
 20
7287581.675
 30
0.0
  0
VERTEX
  8
21
  6
DASHDOT
 62
     7
  5
2BA
 10
972476.508
 20
7287681.644
 30
0.0
  0
SEQEND
  8
21
  6
DASHDOT
 62
     7
  5
2BB
  0
POLYLINE
  8
21
  6
DASHDOT
 62
     7
  5
2BC
 66
     1
 10
0.0
 20
0.0
 30
0.0
 70
     1
  0
VERTEX
  8
21
  6
DASHDOT
 62
     7
  5
2BD
 10
972456.437
 20
7287476.058
 30
0.0
  0
VERTEX
  8
21
  6
DASHDOT
 62
     7
  5
2BE
 10
972436.443
 20
7287476.524
 30
0.0
  0
VERTEX
  8
21
  6
DASHDOT
 62
     7
  5
2BF
 10
972439.006
 20
7287580.492
 30
0.0
  0
VERTEX
  8
21
  6
DASHDOT
 62
     7
  5
2C0
 10
972458.999
 20
7287580.027
 30
0.0
  0
VERTEX
  8
21
  6
DASHDOT
 62
     7
  5
2C1
 10
972456.437
 20
7287476.058
 30
0.0
  0
SEQEND
  8
21
  6
DASHDOT
 62
     7
  5
2C2
  0
POLYLINE
  8
21
  6
DASHDOT
 62
     7
  5
2C3
 66
     1
 10
0.0
 20
0.0
 30
0.0
 70
     1
  0
VERTEX
  8
21
  6
DASHDOT
 62
     7
  5
2C4
 10
972459.048
 20
7287582.025
 30
0.0
  0
VERTEX
  8
21
  6
DASHDOT
 62
     7
  5
2C5
 10
972474.043
 20
7287581.675
 30
0.0
  0
VERTEX
  8
21
  6
DASHDOT
 62
     7
  5
2C6
 10
972471.605
 20
7287482.705
 30
0.0
  0
VERTEX
  8
21
  6
DASHDOT
 62
     7
  5
2C7
 10
972456.61
 20
7287483.055
 30
0.0
  0
VERTEX
  8
21
  6
DASHDOT
 62
     7
  5
2C8
 10
972459.048
 20
7287582.025
 30
0.0
  0
SEQEND
  8
21
  6
DASHDOT
 62
     7
  5
2C9
  0
POLYLINE
  8
21
  6
DASHDOT
 62
     7
  5
2CA
 66
     1
 10
0.0
 20
0.0
 30
0.0
 70
     1
  0
VERTEX
  8
21
  6
DASHDOT
 62
     7
  5
2CB
 10
972456.437
 20
7287476.058
 30
0.0
  0
VERTEX
  8
21
  6
DASHDOT
 62
     7
  5
2CC
 10
972436.443
 20
7287476.524
 30
0.0
  0
VERTEX
  8
21
  6
DASHDOT
 62
     7
  5
2CD
 10
972434.151
 20
7287383.553
 30
0.0
  0
VERTEX
  8
21
  6
DASHDOT
 62
     7
  5
2CE
 10
972454.146
 20
7287383.087
 30
0.0
  0
VERTEX
  8
21
  6
DASHDOT
 62
     7
  5
2CF
 10
972470.001
 20
7287382.718
 30
0.0
  0
VERTEX
  8
21
  6
DASHDOT
 62
     7
  5
2D0
 10
972455.005
 20
7287383.068
 30
0.0
  0
VERTEX
  8
21
  6
DASHDOT
 62
     7
  5
2D1
 10
972456.61
 20
7287483.055
 30
0.0
  0
VERTEX
  8
21
  6
DASHDOT
 62
     7
  5
2D2
 10
972456.437
 20
7287476.058
 30
0.0
  0
SEQEND
  8
21
  6
DASHDOT
 62
     7
  5
2D3
  0
POLYLINE
  8
21
  6
DASHDOT
 62
     7
  5
2D4
 66
     1
 10
0.0
 20
0.0
 30
0.0
 70
     1
  0
VERTEX
  8
21
  6
DASHDOT
 62
     7
  5
2D5
 10
972456.61
 20
7287483.055
 30
0.0
  0
VERTEX
  8
21
  6
DASHDOT
 62
     7
  5
2D6
 10
972455.005
 20
7287383.068
 30
0.0
  0
VERTEX
  8
21
  6
DASHDOT
 62
     7
  5
2D7
 10
972470.001
 20
7287382.718
 30
0.0
  0
VERTEX
  8
21
  6
DASHDOT
 62
     7
  5
2D8
 10
972471.605
 20
7287482.705
 30
0.0
  0
VERTEX
  8
21
  6
DASHDOT
 62
     7
  5
2D9
 10
972456.61
 20
7287483.055
 30
0.0
  0
SEQEND
  8
21
  6
DASHDOT
 62
     7
  5
2DA
  0
TEXT
  8
22
  6
CONTINUOUS
 62
     3
  5
2DC
 10
972044.994
 20
7288433.337
 30
0.0
 40
6.0
  1
39.6'
 50
88.6647
  7
txt
 72
     4
 11
972042.261777
 21
7288444.859799
 31
0.0
210
0.0
220
0.0
230
1.0
  0
TEXT
  8
22
  6
CONTINUOUS
 62
     3
  5
2DD
 10
972169.28
 20
7288413.351
 30
0.0
 40
6.0
  1
50'
 50
358.664394
  7
txt
 72
     1
 11
972176.482043
 21
7288413.183085
 31
0.0
210
0.0
220
0.0
230
1.0
  0
TEXT
  8
22
  6
CONTINUOUS
 62
     3
  5
2DE
 10
973175.104
 20
7288429.264
 30
0.0
 40
6.0
  1
2232.5'
 50
358.6647
  7
txt
 72
     1
 11
973192.839183
 21
7288428.8506
 31
0.0
210
0.0
220
0.0
230
1.0
  0
TEXT
  8
22
  6
CONTINUOUS
 62
     3
  5
2DF
 10
972133.319
 20
7287895.675
 30
0.0
 40
6.0
  1
1032'
 50
88.171644
  7
txt
 72
     4
 11
972130.707923
 21
7287907.906535
 31
0.0
210
0.0
220
0.0
230
1.0
  0
TEXT
  8
22
  6
CONTINUOUS
 62
     3
  5
2E0
 10
972123.235
 20
7287361.89
 30
0.0
 40
6.0
  1
50'
 50
88.171644
  7
txt
 72
     4
 11
972120.466374
 21
7287369.186049
 31
0.0
210
0.0
220
0.0
230
1.0
  0
TEXT
  8
22
  6
CONTINUOUS
 62
     3
  5
2E1
 10
972585.29
 20
7287381.944
 30
0.0
 40
6.0
  1
982.8'
 50
358.664681
  7
txt
 72
     1
 11
972599.884036
 21
7287381.603814
 31
0.0
210
0.0
220
0.0
230
1.0
  0
TEXT
  8
22
  6
CONTINUOUS
 62
     3
  5
2E2
 10
972586.328
 20
7287321.254
 30
0.0
 40
6.0
  1
953.42'
 50
358.664731
  7
txt
 72
     1
 11
972604.202999
 21
7287326.83898
 31
0.0
210
0.0
220
0.0
230
1.0
 73
     3
  0
TEXT
  8
22
  6
CONTINUOUS
 62
     3
  5
2E3
 10
973142.935
 20
7287307.84
 30
0.0
 40
6.0
  1
164.52'
 50
297.789225
  7
txt
 72
     1
 11
973150.709689
 21
7287293.087265
 31
0.0
210
0.0
220
0.0
230
1.0
  0
TEXT
  8
22
  6
CONTINUOUS
 62
     3
  5
2E4
 10
973095.994
 20
7287266.419
 30
0.0
 40
6.0
  1
148.36'
 50
297.788389
  7
txt
 72
     1
 11
973109.076527
 21
7287254.463396
 31
0.0
210
0.0
220
0.0
230
1.0
 73
     3
  0
TEXT
  8
22
  6
CONTINUOUS
 62
     3
  5
2E5
 10
973161.542
 20
7287190.092
 30
0.0
 40
6.0
  1
51.76'
 50
42.554844
  7
txt
 72
     1
 11
973167.47146
 21
7287203.680998
 31
0.0
210
0.0
220
0.0
230
1.0
 73
     3
  0
TEXT
  8
22
  6
CONTINUOUS
 62
     3
  5
2E6
 10
972735.079
 20
7287876.541
 30
0.0
 40
6.0
  1
1032'
 50
88.171644
  7
txt
 72
     4
 11
972732.467923
 21
7287888.772535
 31
0.0
210
0.0
220
0.0
230
1.0
  0
TEXT
  8
22
  6
CONTINUOUS
 62
     3
  5
2E7
 10
972759.133
 20
7288399.657
 30
0.0
 40
6.0
  1
50'
 50
358.664394
  7
txt
 72
     1
 11
972766.335043
 21
7288399.489085
 31
0.0
210
0.0
220
0.0
230
1.0
  0
TEXT
  8
22
  6
CONTINUOUS
 62
     3
  5
2E8
 10
972455.878
 20
7288335.867
 30
0.0
 40
6.0
  1
132'
 50
88.171644
  7
txt
 72
     4
 11
972453.17194
 21
7288345.12305
 31
0.0
210
0.0
220
0.0
230
1.0
  0
TEXT
  8
22
  6
CONTINUOUS
 62
     3
  5
2E9
 10
972507.098
 20
7288343.892
 30
0.0
 40
6.0
  1
100'
 50
88.171644
  7
txt
 72
     4
 11
972504.390441
 21
7288353.101074
 31
0.0
210
0.0
220
0.0
230
1.0
  0
TEXT
  8
22
  6
CONTINUOUS
 62
     3
  5
2EA
 10
972454.949
 20
7288225.059
 30
0.0
 40
6.0
  1
100'
 50
88.171644
  7
txt
 72
     4
 11
972452.241441
 21
7288234.268074
 31
0.0
210
0.0
220
0.0
230
1.0
  0
TEXT
  8
22
  6
CONTINUOUS
 62
     3
  5
2EB
 10
972502.463
 20
7288253.157
 30
0.0
 40
6.0
  1
105'
 50
88.171644
  7
txt
 72
     4
 11
972499.756207
 21
7288262.390062
 31
0.0
210
0.0
220
0.0
230
1.0
  0
TEXT
  8
22
  6
CONTINUOUS
 62
     3
  5
2EC
 10
972450.791
 20
7288122.051
 30
0.0
 40
6.0
  1
100'
 50
88.171644
  7
txt
 72
     4
 11
972448.083441
 21
7288131.260074
 31
0.0
210
0.0
220
0.0
230
1.0
  0
TEXT
  8
22
  6
CONTINUOUS
 62
     3
  5
2ED
 10
972500.372
 20
7288146.8
 30
0.0
 40
6.0
  1
100'
 50
88.171644
  7
txt
 72
     4
 11
972497.664441
 21
7288156.009074
 31
0.0
210
0.0
220
0.0
230
1.0
  0
TEXT
  8
22
  6
CONTINUOUS
 62
     3
  5
2EE
 10
972448.604
 20
7288026.32
 30
0.0
 40
6.0
  1
100'
 50
88.171644
  7
txt
 72
     4
 11
972445.896441
 21
7288035.529074
 31
0.0
210
0.0
220
0.0
230
1.0
  0
TEXT
  8
22
  6
CONTINUOUS
 62
     3
  5
2EF
 10
972499.047
 20
7288050.858
 30
0.0
 40
6.0
  1
110'
 50
88.171644
  7
txt
 72
     4
 11
972496.306259
 21
7288059.027604
 31
0.0
210
0.0
220
0.0
230
1.0
  0
TEXT
  8
22
  6
CONTINUOUS
 62
     3
  5
2F0
 10
972495.695
 20
7287945.815
 30
0.0
 40
6.0
  1
118'
 50
88.171644
  7
txt
 72
     4
 11
972492.955025
 21
7287954.008591
 31
0.0
210
0.0
220
0.0
230
1.0
  0
TEXT
  8
22
  6
CONTINUOUS
 62
     3
  5
2F1
 10
972445.839
 20
7287926.097
 30
0.0
 40
6.0
  1
102'
 50
88.171644
  7
txt
 72
     4
 11
972443.132207
 21
7287935.330062
 31
0.0
210
0.0
220
0.0
230
1.0
  0
TEXT
  8
22
  6
CONTINUOUS
 62
     3
  5
2F2
 10
972443.79
 20
7287821.007
 30
0.0
 40
6.0
  1
100'
 50
88.171644
  7
txt
 72
     4
 11
972441.082441
 21
7287830.216074
 31
0.0
210
0.0
220
0.0
230
1.0
  0
TEXT
  8
22
  6
CONTINUOUS
 62
     3
  5
2F3
 10
972486.762
 20
7287821.92
 30
0.0
 40
6.0
  1
100'
 50
88.171644
  7
txt
 72
     4
 11
972484.054441
 21
7287831.129074
 31
0.0
210
0.0
220
0.0
230
1.0
  0
TEXT
  8
22
  6
CONTINUOUS
 62
     3
  5
2F4
 10
972485.995
 20
7287729.813
 30
0.0
 40
6.0
  1
100'
 50
88.171644
  7
txt
 72
     4
 11
972483.287441
 21
7287739.022074
 31
0.0
210
0.0
220
0.0
230
1.0
  0
TEXT
  8
22
  6
CONTINUOUS
 62
     3
  5
2F5
 10
972440.973
 20
7287719.134
 30
0.0
 40
6.0
  1
107'
 50
88.171644
  7
txt
 72
     4
 11
972438.26694
 21
7287728.39005
 31
0.0
210
0.0
220
0.0
230
1.0
  0
TEXT
  8
22
  6
CONTINUOUS
 62
     3
  5
2F6
 10
972438.822
 20
7287624.522
 30
0.0
 40
6.0
  1
94'
 50
88.171644
  7
txt
 72
     4
 11
972436.05414
 21
7287631.842036
 31
0.0
210
0.0
220
0.0
230
1.0
  0
TEXT
  8
22
  6
CONTINUOUS
 62
     3
  5
2F7
 10
972482.285
 20
7287627.202
 30
0.0
 40
6.0
  1
100'
 50
88.171644
  7
txt
 72
     4
 11
972479.577441
 21
7287636.411074
 31
0.0
210
0.0
220
0.0
230
1.0
  0
TEXT
  8
22
  6
CONTINUOUS
 62
     3
  5
2F8
 10
972436.135
 20
7287526.75
 30
0.0
 40
6.0
  1
104'
 50
88.171644
  7
txt
 72
     4
 11
972433.432705
 21
7287536.12399
 31
0.0
210
0.0
220
0.0
230
1.0
  0
TEXT
  8
22
  6
CONTINUOUS
 62
     3
  5
2F9
 10
972480.001
 20
7287535.559
 30
0.0
 40
6.0
  1
99'
 50
88.171644
  7
txt
 72
     4
 11
972477.224078
 21
7287542.595181
 31
0.0
210
0.0
220
0.0
230
1.0
  0
TEXT
  8
22
  6
CONTINUOUS
 62
     3
  5
2FA
 10
972433.137
 20
7287432.834
 30
0.0
 40
6.0
  1
93'
 50
88.171644
  7
txt
 72
     4
 11
972430.364609
 21
7287440.012109
 31
0.0
210
0.0
220
0.0
230
1.0
  0
TEXT
  8
22
  6
CONTINUOUS
 62
     3
  5
2FB
 10
972478.693
 20
7287440.07
 30
0.0
 40
6.0
  1
100'
 50
88.171644
  7
txt
 72
     4
 11
972475.985441
 21
7287449.279074
 31
0.0
210
0.0
220
0.0
230
1.0
  0
TEXT
  8
22
  6
CONTINUOUS
 62
     3
  5
2FC
 10
974005.494
 20
7286737.152
 30
0.0
 40
6.0
  1
104.4'
 50
359.064789
  7
txt
 72
     1
 11
974019.428144
 21
7286736.92454
 31
0.0
210
0.0
220
0.0
230
1.0
  0
TEXT
  8
22
  6
CONTINUOUS
 62
     3
  5
2FD
 10
973970.742
 20
7286719.082
 30
0.0
 40
6.0
  1
17.6'
 50
88.6647
  7
txt
 72
     4
 11
973967.988851
 21
7286729.707043
 31
0.0
210
0.0
220
0.0
230
1.0
  0
POLYLINE
  8
21
  6
DASHDOT
 62
     7
  5
2FE
 66
     1
 10
0.0
 20
0.0
 30
0.0
 70
     1
  0
VERTEX
  8
21
  6
DASHDOT
 62
     7
  5
2FF
 10
974077.963
 20
7286716.365
 30
0.0
  0
VERTEX
  8
21
  6
DASHDOT
 62
     7
  5
300
 10
973973.578
 20
7286718.069
 30
0.0
  0
VERTEX
  8
21
  6
DASHDOT
 62
     7
  5
301
 10
973973.907
 20
7286735.667
 30
0.0
  0
VERTEX
  8
21
  6
DASHDOT
 62
     7
  5
302
 10
974078.293
 20
7286733.963
 30
0.0
  0
VERTEX
  8
21
  6
DASHDOT
 62
     7
  5
303
 10
974077.963
 20
7286716.365
 30
0.0
  0
SEQEND
  8
21
  6
DASHDOT
 62
     7
  5
304
  0
TEXT
  8
13
  6
CONTINUOUS
 62
    14
  5
306
 10
972471.506
 20
7288308.863
 30
0.0
 40
8.0
  1
V4368 P38
 50
88.171644
  7
txt
 72
     4
 11
972468.626449
 21
7288344.026775
 31
0.0
210
0.0
220
0.0
230
1.0
  0
TEXT
  8
13
  6
CONTINUOUS
 62
    14
  5
307
 10
972492.485
 20
7288327.515
 30
0.0
 40
8.0
  1
V4368 P36
 50
88.171644
  7
txt
 72
     4
 11
972489.59945
 21
7288362.490871
 31
0.0
210
0.0
220
0.0
230
1.0
  0
TEXT
  8
13
  6
CONTINUOUS
 62
    14
  5
308
 10
972488.336
 20
7288220.319
 30
0.0
 40
8.0
  1
V4368 P34
 50
88.171644
  7
txt
 72
     4
 11
972485.462511
 21
7288255.672679
 31
0.0
210
0.0
220
0.0
230
1.0
  0
TEXT
  8
13
  6
CONTINUOUS
 62
    14
  5
309
 10
972467.014
 20
7288201.276
 30
0.0
 40
8.0
  1
V4368 P40
 50
88.171644
  7
txt
 72
     4
 11
972464.13949
 21
7288236.597695
 31
0.0
210
0.0
220
0.0
230
1.0
  0
TEXT
  8
13
  6
CONTINUOUS
 62
    14
  5
30A
 10
972464.607
 20
7288096.071
 30
0.0
 40
8.0
  1
V4368 P42
 50
88.171644
  7
txt
 72
     4
 11
972461.733511
 21
7288131.424679
 31
0.0
210
0.0
220
0.0
230
1.0
  0
TEXT
  8
13
  6
CONTINUOUS
 62
    14
  5
30B
 10
972486.371
 20
7288119.92
 30
0.0
 40
8.0
  1
V4368 P32
 50
88.171644
  7
txt
 72
     4
 11
972483.491449
 21
7288155.083775
 31
0.0
210
0.0
220
0.0
230
1.0
  0
TEXT
  8
13
  6
CONTINUOUS
 62
    14
  5
30C
 10
972462.843
 20
7287997.299
 30
0.0
 40
8.0
  1
V4368 P44
 50
88.171644
  7
txt
 72
     4
 11
972459.975509
 21
7288032.840583
 31
0.0
210
0.0
220
0.0
230
1.0
  0
TEXT
  8
13
  6
CONTINUOUS
 62
    14
  5
30D
 10
972483.653
 20
7288021.788
 30
0.0
 40
8.0
  1
V4368 P30
 50
88.171644
  7
txt
 72
     4
 11
972480.772428
 21
7288056.919792
 31
0.0
210
0.0
220
0.0
230
1.0
  0
TEXT
  8
13
  6
CONTINUOUS
 62
    14
  5
30E
 10
972461.006
 20
7287898.268
 30
0.0
 40
8.0
  1
V4368 P46
 50
88.171644
  7
txt
 72
     4
 11
972458.126449
 21
7287933.431775
 31
0.0
210
0.0
220
0.0
230
1.0
  0
TEXT
  8
13
  6
CONTINUOUS
 62
    14
  5
30F
 10
972480.018
 20
7287904.785
 30
0.0
 40
8.0
  1
V4368 P28
 50
88.171644
  7
txt
 72
     4
 11
972477.138449
 21
7287939.948775
 31
0.0
210
0.0
220
0.0
230
1.0
  0
TEXT
  8
13
  6
CONTINUOUS
 62
    14
  5
310
 10
972458.413
 20
7287791.747
 30
0.0
 40
8.0
  1
V4368 P48
 50
88.171644
  7
txt
 72
     4
 11
972455.539511
 21
7287827.100679
 31
0.0
210
0.0
220
0.0
230
1.0
  0
TEXT
  8
13
  6
CONTINUOUS
 62
    14
  5
311
 10
972475.612
 20
7287797.969
 30
0.0
 40
8.0
  1
V4368 P26
 50
88.171644
  7
txt
 72
     4
 11
972472.72645
 21
7287832.944871
 31
0.0
210
0.0
220
0.0
230
1.0
  0
TEXT
  8
13
  6
CONTINUOUS
 62
    14
  5
312
 10
972454.805
 20
7287692.081
 30
0.0
 40
8.0
  1
V4368 P50
 50
88.171644
  7
txt
 72
     4
 11
972451.924428
 21
7287727.212792
 31
0.0
210
0.0
220
0.0
230
1.0
  0
TEXT
  8
13
  6
CONTINUOUS
 62
    14
  5
313
 10
972472.214
 20
7287693.905
 30
0.0
 40
8.0
  1
V4368 P24
 50
88.171644
  7
txt
 72
     4
 11
972469.340511
 21
7287729.258679
 31
0.0
210
0.0
220
0.0
230
1.0
  0
TEXT
  8
13
  6
CONTINUOUS
 62
    14
  5
314
 10
972452.938
 20
7287590.333
 30
0.0
 40
8.0
  1
V4368 P52
 50
88.171644
  7
txt
 72
     4
 11
972450.058449
 21
7287625.496775
 31
0.0
210
0.0
220
0.0
230
1.0
  0
TEXT
  8
13
  6
CONTINUOUS
 62
    14
  5
315
 10
972470.031
 20
7287596.571
 30
0.0
 40
8.0
  1
V4368 P22
 50
88.171644
  7
txt
 72
     4
 11
972467.151449
 21
7287631.734775
 31
0.0
210
0.0
220
0.0
230
1.0
  0
TEXT
  8
13
  6
CONTINUOUS
 62
    14
  5
316
 10
972450.26
 20
7287494.821
 30
0.0
 40
8.0
  1
V4368 P54
 50
88.171644
  7
txt
 72
     4
 11
972447.386511
 21
7287530.174679
 31
0.0
210
0.0
220
0.0
230
1.0
  0
TEXT
  8
13
  6
CONTINUOUS
 62
    14
  5
317
 10
972468.958
 20
7287497.158
 30
0.0
 40
8.0
  1
V4368 P20
 50
88.171644
  7
txt
 72
     4
 11
972466.077428
 21
7287532.289792
 31
0.0
210
0.0
220
0.0
230
1.0
  0
TEXT
  8
13
  6
CONTINUOUS
 62
    14
  5
318
 10
972448.617
 20
7287397.434
 30
0.0
 40
8.0
  1
V4368 P56
 50
88.171644
  7
txt
 72
     4
 11
972445.73145
 21
7287432.409871
 31
0.0
210
0.0
220
0.0
230
1.0
  0
TEXT
  8
13
  6
CONTINUOUS
 62
    14
  5
319
 10
972466.721
 20
7287398.662
 30
0.0
 40
8.0
  1
V4368 P18
 50
88.171644
  7
txt
 72
     4
 11
972463.796239
 21
7287432.409497
 31
0.0
210
0.0
220
0.0
230
1.0
  0
TEXT
  8
13
  6
CONTINUOUS
 62
    14
  5
31A
 10
973249.433
 20
7288412.517
 30
0.0
 40
8.0
  1
V4041 P123
 50
358.6647
  7
txt
 72
     4
 11
973284.664668
 21
7288415.69685
 31
0.0
210
0.0
220
0.0
230
1.0
  0
TEXT
  8
13
  6
CONTINUOUS
 62
    14
  5
31B
 10
973993.303
 20
7286721.431
 30
0.0
 40
8.0
  1
V3499 P90
 50
358.6647
  7
txt
 72
     4
 11
974027.840857
 21
7286724.627023
 31
0.0
210
0.0
220
0.0
230
1.0
  0
TEXT
  8
13
  6
CONTINUOUS
 62
    14
  5
31C
 10
974191.541
 20
7287736.328
 30
0.0
 40
8.0
  1
V2465 P32
 50
358.6647
  7
txt
 72
     4
 11
974226.678694
 21
7287739.510041
 31
0.0
210
0.0
220
0.0
230
1.0
  0
POLYLINE
  8
6
  6
CONTINUOUS
 62
     7
  5
31D
 66
     1
 10
0.0
 20
0.0
 30
0.0
  0
VERTEX
  8
6
  6
CONTINUOUS
 62
     7
  5
31E
 10
973450.0
 20
7286107.32
 30
0.0
  0
VERTEX
  8
6
  6
CONTINUOUS
 62
     7
  5
31F
 10
973465.282
 20
7286762.942
 30
0.0
  0
VERTEX
  8
6
  6
CONTINUOUS
 62
     7
  5
320
 10
973325.02
 20
7286766.212
 30
0.0
  0
VERTEX
  8
6
  6
CONTINUOUS
 62
     7
  5
321
 10
973329.93
 20
7286976.854
 30
0.0
  0
SEQEND
  8
6
  6
CONTINUOUS
 62
     7
  5
322
  0
TEXT
  8
19
  6
CONTINUOUS
 62
     1
  5
323
 10
972345.018
 20
7287350.6
 30
0.0
 40
24.0
  1
E.RICE ST
 50
358.6647
  7
ROMANC
 72
     4
 11
972444.854596
 21
7287360.276108
 31
0.0
210
0.0
220
0.0
230
1.0
  0
TEXT
  8
19
  6
CONTINUOUS
 62
     1
  5
324
 10
972169.234
 20
7287632.851
 30
0.0
 40
24.0
  1
N.TULIP AVE
 50
88.6647
  7
ROMANC
 72
     4
 11
972160.350529
 21
7287766.69236
 31
0.0
210
0.0
220
0.0
230
1.0
  0
TEXT
  8
19
  6
CONTINUOUS
 62
     1
  5
325
 10
972418.84
 20
7287708.248
 30
0.0
 40
24.0
  1
N.TURMERIC AVE
 50
88.6647
  7
ROMANC
 72
     4
 11
972410.923102
 21
7287883.556096
 31
0.0
210
0.0
220
0.0
230
1.0
  0
TEXT
  8
19
  6
CONTINUOUS
 62
     1
  5
326
 10
972756.114
 20
7287476.555
 30
0.0
 40
24.0
  1
N.TWINBERRY AVE
 50
88.6647
  7
ROMANC
 72
     4
 11
972748.622014
 21
7287670.092144
 31
0.0
210
0.0
220
0.0
230
1.0
  0
POLYLINE
  8
21
  6
DASHDOT
 62
     7
  5
327
 66
     1
 10
0.0
 20
0.0
 30
0.0
 70
     1
  0
VERTEX
  8
21
  6
DASHDOT
 62
     7
  5
328
 10
970996.089
 20
7286197.122
 30
0.0
  0
VERTEX
  8
21
  6
DASHDOT
 62
     7
  5
329
 10
970965.072
 20
7285185.497
 30
0.0
  0
VERTEX
  8
21
  6
DASHDOT
 62
     7
  5
32A
 10
970923.881
 20
7285147.313
 30
0.0
  0
VERTEX
  8
21
  6
DASHDOT
 62
     7
  5
32B
 10
970954.898
 20
7286158.939
 30
0.0
  0
SEQEND
  8
21
  6
DASHDOT
 62
     7
  5
32C
  0
TEXT
  8
22
  6
CONTINUOUS
 62
     3
  5
32D
 10
970958.313
 20
7285265.561
 30
0.0
 40
6.0
  1
40' ROW PIONEER NATURAL GAS CO.
 50
88.6647
  7
txt
 72
     4
 11
970957.328988
 21
7285352.083427
 31
0.0
210
0.0
220
0.0
230
1.0
  0
TEXT
  8
10
  6
CONTINUOUS
 62
   134
  5
32F
 10
971108.328
 20
7285819.026
 30
0.0
 40
13.999
  1
A
 50
358.6647
  7
ROMANS
 72
     4
 11
971113.155856
 21
7285825.915366
 31
0.0
210
0.0
220
0.0
230
1.0
  0
TEXT
  8
15
  6
CONTINUOUS
 62
    30
  5
330
 10
970980.233
 20
7285637.93
 30
0.0
 40
50.0
  1
GRIFFIN
 50
28.6647
  7
ROMANC
 72
     4
 11
971115.39319
 21
7285740.311763
 31
0.0
210
0.0
220
0.0
230
1.0
  0
TEXT
  8
15
  6
CONTINUOUS
 62
    30
  5
331
 10
971158.774
 20
7285621.567
 30
0.0
 40
50.0
  1
O
 50
28.6647
  7
ROMANC
 72
     4
 11
971163.362067
 21
7285652.567136
 31
0.0
210
0.0
220
0.0
230
1.0
  0
TEXT
  8
15
  6
CONTINUOUS
 62
    30
  5
332
 10
971882.368
 20
7285013.486
 30
0.0
 40
50.0
  1
LUBBOCK
 50
28.6647
  7
ROMANC
210
0.0
220
0.0
230
1.0
  0
TEXT
  8
15
  6
CONTINUOUS
 62
    30
  5
333
 10
971930.337
 20
7284925.742
 30
0.0
 40
50.0
  1
CHILDREN'S
 50
28.6647
  7
ROMANC
210
0.0
220
0.0
230
1.0
  0
TEXT
  8
15
  6
CONTINUOUS
 62
    30
  5
334
 10
971978.306
 20
7284837.998
 30
0.0
 40
50.0
  1
HOME
 50
28.6647
  7
ROMANC
210
0.0
220
0.0
230
1.0
  0
TEXT
  8
22
  6
CONTINUOUS
 62
     3
  5
335
 10
971345.926
 20
7285094.971
 30
0.0
 40
8.0
  1
60'  R.O.W.  EASEMENT,  ENERGAS CO.
 50
42.768147
  7
ROMANS
210
0.0
220
0.0
230
1.0
  0
TEXT
  8
22
  6
CONTINUOUS
 62
     3
  5
336
 10
972106.234
 20
7285796.586
 30
0.0
 40
8.0
  1
60'  R.O.W.  EASEMENT,  ENERGAS CO.
 50
42.768147
  7
ROMANS
210
0.0
220
0.0
230
1.0
  0
TEXT
  8
10
  6
CONTINUOUS
 62
   134
  5
337
 10
972059.23
 20
7285273.141
 30
0.0
 40
13.999
  1
A
 50
358.6647
  7
ROMANS
 11
972059.556223
 21
7285287.136198
 31
0.0
210
0.0
220
0.0
230
1.0
 73
     3
  0
TEXT
  8
10
  6
CONTINUOUS
 62
   134
  5
338
 10
973200.168
 20
7286443.076
 30
0.0
 40
13.999
  1
A
 50
358.6647
  7
ROMANS
 11
973200.494223
 21
7286457.071198
 31
0.0
210
0.0
220
0.0
230
1.0
 73
     3
  0
TEXT
  8
10
  6
CONTINUOUS
 62
   134
  5
339
 10
970528.084
 20
7287059.914
 30
0.0
 40
13.999
  1
UNSUBDIVIDED
 50
358.6647
  7
ROMANS
 11
970528.410223
 21
7287073.909198
 31
0.0
210
0.0
220
0.0
230
1.0
 73
     3
  0
TEXT
  8
10
  6
CONTINUOUS
 62
   134
  5
33A
 10
973025.603
 20
7283943.345
 30
0.0
 40
13.999
  1
UNSUBDIVIDED
 50
358.6647
  7
ROMANS
 11
973025.929223
 21
7283957.340198
 31
0.0
210
0.0
220
0.0
230
1.0
 73
     3
  0
TEXT
  8
13
  6
CONTINUOUS
 62
    14
  5
33B
 10
972167.145
 20
7287916.313
 30
0.0
 40
8.0
  1
V4368 P15 T1
 50
88.171644
  7
txt
 72
     4
 11
972164.557894
 21
7287960.638109
 31
0.0
210
0.0
220
0.0
230
1.0
  0
TEXT
  8
13
  6
CONTINUOUS
 62
    14
  5
33C
 10
972757.658
 20
7287896.044
 30
0.0
 40
8.0
  1
V4368 P15 T2
 50
88.171644
  7
txt
 72
     4
 11
972755.116104
 21
7287941.785388
 31
0.0
210
0.0
220
0.0
230
1.0
  0
TEXT
  8
13
  6
CONTINUOUS
 62
    14
  5
33D
 10
972590.499
 20
7287350.995
 30
0.0
 40
8.0
  1
V4514 P100 T3
 50
358.171644
  7
txt
 72
     4
 11
972639.293832
 21
7287353.439425
 31
0.0
210
0.0
220
0.0
230
1.0
  0
TEXT
  8
10
  6
CONTINUOUS
 62
   134
  5
33E
 10
974191.445
 20
7287768.049
 30
0.0
 40
13.999
  1
CITY
 50
358.6647
  7
ROMANS
 11
974191.771223
 21
7287782.044198
 31
0.0
210
0.0
220
0.0
230
1.0
 73
     3
  0
TEXT
  8
10
  6
CONTINUOUS
 62
   134
  5
33F
 10
974189.954
 20
7287704.067
 30
0.0
 40
13.999
  1
PROPERTY
 50
358.6647
  7
ROMANS
 11
974190.280223
 21
7287718.062198
 31
0.0
210
0.0
220
0.0
230
1.0
 73
     3
  0
TEXT
  8
10
  6
CONTINUOUS
 62
   134
  5
340
 10
970178.602
 20
7284709.369
 30
0.0
 40
13.999
  1
1
 50
358.6647
  7
ROMANS
 11
970178.928223
 21
7284723.364198
 31
0.0
210
0.0
220
0.0
230
1.0
 73
     3
  0
TEXT
  8
22
  6
CONTINUOUS
 62
     3
  5
341
 10
969575.514
 20
7283489.635
 30
0.0
 40
8.0
  1
35'
 50
358.6647
  7
ROMANS
210
0.0
220
0.0
230
1.0
  0
TEXT
  8
22
  6
CONTINUOUS
 62
     3
  5
342
 10
969591.296
 20
7283466.967
 30
0.0
 40
8.0
  1
25'
 50
358.6647
  7
ROMANS
210
0.0
220
0.0
230
1.0
  0
TEXT
  8
22
  6
CONTINUOUS
 62
     3
  5
343
 10
969598.317
 20
7283508.382
 30
0.0
 40
8.0
  1
LIFT STATION
 50
358.6647
  7
txt
210
0.0
220
0.0
230
1.0
  0
TEXT
  8
22
  6
CONTINUOUS
 62
     3
  5
344
 10
969598.061
 20
7283497.385
 30
0.0
 40
8.0
  1
EASEMENT
 50
358.6647
  7
txt
210
0.0
220
0.0
230
1.0
  0
TEXT
  8
10
  6
CONTINUOUS
 62
   134
  5
345
 10
969744.278
 20
7283513.986
 30
0.0
 40
13.999
  1
B
 50
358.6647
  7
ROMANS
 11
969744.604223
 21
7283527.981198
 31
0.0
210
0.0
220
0.0
230
1.0
 73
     3
  0
TEXT
  8
15
  6
CONTINUOUS
 62
    30
  5
346
 10
969794.116
 20
7283546.691
 30
0.0
 40
50.0
  1
LUBBOCK
 50
28.6647
  7
ROMANC
210
0.0
220
0.0
230
1.0
  0
TEXT
  8
15
  6
CONTINUOUS
 62
    30
  5
347
 10
969842.084
 20
7283458.947
 30
0.0
 40
50.0
  1
CHILDREN'S
 50
28.6647
  7
ROMANC
210
0.0
220
0.0
230
1.0
  0
TEXT
  8
15
  6
CONTINUOUS
 62
    30
  5
348
 10
969890.053
 20
7283371.203
 30
0.0
 40
50.0
  1
HOME
 50
28.6647
  7
ROMANC
210
0.0
220
0.0
230
1.0
  0
TEXT
  8
15
  6
CONTINUOUS
 62
    30
  5
349
 10
973204.25
 20
7286399.581
 30
0.0
 40
50.0
  1
HORIZON
 50
30.5313
  7
ROMANC
 72
     4
 11
973345.159805
 21
7286511.711085
 31
0.0
210
0.0
220
0.0
230
1.0
  0
TEXT
  8
15
  6
CONTINUOUS
 62
    30
  5
34A
 10
973083.486
 20
7286241.284
 30
0.0
 40
50.0
  1
MANUFACTURING
 50
30.5313
  7
ROMANC
 72
     4
 11
973383.261802
 21
7286447.110246
 31
0.0
210
0.0
220
0.0
230
1.0
  0
LINE
  8
6
  6
CONTINUOUS
 62
     7
  5
34B
 10
974343.461
 20
7287909.294
 30
0.0
 11
969482.311
 21
7283423.948
 31
0.0
  0
LINE
  8
6
  6
CONTINUOUS
 62
     7
  5
34C
 10
969482.311
 20
7283423.948
 30
0.0
 11
969277.514
 21
7283263.726
 31
0.0
  0
LINE
  8
58
  6
DIVIDE
 62
   216
  5
34E
 10
974125.833
 20
7283144.203
 30
0.0
 11
969856.992
 21
7283243.708
 31
0.0
  0
LINE
  8
6
  6
CONTINUOUS
 62
     7
  5
34F
 10
969277.514
 20
7283263.726
 30
0.0
 11
974139.774
 21
7283153.88
 31
0.0
  0
LINE
  8
R-6
  6
CONTINUOUS
 62
     7
  5
351
 10
974352.537
 20
7288298.649
 30
0.0
 11
974449.21
 21
7288380.119
 31
0.0
  0
LINE
  8
R-6
  6
CONTINUOUS
 62
     7
  5
352
 10
974343.461
 20
7287909.294
 30
0.0
 11
974839.623
 21
7288361.754
 31
0.0
  0
LINE
  8
R-6
  6
CONTINUOUS
 62
     7
  5
353
 10
977728.152
 20
7283023.422
 30
0.0
 11
979491.124
 21
7286289.787
 31
0.0
  0
LINE
  8
R-6
  6
CONTINUOUS
 62
     7
  5
354
 10
977588.018
 20
7283027.989
 30
0.0
 11
979497.704
 21
7286561.022
 31
0.0
  0
LINE
  8
R-27
  6
CONTINUOUS
 62
    32
  5
356
 10
977672.098
 20
7283025.249
 30
0.0
 11
979493.756
 21
7286398.276
 31
0.0
  0
TEXT
  8
R-11
  6
CONTINUOUS
 62
     7
  5
358
 10
974576.462
 20
7288084.303
 30
0.0
 40
8.0
  1
8
 50
42.511067
  7
ROMANS
 72
     1
 11
974572.775903
 21
7288091.776659
 31
0.0
210
0.0
220
0.0
230
1.0
 73
     3
  0
TEXT
  8
R-11
  6
CONTINUOUS
 62
     7
  5
359
 10
974582.359
 20
7288089.709
 30
0.0
 40
8.0
  1
4
 50
42.511067
  7
ROMANS
 72
     1
 11
974578.672903
 21
7288097.182659
 31
0.0
210
0.0
220
0.0
230
1.0
 73
     3
  0
TEXT
  8
R-11
  6
CONTINUOUS
 62
     7
  5
35A
 10
974588.024
 20
7288094.902
 30
0.0
 40
8.0
  1
0
 50
42.511067
  7
ROMANS
 72
     1
 11
974584.572315
 21
7288102.590542
 31
0.0
210
0.0
220
0.0
230
1.0
 73
     3
  0
TEXT
  8
R-11
  6
CONTINUOUS
 62
     7
  5
35B
 10
974594.896
 20
7288101.202
 30
0.0
 40
8.0
  1
.
 50
42.511067
  7
ROMANS
 72
     1
 11
974590.464647
 21
7288107.992493
 31
0.0
210
0.0
220
0.0
230
1.0
 73
     3
  0
TEXT
  8
R-11
  6
CONTINUOUS
 62
     7
  5
35C
 10
974600.05
 20
7288105.926
 30
0.0
 40
8.0
  1
9
 50
42.511067
  7
ROMANS
 72
     1
 11
974596.363903
 21
7288113.399659
 31
0.0
210
0.0
220
0.0
230
1.0
 73
     3
  0
TEXT
  8
R-11
  6
CONTINUOUS
 62
     7
  5
35D
 10
974606.69
 20
7288112.014
 30
0.0
 40
8.0
  1
'
 50
42.511067
  7
ROMANS
 72
     1
 11
974602.267493
 21
7288118.812602
 31
0.0
210
0.0
220
0.0
230
1.0
 73
     3
  0
TEXT
  8
R-11
  6
CONTINUOUS
 62
     7
  5
35E
 10
974277.574
 20
7288290.777
 30
0.0
 40
8.0
  1
1
 50
88.5315
  7
ROMANS
 72
     1
 11
974269.610814
 21
7288292.315581
 31
0.0
210
0.0
220
0.0
230
1.0
 73
     3
  0
TEXT
  8
R-11
  6
CONTINUOUS
 62
     7
  5
35F
 10
974277.753
 20
7288297.768
 30
0.0
 40
8.0
  1
9
 50
88.5315
  7
ROMANS
 72
     1
 11
974269.815442
 21
7288300.306252
 31
0.0
210
0.0
220
0.0
230
1.0
 73
     3
  0
TEXT
  8
R-11
  6
CONTINUOUS
 62
     7
  5
360
 10
974277.958
 20
7288305.764
 30
0.0
 40
8.0
  1
3
 50
88.5315
  7
ROMANS
 72
     1
 11
974270.020442
 21
7288308.302252
 31
0.0
210
0.0
220
0.0
230
1.0
 73
     3
  0
TEXT
  8
R-11
  6
CONTINUOUS
 62
     7
  5
361
 10
974278.189
 20
7288314.77
 30
0.0
 40
8.0
  1
'
 50
88.5315
  7
ROMANS
 72
     1
 11
974270.225814
 21
7288316.308581
 31
0.0
210
0.0
220
0.0
230
1.0
 73
     3
  0
TEXT
  8
R-11
  6
CONTINUOUS
 62
     7
  5
362
 10
974347.202
 20
7288372.618
 30
0.0
 40
8.0
  1
2
 50
358.5315
  7
ROMANS
 72
     1
 11
974349.740252
 21
7288380.555558
 31
0.0
210
0.0
220
0.0
230
1.0
 73
     3
  0
TEXT
  8
R-11
  6
CONTINUOUS
 62
     7
  5
363
 10
974354.885
 20
7288372.421
 30
0.0
 40
8.0
  1
0
 50
358.5315
  7
ROMANS
 72
     1
 11
974357.740148
 21
7288380.350434
 31
0.0
210
0.0
220
0.0
230
1.0
 73
     3
  0
TEXT
  8
R-11
  6
CONTINUOUS
 62
     7
  5
364
 10
974362.882
 20
7288372.216
 30
0.0
 40
8.0
  1
0
 50
358.5315
  7
ROMANS
 72
     1
 11
974365.737148
 21
7288380.145434
 31
0.0
210
0.0
220
0.0
230
1.0
 73
     3
  0
TEXT
  8
R-11
  6
CONTINUOUS
 62
     7
  5
365
 10
974372.202
 20
7288371.977
 30
0.0
 40
8.0
  1
'
 50
358.5315
  7
ROMANS
 72
     1
 11
974373.740581
 21
7288379.940186
 31
0.0
210
0.0
220
0.0
230
1.0
 73
     3
  0
TEXT
  8
R-11
  6
CONTINUOUS
 62
     7
  5
366
 10
978641.749
 20
7286295.878
 30
0.0
 40
8.0
  1
 
 50
358.5315
  7
ROMANS
 72
     1
 11
978644.414124
 21
7286295.809677
 31
0.0
210
0.0
220
0.0
230
1.0
  0
TEXT
  8
R-11
  6
CONTINUOUS
 62
     7
  5
367
 10
977732.355
 20
7283163.93
 30
0.0
 40
8.0
  1
125'
 50
335.316847
  7
ROMANS
210
0.0
220
0.0
230
1.0
  0
TEXT
  8
R-11
  6
CONTINUOUS
 62
     7
  5
368
 10
978218.302
 20
7284063.67
 30
0.0
 40
8.0
  1
125'
 50
335.316847
  7
ROMANS
210
0.0
220
0.0
230
1.0
  0
TEXT
  8
R-11
  6
CONTINUOUS
 62
     7
  5
369
 10
978782.605
 20
7285106.248
 30
0.0
 40
8.0
  1
125'
 50
335.316847
  7
ROMANS
210
0.0
220
0.0
230
1.0
  0
TEXT
  8
R-11
  6
CONTINUOUS
 62
     7
  5
36A
 10
979349.067
 20
7286158.344
 30
0.0
 40
8.0
  1
125'
 50
335.316847
  7
ROMANS
210
0.0
220
0.0
230
1.0
  0
TEXT
  8
R-11
  6
CONTINUOUS
 62
     7
  5
36B
 10
974459.948
 20
7288223.251
 30
0.0
 40
8.0
  1
280'
 50
310.144019
  7
ROMANS
210
0.0
220
0.0
230
1.0
  0
TEXT
  8
R-19
  6
CONTINUOUS
 62
     1
  5
36D
 10
974402.239
 20
7288066.153
 30
0.0
 40
24.0
  1
  U.S. 62 & 82
 50
43.551947
  7
ROMANC
 72
     4
 11
974502.371711
 21
7288177.905518
 31
0.0
210
0.0
220
0.0
230
1.0
  0
TEXT
  8
R-19
  6
CONTINUOUS
 62
     1
  5
36E
 10
974400.199
 20
7288014.542
 30
0.0
 40
24.0
  1
IDALOU HIGHWAY
 50
43.551947
  7
ROMANC
 72
     4
 11
974526.82857
 21
7288151.484795
 31
0.0
210
0.0
220
0.0
230
1.0
  0
INSERT
  8
R-11
  6
CONTINUOUS
 62
     7
  5
374
  2
*D4
 10
977595.744
 20
7283018.608
 30
0.0
 70
     0
 71
     0
  0
POLYLINE
  8
R-1
  6
HIDDEN
 62
   253
  5
376
 66
     1
 10
0.0
 20
0.0
 30
0.0
  0
VERTEX
  8
R-1
  6
HIDDEN
 62
   253
  5
377
 10
974228.189
 20
7288386.76
 30
0.0
  0
VERTEX
  8
R-1
  6
HIDDEN
 62
   253
  5
378
 10
979538.068
 20
7288224.901
 30
0.0
  0
VERTEX
  8
R-1
  6
HIDDEN
 62
   253
  5
379
 10
979410.659
 20
7282972.884
 30
0.0
  0
VERTEX
  8
R-1
  6
HIDDEN
 62
   253
  5
37A
 10
974082.359
 20
7283135.613
 30
0.0
  0
VERTEX
  8
R-1
  6
HIDDEN
 62
   253
  5
37B
 10
974228.189
 20
7288386.76
 30
0.0
  0
SEQEND
  8
R-1
  6
HIDDEN
 62
   253
  5
37C
  0
TEXT
  8
R-19
  6
CONTINUOUS
 62
     1
  5
37D
 10
975180.427
 20
7288331.245
 30
0.0
 40
24.0
  1
URSULINE ST
 50
358.5315
  7
ROMANC
 72
     4
 11
975318.444285
 21
7288339.710763
 31
0.0
210
0.0
220
0.0
230
1.0
  0
TEXT
  8
R-19
  6
CONTINUOUS
 62
     1
  5
37E
 10
979030.746
 20
7283005.735
 30
0.0
 40
24.0
  1
ERSKINE ST
 50
358.1334
  7
ROMANC
 72
     4
 11
979153.615846
 21
7283013.737062
 31
0.0
210
0.0
220
0.0
230
1.0
  0
TEXT
  8
R-19
  6
CONTINUOUS
 62
     1
  5
37F
 10
974278.724
 20
7287401.792
 30
0.0
 40
24.0
  1
WOOD AVE
 50
88.5315
  7
ROMANC
 72
     4
 11
974269.478576
 21
7287509.396277
 31
0.0
210
0.0
220
0.0
230
1.0
  0
TEXT
  8
R-19
  6
CONTINUOUS
 62
     1
  5
380
 10
976739.154
 20
7283058.332
 30
0.0
 40
24.0
  1
ERSKINE ST
 50
358.1334
  7
ROMANC
 72
     4
 11
976862.023846
 21
7283066.334062
 31
0.0
210
0.0
220
0.0
230
1.0
  0
TEXT
  8
R-19
  6
CONTINUOUS
 62
     1
  5
381
 10
974363.016
 20
7283136.616
 30
0.0
 40
24.0
  1
ERSKINE ST
 50
358.1334
  7
ROMANC
 72
     4
 11
974485.885846
 21
7283144.618062
 31
0.0
210
0.0
220
0.0
230
1.0
  0
LINE
  8
R-6
  6
CONTINUOUS
 62
     7
  5
382
 10
976102.235
 20
7288329.387
 30
0.0
 11
976089.707
 21
7287840.698
 31
0.0
  0
LINE
  8
R-6
  6
CONTINUOUS
 62
     7
  5
383
 10
976089.707
 20
7287840.698
 30
0.0
 11
977226.873
 21
7287811.546
 31
0.0
  0
LINE
  8
R-6
  6
CONTINUOUS
 62
     7
  5
384
 10
977226.873
 20
7287811.546
 30
0.0
 11
977239.401
 21
7288300.235
 31
0.0
  0
LINE
  8
R-6
  6
CONTINUOUS
 62
     7
  5
385
 10
976161.429
 20
7288297.19
 30
0.0
 11
977238.615
 21
7288269.576
 31
0.0
  0
LINE
  8
R-7
  6
CONTINUOUS
 62
     7
  5
387
 10
977042.344
 20
7287816.277
 30
0.0
 11
977054.086
 21
7288274.307
 31
0.0
  0
LINE
  8
R-7
  6
CONTINUOUS
 62
     7
  5
388
 10
976857.815
 20
7287821.008
 30
0.0
 11
976869.557
 21
7288279.038
 31
0.0
  0
LINE
  8
R-7
  6
CONTINUOUS
 62
     7
  5
389
 10
976673.285
 20
7287825.738
 30
0.0
 11
976685.027
 21
7288283.768
 31
0.0
  0
LINE
  8
R-7
  6
CONTINUOUS
 62
     7
  5
38A
 10
976488.756
 20
7287830.469
 30
0.0
 11
976500.498
 21
7288288.499
 31
0.0
  0
LINE
  8
R-7
  6
CONTINUOUS
 62
     7
  5
38B
 10
976304.227
 20
7287835.199
 30
0.0
 11
976315.969
 21
7288293.229
 31
0.0
  0
LINE
  8
R-7
  6
CONTINUOUS
 62
     7
  5
38C
 10
976119.697
 20
7287839.93
 30
0.0
 11
976130.67
 21
7288267.969
 31
0.0
  0
ARC
  8
R-6
  6
CONTINUOUS
 62
     7
  5
38D
 10
976160.660303
 20
7288267.200223
 30
0.0
 40
30.0
 50
88.531506
 51
178.531494
210
0.0
220
0.0
230
1.0
  0
TEXT
  8
R-11
  6
CONTINUOUS
 62
     7
  5
38E
 10
976222.451
 20
7288285.512
 30
0.0
 40
8.0
  1
154.57'
 50
356.664906
  7
txt
 72
     4
 11
976245.10167
 21
7288288.198836
 31
0.0
210
0.0
220
0.0
230
1.0
  0
TEXT
  8
R-11
  6
CONTINUOUS
 62
     7
  5
38F
 10
976398.913
 20
7288279.234
 30
0.0
 40
8.0
  1
154.59'
 50
356.664906
  7
txt
 72
     4
 11
976421.344043
 21
7288281.933635
 31
0.0
210
0.0
220
0.0
230
1.0
  0
TEXT
  8
R-11
  6
CONTINUOUS
 62
     7
  5
390
 10
976573.499
 20
7288276.506
 30
0.0
 40
8.0
  1
154.59'
 50
356.664906
  7
txt
 72
     4
 11
976595.930043
 21
7288279.205635
 31
0.0
210
0.0
220
0.0
230
1.0
  0
TEXT
  8
R-11
  6
CONTINUOUS
 62
     7
  5
391
 10
976753.277
 20
7288271.897
 30
0.0
 40
8.0
  1
154.59'
 50
356.664906
  7
txt
 72
     4
 11
976775.708043
 21
7288274.596635
 31
0.0
210
0.0
220
0.0
230
1.0
  0
TEXT
  8
R-11
  6
CONTINUOUS
 62
     7
  5
392
 10
976948.763
 20
7288266.885
 30
0.0
 40
8.0
  1
154.59'
 50
356.664906
  7
txt
 72
     4
 11
976971.194043
 21
7288269.584635
 31
0.0
210
0.0
220
0.0
230
1.0
  0
TEXT
  8
R-11
  6
CONTINUOUS
 62
     7
  5
393
 10
977128.541
 20
7288262.277
 30
0.0
 40
8.0
  1
154.59'
 50
356.664906
  7
txt
 72
     4
 11
977150.972043
 21
7288264.976635
 31
0.0
210
0.0
220
0.0
230
1.0
  0
TEXT
  8
R-11
  6
CONTINUOUS
 62
     7
  5
394
 10
976109.118
 20
7288268.785
 30
0.0
 40
8.0
  1
30'
 50
356.664906
  7
txt
 72
     4
 11
976118.940433
 21
7288272.219391
 31
0.0
210
0.0
220
0.0
230
1.0
  0
TEXT
  8
R-11
  6
CONTINUOUS
 62
     7
  5
395
 10
977229.852
 20
7288051.87
 30
0.0
 40
8.0
  1
458.18'
 50
88.531506
  7
txt
 72
     4
 11
977226.428005
 21
7288074.390144
 31
0.0
210
0.0
220
0.0
230
1.0
  0
TEXT
  8
R-11
  6
CONTINUOUS
 62
     7
  5
396
 10
977043.093
 20
7288056.658
 30
0.0
 40
8.0
  1
458.18'
 50
88.531506
  7
txt
 72
     4
 11
977039.669005
 21
7288079.178144
 31
0.0
210
0.0
220
0.0
230
1.0
  0
TEXT
  8
R-11
  6
CONTINUOUS
 62
     7
  5
397
 10
976859.825
 20
7288061.356
 30
0.0
 40
8.0
  1
458.18'
 50
88.531506
  7
txt
 72
     4
 11
976856.401005
 21
7288083.876144
 31
0.0
210
0.0
220
0.0
230
1.0
  0
TEXT
  8
R-11
  6
CONTINUOUS
 62
     7
  5
398
 10
976676.556
 20
7288066.054
 30
0.0
 40
8.0
  1
458.18'
 50
88.531506
  7
txt
 72
     4
 11
976673.132005
 21
7288088.574144
 31
0.0
210
0.0
220
0.0
230
1.0
  0
TEXT
  8
R-11
  6
CONTINUOUS
 62
     7
  5
399
 10
976491.542
 20
7288070.797
 30
0.0
 40
8.0
  1
458.18'
 50
88.531506
  7
txt
 72
     4
 11
976488.118005
 21
7288093.317144
 31
0.0
210
0.0
220
0.0
230
1.0
  0
TEXT
  8
R-11
  6
CONTINUOUS
 62
     7
  5
39A
 10
976306.528
 20
7288075.54
 30
0.0
 40
8.0
  1
458.18'
 50
88.531506
  7
txt
 72
     4
 11
976303.104005
 21
7288098.060144
 31
0.0
210
0.0
220
0.0
230
1.0
  0
TEXT
  8
R-11
  6
CONTINUOUS
 62
     7
  5
39B
 10
976138.879
 20
7288076.345
 30
0.0
 40
8.0
  1
428.15'
 50
88.531506
  7
txt
 72
     4
 11
976135.455005
 21
7288098.865144
 31
0.0
210
0.0
220
0.0
230
1.0
  0
TEXT
  8
R-10
  6
CONTINUOUS
 62
   134
  5
39D
 10
976209.87
 20
7288089.955
 30
0.0
 40
13.999
  1
1
 50
358.531506
  7
txt
 72
     4
 11
976212.252667
 21
7288096.896219
 31
0.0
210
0.0
220
0.0
230
1.0
  0
TEXT
  8
R-10
  6
CONTINUOUS
 62
   134
  5
39E
 10
976390.66
 20
7288085.321
 30
0.0
 40
13.999
  1
2
 50
358.531506
  7
txt
 72
     4
 11
976395.521852
 21
7288092.198663
 31
0.0
210
0.0
220
0.0
230
1.0
  0
TEXT
  8
R-10
  6
CONTINUOUS
 62
   134
  5
39F
 10
976584.401
 20
7288080.355
 30
0.0
 40
13.999
  1
3
 50
358.531506
  7
txt
 72
     4
 11
976589.262852
 21
7288087.232663
 31
0.0
210
0.0
220
0.0
230
1.0
  0
TEXT
  8
R-10
  6
CONTINUOUS
 62
   134
  5
3A0
 10
976772.575
 20
7288075.531
 30
0.0
 40
13.999
  1
4
 50
358.531506
  7
txt
 72
     4
 11
976777.767744
 21
7288082.40018
 31
0.0
210
0.0
220
0.0
230
1.0
  0
TEXT
  8
R-10
  6
CONTINUOUS
 62
   134
  5
3A1
 10
976952.684
 20
7288070.915
 30
0.0
 40
13.999
  1
5
 50
358.531506
  7
txt
 72
     4
 11
976957.545852
 21
7288077.792663
 31
0.0
210
0.0
220
0.0
230
1.0
  0
TEXT
  8
R-10
  6
CONTINUOUS
 62
   134
  5
3A2
 10
977139.774
 20
7288066.12
 30
0.0
 40
13.999
  1
6
 50
358.531506
  7
txt
 72
     4
 11
977144.305961
 21
7288073.00612
 31
0.0
210
0.0
220
0.0
230
1.0
  0
TEXT
  8
R-15
  6
CONTINUOUS
 62
    30
  5
3A4
 10
976341.39
 20
7287861.179
 30
0.0
 40
50.0
  1
RUSSELL LANE
 50
28.531506
  7
ROMANC
 72
     4
 11
976610.638259
 21
7288036.016463
 31
0.0
210
0.0
220
0.0
230
1.0
  0
TEXT
  8
R-19
  6
CONTINUOUS
 62
     1
  5
3A5
 10
976547.202
 20
7288326.094
 30
0.0
 40
24.0
  1
CR6400
 50
358.531506
  7
ROMANC
 72
     4
 11
976618.728129
 21
7288336.264322
 31
0.0
210
0.0
220
0.0
230
1.0
  0
LINE
  8
R-6
  6
CONTINUOUS
 62
     7
  5
3A6
 10
974839.623
 20
7288361.754
 30
0.0
 11
976102.235
 21
7288329.387
 31
0.0
  0
LINE
  8
R-58
  6
DIVIDE
 62
   216
  5
3A8
 10
974251.612
 20
7286395.098
 30
0.0
 11
974302.611
 21
7288384.444
 31
0.0
  0
LINE
  8
R-58
  6
DIVIDE
 62
   216
  5
3A9
 10
979491.547
 20
7286307.227
 30
0.0
 11
974251.612
 21
7286395.098
 31
0.0
  0
LINE
  8
R-58
  6
DIVIDE
 62
   216
  5
3AA
 10
974302.611
 20
7288384.444
 30
0.0
 11
974325.995
 21
7289049.501
 31
0.0
  0
LINE
  8
R-58
  6
DIVIDE
 62
   216
  5
3AB
 10
974263.537
 20
7289051.697
 30
0.0
 11
974325.995
 21
7289049.501
 31
0.0
  0
TEXT
  8
R-10
  6
CONTINUOUS
 62
   134
  5
3AC
 10
974290.929
 20
7288325.463
 30
0.0
 40
13.999
  1
VACANT
 50
358.5315
  7
ROMANS
 11
974291.287757
 21
7288339.457402
 31
0.0
210
0.0
220
0.0
230
1.0
 73
     3
  0
TEXT
  8
R-10
  6
CONTINUOUS
 62
   134
  5
3AD
 10
976726.378
 20
7285650.572
 30
0.0
 40
13.999
  1
UNSUBDIVIDED
 50
358.5315
  7
ROMANS
 11
976726.736757
 21
7285664.566402
 31
0.0
210
0.0
220
0.0
230
1.0
 73
     3
  0
TEXT
  8
R-10
  6
CONTINUOUS
 62
   134
  5
3AE
 10
978818.443
 20
7283898.853
 30
0.0
 40
13.999
  1
UNSUBDIVIDED
 50
358.5315
  7
ROMANS
 11
978818.801757
 21
7283912.847402
 31
0.0
210
0.0
220
0.0
230
1.0
 73
     3
  0
TEXT
  8
R-28
  6
CONTINUOUS
 62
    32
  5
3B0
 10
977904.744
 20
7283478.121
 30
0.0
 40
24.0
  1
FORT WORTH & DENVER RAILWAY
 50
61.607753
  7
txt
 72
     1
 11
978057.228525
 21
7283760.22646
 31
0.0
210
0.0
220
0.0
230
1.0
  0
TEXT
  8
R-28
  6
CONTINUOUS
 62
    32
  5
3B1
 10
978838.725
 20
7285211.526
 30
0.0
 40
24.0
  1
FORT WORTH & DENVER RAILWAY
 50
61.607753
  7
txt
 72
     1
 11
978991.209525
 21
7285493.63146
 31
0.0
210
0.0
220
0.0
230
1.0
  0
ENDSEC
  0
EOF
