  0
SECTION
  2
HEADER
  9
$ACADVER
  1
AC1009
  9
$INSBASE
 10
0.0
 20
0.0
 30
0.0
  9
$EXTMIN
 10
963901.056
 20
7298997.178
 30
0.0
  9
$EXTMAX
 10
969354.642
 20
7304524.732
 30
0.0
  9
$LIMMIN
 10
0.0
 20
0.0
  9
$LIMMAX
 10
12.0
 20
9.0
  9
$ORTHOMODE
 70
     0
  9
$REGENMODE
 70
     1
  9
$FILLMODE
 70
     1
  9
$QTEXTMODE
 70
     0
  9
$MIRRTEXT
 70
     1
  9
$DRAGMODE
 70
     2
  9
$LTSCALE
 40
1.0
  9
$OSMODE
 70
     0
  9
$ATTMODE
 70
     1
  9
$TEXTSIZE
 40
0.2
  9
$TRACEWID
 40
0.05
  9
$TEXTSTYLE
  7
STANDARD
  9
$CLAYER
  8
0
  9
$CELTYPE
  6
CONTINUOUS
  9
$CECOLOR
 62
   256
  9
$DIMSCALE
 40
1.0
  9
$DIMASZ
 40
0.18
  9
$DIMEXO
 40
0.0625
  9
$DIMDLI
 40
0.38
  9
$DIMRND
 40
0.0
  9
$DIMDLE
 40
0.0
  9
$DIMEXE
 40
0.18
  9
$DIMTP
 40
0.0
  9
$DIMTM
 40
0.0
  9
$DIMTXT
 40
0.18
  9
$DIMCEN
 40
0.09
  9
$DIMTSZ
 40
0.0
  9
$DIMTOL
 70
     0
  9
$DIMLIM
 70
     0
  9
$DIMTIH
 70
     1
  9
$DIMTOH
 70
     1
  9
$DIMSE1
 70
     0
  9
$DIMSE2
 70
     0
  9
$DIMTAD
 70
     0
  9
$DIMZIN
 70
     0
  9
$DIMBLK
  1

  9
$DIMASO
 70
     1
  9
$DIMSHO
 70
     1
  9
$DIMPOST
  1

  9
$DIMAPOST
  1

  9
$DIMALT
 70
     0
  9
$DIMALTD
 70
     2
  9
$DIMALTF
 40
25.4
  9
$DIMLFAC
 40
1.0
  9
$DIMTOFL
 70
     0
  9
$DIMTVP
 40
0.0
  9
$DIMTIX
 70
     0
  9
$DIMSOXD
 70
     0
  9
$DIMSAH
 70
     0
  9
$DIMBLK1
  1

  9
$DIMBLK2
  1

  9
$DIMSTYLE
  2
STANDARD
  9
$DIMCLRD
 70
     0
  9
$DIMCLRE
 70
     0
  9
$DIMCLRT
 70
     0
  9
$DIMTFAC
 40
1.0
  9
$DIMGAP
 40
0.09
  9
$LUNITS
 70
     2
  9
$LUPREC
 70
     4
  9
$AXISMODE
 70
     0
  9
$AXISUNIT
 10
0.0
 20
0.0
  9
$SKETCHINC
 40
0.1
  9
$FILLETRAD
 40
0.0
  9
$AUNITS
 70
     0
  9
$AUPREC
 70
     0
  9
$MENU
  1
acad
  9
$ELEVATION
 40
0.0
  9
$PELEVATION
 40
0.0
  9
$THICKNESS
 40
0.0
  9
$LIMCHECK
 70
     0
  9
$BLIPMODE
 70
     1
  9
$CHAMFERA
 40
0.0
  9
$CHAMFERB
 40
0.0
  9
$SKPOLY
 70
     0
  9
$TDCREATE
 40
2453013.903252315
  9
$TDUPDATE
 40
2453013.903252315
  9
$TDINDWG
 40
0.0000000000
  9
$TDUSRTIMER
 40
0.0000000000
  9
$USRTIMER
 70
     1
  9
$ANGBASE
 50
0.0
  9
$ANGDIR
 70
     0
  9
$PDMODE
 70
     0
  9
$PDSIZE
 40
0.0
  9
$PLINEWID
 40
0.0
  9
$COORDS
 70
     0
  9
$SPLFRAME
 70
     0
  9
$SPLINETYPE
 70
     6
  9
$SPLINESEGS
 70
    10
  9
$ATTDIA
 70
     0
  9
$ATTREQ
 70
     1
  9
$HANDLING
 70
     1
  9
$HANDSEED
  5
8A
  9
$SURFTAB1
 70
     6
  9
$SURFTAB2
 70
     6
  9
$SURFTYPE
 70
     6
  9
$SURFU
 70
     6
  9
$SURFV
 70
     6
  9
$UCSNAME
  2

  9
$UCSORG
 10
0.0
 20
0.0
 30
0.0
  9
$UCSXDIR
 10
1.0
 20
0.0
 30
0.0
  9
$UCSYDIR
 10
0.0
 20
1.0
 30
0.0
  9
$PUCSNAME
  2

  9
$PUCSORG
 10
0.0
 20
0.0
 30
0.0
  9
$PUCSXDIR
 10
1.0
 20
0.0
 30
0.0
  9
$PUCSYDIR
 10
0.0
 20
1.0
 30
0.0
  9
$USERI1
 70
     0
  9
$USERI2
 70
     0
  9
$USERI3
 70
     0
  9
$USERI4
 70
     0
  9
$USERI5
 70
     0
  9
$USERR1
 40
0.0
  9
$USERR2
 40
0.0
  9
$USERR3
 40
0.0
  9
$USERR4
 40
0.0
  9
$USERR5
 40
0.0
  9
$WORLDVIEW
 70
     1
  9
$SHADEDGE
 70
     3
  9
$SHADEDIF
 70
    70
  9
$TILEMODE
 70
     1
  9
$MAXACTVP
 70
    16
  9
$PINSBASE
 10
0.0
 20
0.0
 30
0.0
  9
$PLIMCHECK
 70
     0
  9
$PEXTMIN
 10
-1.000000E+20
 20
-1.000000E+20
 30
-1.000000E+20
  9
$PEXTMAX
 10
-1.000000E+20
 20
-1.000000E+20
 30
-1.000000E+20
  9
$PLIMMIN
 10
0.0
 20
0.0
  9
$PLIMMAX
 10
12.0
 20
9.0
  9
$UNITMODE
 70
     0
  9
$VISRETAIN
 70
     0
  9
$PLINEGEN
 70
     1
  9
$PSLTSCALE
 70
     0
  9
$TREEDEPTH
 70
  3020
  9
$DWGCODEPAGE
  3
ansi_1252
  0
ENDSEC
  0
SECTION
  2
TABLES
  0
TABLE
  2
VPORT
 70
     1
  0
VPORT
  2
*ACTIVE
 70
     0
 10
0.0
 20
0.0
 11
1.0
 21
1.0
 12
0.0
 22
0.0
 13
0.0
 23
0.0
 14
0.0
 24
0.0
 15
0.0
 25
0.0
 16
0.0
 26
0.0
 36
1.0
 17
966418.539127
 27
7301748.279908
 37
0.0
 40
5511.411
 41
1.2213
 42
50.0
 43
0.004
 44
0.0
 50
1.681086
 51
0.0
 71
     0
 72
   100
 73
     1
 74
     0
 75
     0
 76
     0
 77
     0
 78
     0
  0
ENDTAB
  0
TABLE
  2
LTYPE
 70
     7
  0
LTYPE
  2
CONTINUOUS
 70
     0
  3
Solid line
 72
    65
 73
     0
 40
0.0
  0
LTYPE
  2
DOT
 70
    64
  3
. . . . . . . . . . . . . . . . . . . . . . . . . . . . . . . . .
 72
    65
 73
     2
 40
0.25
 49
0.0
 49
-0.25
  0
LTYPE
  2
HIDDEN
 70
    64
  3
__ __ __ __ __ __ __ __ __ __ __ __ __ __ __ __ __ __ __ __ __ 
 72
    65
 73
     2
 40
0.375
 49
0.25
 49
-0.125
  0
LTYPE
  2
DASHED
 70
    64
  3
__ __ __ __ __ __ __ __ __ __ __ __ __ __ __ __ __ __ __ __ __
 72
    65
 73
     2
 40
0.75
 49
0.5
 49
-0.25
  0
LTYPE
  2
DASHDOT
 70
    64
  3
__ . __ . __ . __ . __ . __ . __ . __ . __ . __ . __ . __ . _
 72
    65
 73
     4
 40
1.0
 49
0.5
 49
-0.25
 49
0.0
 49
-0.25
  0
LTYPE
  2
DIVIDE
 70
    64
  3
____ . . ____ . . ____ . . ____ . . ____ . . ____ . . ____ . .
 72
    65
 73
     6
 40
1.25
 49
0.5
 49
-0.25
 49
0.0
 49
-0.25
 49
0.0
 49
-0.25
  0
LTYPE
  2
CENTER
 70
    64
  3
____ _ ____ _ ____ _ ____ _ ____ _ ____ _ ____ _ ____ _ ____ _
 72
    65
 73
     4
 40
2.0
 49
1.25
 49
-0.25
 49
0.25
 49
-0.25
  0
ENDTAB
  0
TABLE
  2
LAYER
 70
     9
  0
LAYER
  2
0
 70
    64
 62
     7
  6
CONTINUOUS
  0
LAYER
  2
CONSTRUCTION_CLASS
 70
     1
 62
     7
  6
CONTINUOUS
  0
LAYER
  2
PATTERN_CLASS
 70
     0
 62
     7
  6
CONTINUOUS
  0
LAYER
  2
6
 70
    64
 62
     7
  6
CONTINUOUS
  0
LAYER
  2
1
 70
    64
 62
     7
  6
CONTINUOUS
  0
LAYER
  2
19
 70
    64
 62
     7
  6
CONTINUOUS
  0
LAYER
  2
58
 70
    64
 62
     7
  6
CONTINUOUS
  0
LAYER
  2
10
 70
    64
 62
     7
  6
CONTINUOUS
  0
LAYER
  2
11
 70
    64
 62
     7
  6
CONTINUOUS
  0
ENDTAB
  0
TABLE
  2
STYLE
 70
     5
  0
STYLE
  2
STANDARD
 70
     0
 40
0.0
 41
1.0
 50
0.0
 71
     0
 42
0.0
  3
txt
  4

  0
STYLE
  2
MONOTXT
 70
     0
 40
0.2
 41
1.0
 50
0.0
 71
     0
 42
0.2
  3
MONOTXT
  4

  0
STYLE
  2
ROMANC
 70
     0
 40
0.2
 41
1.0
 50
0.0
 71
     0
 42
0.2
  3
ROMANC
  4

  0
STYLE
  2
ROMANS
 70
     0
 40
0.2
 41
1.0
 50
0.0
 71
     0
 42
0.2
  3
ROMANS
  4

  0
STYLE
  2
txt
 70
     0
 40
0.2
 41
1.0
 50
0.0
 71
     0
 42
0.2
  3
TXT
  4

  0
ENDTAB
  0
TABLE
  2
VIEW
 70
     0
  0
ENDTAB
  0
TABLE
  2
UCS
 70
     0
  0
ENDTAB
  0
TABLE
  2
APPID
 70
     1
  0
APPID
  2
ACAD
 70
     0
  0
ENDTAB
  0
TABLE
  2
DIMSTYLE
 70
     1
  0
DIMSTYLE
  2
STANDARD
 70
     0
  3

  4

  5

  6

  7

 40
1.0
 41
0.18
 42
0.0625
 43
0.38
 44
0.18
 45
0.0
 46
0.0
 47
0.0
 48
0.0
140
0.18
141
0.09
142
0.0
143
25.4
144
1.0
145
0.0
146
1.0
147
0.09
 71
     0
 72
     0
 73
     1
 74
     1
 75
     0
 76
     0
 77
     0
 78
     0
170
     0
171
     2
172
     0
173
     0
174
     0
175
     0
176
     0
177
     0
178
     0
  0
ENDTAB
  0
ENDSEC
  0
SECTION
  2
BLOCKS
  0
ENDSEC
  0
SECTION
  2
ENTITIES
  0
LINE
  8
6
  6
CONTINUOUS
 62
     7
  5
29
 10
963915.234
 20
7299173.494
 30
0.0
 11
963990.312
 21
7301312.404
 31
0.0
  0
ARC
  8
6
  6
CONTINUOUS
 62
     7
  5
2A
 10
963940.422869
 20
7301314.17192
 30
0.0
 40
50.000164
 50
357.9897
 51
43.286089
210
0.0
220
0.0
230
1.0
  0
LINE
  8
6
  6
CONTINUOUS
 62
     7
  5
2B
 10
964087.539
 20
7304450.697
 30
0.0
 11
964087.347
 21
7304445.217
 31
0.0
  0
ARC
  8
6
  6
CONTINUOUS
 62
     7
  5
2C
 10
964077.367758
 20
7304445.59175
 30
0.0
 40
10.000033
 50
322.666369
 51
357.9897
210
0.0
220
0.0
230
1.0
  0
TEXT
  8
0
  6
CONTINUOUS
 62
     6
  5
2E
 10
964760.961
 20
7303422.89
 30
0.0
 40
30.32
  1
X
 50
267.9897
  7
MONOTXT
210
0.0
220
0.0
230
1.0
  0
TEXT
  8
0
  6
CONTINUOUS
 62
     6
  5
2F
 10
964582.339
 20
7303776.405
 30
0.0
 40
30.32
  1
X
 50
337.692819
  7
MONOTXT
210
0.0
220
0.0
230
1.0
  0
TEXT
  8
0
  6
CONTINUOUS
 62
     6
  5
30
 10
964605.594
 20
7303168.54
 30
0.0
 40
30.32
  1
X
 50
196.345936
  7
MONOTXT
210
0.0
220
0.0
230
1.0
  0
TEXT
  8
0
  6
CONTINUOUS
 62
     6
  5
31
 10
964230.104
 20
7302941.305
 30
0.0
 40
30.32
  1
X
 50
225.255467
  7
MONOTXT
210
0.0
220
0.0
230
1.0
  0
TEXT
  8
0
  6
CONTINUOUS
 62
     6
  5
32
 10
964205.033
 20
7304075.054
 30
0.0
 40
30.32
  1
X
 50
314.004386
  7
MONOTXT
210
0.0
220
0.0
230
1.0
  0
LINE
  8
0
  6
CONTINUOUS
 62
     6
  5
33
 10
964207.312
 20
7304095.987
 30
0.0
 11
964078.127
 21
7304234.634
 31
0.0
  0
POLYLINE
  8
0
  6
CONTINUOUS
 62
     6
  5
34
 66
     1
 10
0.0
 20
0.0
 30
0.0
  0
VERTEX
  8
0
  6
CONTINUOUS
 62
     6
  5
35
 10
964610.525
 20
7303155.498
 30
0.0
  0
VERTEX
  8
0
  6
CONTINUOUS
 62
     6
  5
36
 10
964693.241
 20
7303174.555
 30
0.0
  0
VERTEX
  8
0
  6
CONTINUOUS
 62
     6
  5
37
 10
964693.267538
 20
7303174.554844
 30
0.0
 42
0.339454
  0
VERTEX
  8
0
  6
CONTINUOUS
 62
     6
  5
38
 10
964768.404824
 20
7303265.670283
 30
0.0
  0
VERTEX
  8
0
  6
CONTINUOUS
 62
     6
  5
39
 10
964768.448
 20
7303265.674
 30
0.0
  0
VERTEX
  8
0
  6
CONTINUOUS
 62
     6
  5
3A
 10
964772.975
 20
7303394.646
 30
0.0
  0
SEQEND
  8
0
  6
CONTINUOUS
 62
     6
  5
3B
  0
POLYLINE
  8
0
  6
CONTINUOUS
 62
     6
  5
3C
 66
     1
 10
0.0
 20
0.0
 30
0.0
  0
VERTEX
  8
0
  6
CONTINUOUS
 62
     6
  5
3D
 10
964774.295
 20
7303432.259
 30
0.0
  0
VERTEX
  8
0
  6
CONTINUOUS
 62
     6
  5
3E
 10
964781.601
 20
7303640.41
 30
0.0
  0
VERTEX
  8
0
  6
CONTINUOUS
 62
     6
  5
3F
 10
964781.557267
 20
7303640.375667
 30
0.0
 42
0.315299
  0
VERTEX
  8
0
  6
CONTINUOUS
 62
     6
  5
40
 10
964720.969775
 20
7303733.708952
 30
0.0
  0
VERTEX
  8
0
  6
CONTINUOUS
 62
     6
  5
41
 10
964720.95
 20
7303733.677
 30
0.0
  0
VERTEX
  8
0
  6
CONTINUOUS
 62
     6
  5
42
 10
964611.689
 20
7303777.866
 30
0.0
  0
SEQEND
  8
0
  6
CONTINUOUS
 62
     6
  5
43
  0
POLYLINE
  8
0
  6
CONTINUOUS
 62
     6
  5
44
 66
     1
 10
0.0
 20
0.0
 30
0.0
  0
VERTEX
  8
0
  6
CONTINUOUS
 62
     6
  5
45
 10
964575.561
 20
7303792.539
 30
0.0
  0
VERTEX
  8
0
  6
CONTINUOUS
 62
     6
  5
46
 10
964480.454
 20
7303830.903
 30
0.0
  0
VERTEX
  8
0
  6
CONTINUOUS
 62
     6
  5
47
 10
964480.453105
 20
7303830.934293
 30
0.0
 42
-0.109518
  0
VERTEX
  8
0
  6
CONTINUOUS
 62
     6
  5
48
 10
964408.042153
 20
7303880.72013
 30
0.0
  0
VERTEX
  8
0
  6
CONTINUOUS
 62
     6
  5
49
 10
964408.101
 20
7303880.66
 30
0.0
  0
VERTEX
  8
0
  6
CONTINUOUS
 62
     6
  5
4A
 10
964231.987
 20
7304069.587
 30
0.0
  0
SEQEND
  8
0
  6
CONTINUOUS
 62
     6
  5
4B
  0
POLYLINE
  8
0
  6
CONTINUOUS
 62
     6
  5
4C
 66
     1
 10
0.0
 20
0.0
 30
0.0
  0
VERTEX
  8
0
  6
CONTINUOUS
 62
     6
  5
4D
 10
964248.587
 20
7302945.978
 30
0.0
  0
VERTEX
  8
0
  6
CONTINUOUS
 62
     6
  5
4E
 10
964371.313
 20
7303068.647
 30
0.0
  0
VERTEX
  8
0
  6
CONTINUOUS
 62
     6
  5
4F
 10
964371.336161
 20
7303068.635675
 30
0.0
 42
-0.140541
  0
VERTEX
  8
0
  6
CONTINUOUS
 62
     6
  5
50
 10
964469.223847
 20
7303122.872703
 30
0.0
  0
VERTEX
  8
0
  6
CONTINUOUS
 62
     6
  5
51
 10
964469.208
 20
7303122.874
 30
0.0
  0
VERTEX
  8
0
  6
CONTINUOUS
 62
     6
  5
52
 10
964585.326
 20
7303149.641
 30
0.0
  0
SEQEND
  8
0
  6
CONTINUOUS
 62
     6
  5
53
  0
LINE
  8
0
  6
CONTINUOUS
 62
     6
  5
54
 10
964038.876
 20
7302736.245
 30
0.0
 11
964221.503
 21
7302918.841
 31
0.0
  0
ARC
  8
0
  6
CONTINUOUS
 62
     6
  5
55
 10
964182.437572
 20
7302592.770287
 30
0.0
 40
203.000667
 50
134.9897
 51
140.857633
210
0.0
220
0.0
230
1.0
  0
LINE
  8
0
  6
CENTER
 62
     7
  5
56
 10
964051.494
 20
7303475.88
 30
0.0
 11
966401.827
 21
7303393.381
 31
0.0
  0
LINE
  8
0
  6
DASHED
 62
     3
  5
57
 10
966432.521
 20
7304267.855
 30
0.0
 11
966371.132
 21
7302518.915
 31
0.0
  0
LINE
  8
0
  6
DASHED
 62
     3
  5
58
 10
966371.132
 20
7302518.915
 30
0.0
 11
964033.176
 21
7302954.004
 31
0.0
  0
LINE
  8
0
  6
DASHED
 62
     3
  5
59
 10
964069.815
 20
7303997.825
 30
0.0
 11
966432.521
 21
7304267.855
 31
0.0
  0
TEXT
  8
0
  6
CONTINUOUS
 62
    30
  5
5B
 10
964659.625
 20
7303783.557
 30
0.0
 40
200.0
  1
LUBBOCK INTERNATIONAL
 50
357.9897
  7
ROMANC
 72
     4
 11
966926.179237
 21
7303804.060811
 31
0.0
210
0.0
220
0.0
230
1.0
  0
TEXT
  8
0
  6
CONTINUOUS
 62
    30
  5
5C
 10
966207.196
 20
7303429.052
 30
0.0
 40
200.0
  1
AIRPORT
 50
357.9897
  7
ROMANC
 72
     4
 11
966914.164695
 21
7303504.298447
 31
0.0
210
0.0
220
0.0
230
1.0
  0
TEXT
  8
0
  6
CONTINUOUS
 62
    30
  5
5D
 10
965084.124
 20
7303463.306
 30
0.0
 40
100.0
  1
CLEAR
 50
357.9897
  7
ROMANC
 72
     4
 11
965345.544044
 21
7303504.16075
 31
0.0
210
0.0
220
0.0
230
1.0
  0
TEXT
  8
0
  6
CONTINUOUS
 62
    30
  5
5E
 10
965135.52
 20
7303311.41
 30
0.0
 40
100.0
  1
ZONE
 50
357.9897
  7
ROMANC
 72
     4
 11
965340.285934
 21
7303354.253352
 31
0.0
210
0.0
220
0.0
230
1.0
  0
TEXT
  8
0
  6
CONTINUOUS
 62
     7
  5
60
 10
966546.874
 20
7302387.571
 30
0.0
 40
8.0
  1
5280'
 50
357.9897
  7
ROMANS
210
0.0
220
0.0
230
1.0
  0
TEXT
  8
0
  6
CONTINUOUS
 62
     7
  5
61
 10
966511.536
 20
7304332.476
 30
0.0
 40
8.0
  1
5280'
 50
357.9897
  7
ROMANS
210
0.0
220
0.0
230
1.0
  0
TEXT
  8
0
  6
CONTINUOUS
 62
     7
  5
62
 10
966511.15
 20
7304321.482
 30
0.0
 40
8.0
  1
12994.8'
 50
357.9897
  7
ROMANS
210
0.0
220
0.0
230
1.0
  0
POLYLINE
  8
1
  6
HIDDEN
 62
   253
  5
64
 66
     1
 10
0.0
 20
0.0
 30
0.0
 70
     1
  0
VERTEX
  8
1
  6
HIDDEN
 62
   253
  5
65
 10
969213.845
 20
7299152.373
 30
0.0
  0
VERTEX
  8
1
  6
HIDDEN
 62
   253
  5
66
 10
963937.96
 20
7299295.0
 30
0.0
  0
VERTEX
  8
1
  6
HIDDEN
 62
   253
  5
67
 10
964078.924
 20
7304524.732
 30
0.0
  0
VERTEX
  8
1
  6
HIDDEN
 62
   253
  5
68
 10
969354.642
 20
7304382.078
 30
0.0
  0
SEQEND
  8
1
  6
HIDDEN
 62
   253
  5
69
  0
TEXT
  8
19
  6
CONTINUOUS
 62
     1
  5
6B
 10
963953.147
 20
7299317.78
 30
0.0
 40
24.0
  1
N GUAVA AVE
 50
87.9897
  7
ROMANC
 72
     4
 11
963946.523636
 21
7299471.167746
 31
0.0
210
0.0
220
0.0
230
1.0
  0
TEXT
  8
19
  6
CONTINUOUS
 62
     1
  5
6C
 10
964179.449
 20
7299174.374
 30
0.0
 40
24.0
  1
E BLUEFIELD ST
 50
357.9897
  7
ROMANC
 72
     4
 11
964354.365488
 21
7299180.241689
 31
0.0
210
0.0
220
0.0
230
1.0
  0
TEXT
  8
19
  6
CONTINUOUS
 62
     1
  5
6D
 10
964013.61
 20
7300893.399
 30
0.0
 40
24.0
  1
N GUAVA AVE
 50
87.9897
  7
ROMANC
 72
     4
 11
964006.986636
 21
7301046.786746
 31
0.0
210
0.0
220
0.0
230
1.0
  0
TEXT
  8
19
  6
CONTINUOUS
 62
     1
  5
6E
 10
966414.393
 20
7299094.857
 30
0.0
 40
24.0
  1
E BLUEFIELD ST
 50
357.9897
  7
ROMANC
 72
     4
 11
966589.309488
 21
7299100.724689
 31
0.0
210
0.0
220
0.0
230
1.0
  0
TEXT
  8
19
  6
CONTINUOUS
 62
     1
  5
6F
 10
968585.524
 20
7299021.42
 30
0.0
 40
24.0
  1
E BLUEFIELD ST
 50
357.9897
  7
ROMANC
 72
     4
 11
968760.440488
 21
7299027.287689
 31
0.0
210
0.0
220
0.0
230
1.0
  0
TEXT
  8
19
  6
CONTINUOUS
 62
     1
  5
70
 10
969171.143
 20
7299203.491
 30
0.0
 40
24.0
  1
N OLIVE AVE
 50
87.9897
  7
ROMANC
 72
     4
 11
969164.082164
 21
7299344.415422
 31
0.0
210
0.0
220
0.0
230
1.0
  0
TEXT
  8
19
  6
CONTINUOUS
 62
     1
  5
71
 10
969256.04
 20
7301501.853
 30
0.0
 40
24.0
  1
N OLIVE AVE
 50
87.9897
  7
ROMANC
 72
     4
 11
969248.979164
 21
7301642.777422
 31
0.0
210
0.0
220
0.0
230
1.0
  0
LINE
  8
58
  6
DIVIDE
 62
   216
  5
73
 10
966667.879
 20
7304393.206
 30
0.0
 11
969333.645
 21
7304299.635
 31
0.0
  0
LINE
  8
58
  6
DIVIDE
 62
   216
  5
74
 10
966668.932
 20
7304423.187
 30
0.0
 11
966667.879
 21
7304393.206
 31
0.0
  0
LINE
  8
58
  6
DIVIDE
 62
   216
  5
75
 10
969263.953
 20
7302314.235
 30
0.0
 11
964024.299
 21
7302498.151
 31
0.0
  0
POLYLINE
  8
58
  6
DIVIDE
 62
   216
  5
76
 66
     1
 10
0.0
 20
0.0
 30
0.0
  0
VERTEX
  8
58
  6
DIVIDE
 62
   216
  5
77
 10
964074.979
 20
7299168.01
 30
0.0
  0
VERTEX
  8
58
  6
DIVIDE
 62
   216
  5
78
 10
964076.032
 20
7299197.992
 30
0.0
  0
VERTEX
  8
58
  6
DIVIDE
 62
   216
  5
79
 10
963935.481
 20
7299202.925
 30
0.0
  0
SEQEND
  8
58
  6
DIVIDE
 62
   216
  5
7A
  0
TEXT
  8
10
  6
CONTINUOUS
 62
   134
  5
7C
 10
966537.457
 20
7301293.022
 30
0.0
 40
13.999
  1
UNSUBDIVIDED
 50
357.9897
  7
ROMANS
 11
966537.948073
 21
7301307.012384
 31
0.0
210
0.0
220
0.0
230
1.0
 73
     3
  0
TEXT
  8
11
  6
CONTINUOUS
 62
     7
  5
7E
 10
963913.048
 20
7299178.74
 30
0.0
 40
8.0
  1
15'
 50
87.9897
  7
ROMANS
 72
     4
 11
963909.377856
 21
7299188.207573
 31
0.0
210
0.0
220
0.0
230
1.0
  0
TEXT
  8
11
  6
CONTINUOUS
 62
     7
  5
7F
 10
963984.444
 20
7301251.607
 30
0.0
 40
8.0
  1
15'
 50
87.9897
  7
ROMANS
 72
     4
 11
963980.773856
 21
7301261.074573
 31
0.0
210
0.0
220
0.0
230
1.0
  0
TEXT
  8
11
  6
CONTINUOUS
 62
     7
  5
81
 10
963963.825
 20
7301309.283
 30
0.0
 40
8.0
  1
R=50'
 50
43.318914
  7
txt
 72
     4
 11
963973.363203
 21
7301323.775226
 31
0.0
210
0.0
220
0.0
230
1.0
  0
POLYLINE
  8
58
  6
DIVIDE
 62
   216
  5
82
 66
     1
 10
0.0
 20
0.0
 30
0.0
  0
VERTEX
  8
58
  6
DIVIDE
 62
   216
  5
83
 10
964115.696
 20
7304449.746
 30
0.0
  0
VERTEX
  8
58
  6
DIVIDE
 62
   216
  5
84
 10
964114.644
 20
7304419.764
 30
0.0
  0
VERTEX
  8
58
  6
DIVIDE
 62
   216
  5
85
 10
964084.662
 20
7304420.817
 30
0.0
  0
SEQEND
  8
58
  6
DIVIDE
 62
   216
  5
86
  0
ENDSEC
  0
EOF
