  0
SECTION
  2
HEADER
  9
$ACADVER
  1
AC1009
  9
$INSBASE
 10
0.0
 20
0.0
 30
0.0
  9
$EXTMIN
 10
942772.835
 20
7294386.811
 30
0.0
  9
$EXTMAX
 10
953708.493
 20
7305097.39
 30
0.0
  9
$LIMMIN
 10
0.0
 20
0.0
  9
$LIMMAX
 10
12.0
 20
9.0
  9
$ORTHOMODE
 70
     0
  9
$REGENMODE
 70
     1
  9
$FILLMODE
 70
     1
  9
$QTEXTMODE
 70
     0
  9
$MIRRTEXT
 70
     1
  9
$DRAGMODE
 70
     2
  9
$LTSCALE
 40
1.0
  9
$OSMODE
 70
     0
  9
$ATTMODE
 70
     1
  9
$TEXTSIZE
 40
0.2
  9
$TRACEWID
 40
0.05
  9
$TEXTSTYLE
  7
STANDARD
  9
$CLAYER
  8
0
  9
$CELTYPE
  6
CONTINUOUS
  9
$CECOLOR
 62
   256
  9
$DIMSCALE
 40
1.0
  9
$DIMASZ
 40
0.18
  9
$DIMEXO
 40
0.0625
  9
$DIMDLI
 40
0.38
  9
$DIMRND
 40
0.0
  9
$DIMDLE
 40
0.0
  9
$DIMEXE
 40
0.18
  9
$DIMTP
 40
0.0
  9
$DIMTM
 40
0.0
  9
$DIMTXT
 40
0.18
  9
$DIMCEN
 40
0.09
  9
$DIMTSZ
 40
0.0
  9
$DIMTOL
 70
     0
  9
$DIMLIM
 70
     0
  9
$DIMTIH
 70
     1
  9
$DIMTOH
 70
     1
  9
$DIMSE1
 70
     0
  9
$DIMSE2
 70
     0
  9
$DIMTAD
 70
     0
  9
$DIMZIN
 70
     0
  9
$DIMBLK
  1

  9
$DIMASO
 70
     1
  9
$DIMSHO
 70
     1
  9
$DIMPOST
  1

  9
$DIMAPOST
  1

  9
$DIMALT
 70
     0
  9
$DIMALTD
 70
     2
  9
$DIMALTF
 40
25.4
  9
$DIMLFAC
 40
1.0
  9
$DIMTOFL
 70
     0
  9
$DIMTVP
 40
0.0
  9
$DIMTIX
 70
     0
  9
$DIMSOXD
 70
     0
  9
$DIMSAH
 70
     0
  9
$DIMBLK1
  1

  9
$DIMBLK2
  1

  9
$DIMSTYLE
  2
STANDARD
  9
$DIMCLRD
 70
     0
  9
$DIMCLRE
 70
     0
  9
$DIMCLRT
 70
     0
  9
$DIMTFAC
 40
1.0
  9
$DIMGAP
 40
0.09
  9
$LUNITS
 70
     2
  9
$LUPREC
 70
     4
  9
$AXISMODE
 70
     0
  9
$AXISUNIT
 10
0.0
 20
0.0
  9
$SKETCHINC
 40
0.1
  9
$FILLETRAD
 40
0.0
  9
$AUNITS
 70
     0
  9
$AUPREC
 70
     0
  9
$MENU
  1
acad
  9
$ELEVATION
 40
0.0
  9
$PELEVATION
 40
0.0
  9
$THICKNESS
 40
0.0
  9
$LIMCHECK
 70
     0
  9
$BLIPMODE
 70
     1
  9
$CHAMFERA
 40
0.0
  9
$CHAMFERB
 40
0.0
  9
$SKPOLY
 70
     0
  9
$TDCREATE
 40
2453013.903136574
  9
$TDUPDATE
 40
2453013.903136574
  9
$TDINDWG
 40
0.0000000000
  9
$TDUSRTIMER
 40
0.0000000000
  9
$USRTIMER
 70
     1
  9
$ANGBASE
 50
0.0
  9
$ANGDIR
 70
     0
  9
$PDMODE
 70
     0
  9
$PDSIZE
 40
0.0
  9
$PLINEWID
 40
0.0
  9
$COORDS
 70
     0
  9
$SPLFRAME
 70
     0
  9
$SPLINETYPE
 70
     6
  9
$SPLINESEGS
 70
    10
  9
$ATTDIA
 70
     0
  9
$ATTREQ
 70
     1
  9
$HANDLING
 70
     1
  9
$HANDSEED
  5
167
  9
$SURFTAB1
 70
     6
  9
$SURFTAB2
 70
     6
  9
$SURFTYPE
 70
     6
  9
$SURFU
 70
     6
  9
$SURFV
 70
     6
  9
$UCSNAME
  2

  9
$UCSORG
 10
0.0
 20
0.0
 30
0.0
  9
$UCSXDIR
 10
1.0
 20
0.0
 30
0.0
  9
$UCSYDIR
 10
0.0
 20
1.0
 30
0.0
  9
$PUCSNAME
  2

  9
$PUCSORG
 10
0.0
 20
0.0
 30
0.0
  9
$PUCSXDIR
 10
1.0
 20
0.0
 30
0.0
  9
$PUCSYDIR
 10
0.0
 20
1.0
 30
0.0
  9
$USERI1
 70
     0
  9
$USERI2
 70
     0
  9
$USERI3
 70
     0
  9
$USERI4
 70
     0
  9
$USERI5
 70
     0
  9
$USERR1
 40
0.0
  9
$USERR2
 40
0.0
  9
$USERR3
 40
0.0
  9
$USERR4
 40
0.0
  9
$USERR5
 40
0.0
  9
$WORLDVIEW
 70
     1
  9
$SHADEDGE
 70
     3
  9
$SHADEDIF
 70
    70
  9
$TILEMODE
 70
     1
  9
$MAXACTVP
 70
    16
  9
$PINSBASE
 10
0.0
 20
0.0
 30
0.0
  9
$PLIMCHECK
 70
     0
  9
$PEXTMIN
 10
-1.000000E+20
 20
-1.000000E+20
 30
-1.000000E+20
  9
$PEXTMAX
 10
-1.000000E+20
 20
-1.000000E+20
 30
-1.000000E+20
  9
$PLIMMIN
 10
0.0
 20
0.0
  9
$PLIMMAX
 10
12.0
 20
9.0
  9
$UNITMODE
 70
     0
  9
$VISRETAIN
 70
     0
  9
$PLINEGEN
 70
     1
  9
$PSLTSCALE
 70
     0
  9
$TREEDEPTH
 70
  3020
  9
$DWGCODEPAGE
  3
ansi_1252
  0
ENDSEC
  0
SECTION
  2
TABLES
  0
TABLE
  2
VPORT
 70
     1
  0
VPORT
  2
*ACTIVE
 70
     0
 10
0.0
 20
0.0
 11
1.0
 21
1.0
 12
0.0
 22
0.0
 13
0.0
 23
0.0
 14
0.0
 24
0.0
 15
0.0
 25
0.0
 16
0.0
 26
0.0
 36
1.0
 17
948177.773285
 27
7304423.35
 37
0.0
 40
1292.046
 41
1.214674
 42
50.0
 43
0.004
 44
0.0
 50
0.0
 51
0.0
 71
     0
 72
   100
 73
     1
 74
     0
 75
     0
 76
     0
 77
     0
 78
     0
  0
ENDTAB
  0
TABLE
  2
LTYPE
 70
     7
  0
LTYPE
  2
CONTINUOUS
 70
     0
  3
Solid line
 72
    65
 73
     0
 40
0.0
  0
LTYPE
  2
DOT
 70
    64
  3
. . . . . . . . . . . . . . . . . . . . . . . . . . . . . . . . .
 72
    65
 73
     2
 40
0.25
 49
0.0
 49
-0.25
  0
LTYPE
  2
HIDDEN
 70
    64
  3
__ __ __ __ __ __ __ __ __ __ __ __ __ __ __ __ __ __ __ __ __ 
 72
    65
 73
     2
 40
0.375
 49
0.25
 49
-0.125
  0
LTYPE
  2
DASHED
 70
    64
  3
__ __ __ __ __ __ __ __ __ __ __ __ __ __ __ __ __ __ __ __ __
 72
    65
 73
     2
 40
0.75
 49
0.5
 49
-0.25
  0
LTYPE
  2
DASHDOT
 70
    64
  3
__ . __ . __ . __ . __ . __ . __ . __ . __ . __ . __ . __ . _
 72
    65
 73
     4
 40
1.0
 49
0.5
 49
-0.25
 49
0.0
 49
-0.25
  0
LTYPE
  2
DIVIDE
 70
    64
  3
____ . . ____ . . ____ . . ____ . . ____ . . ____ . . ____ . .
 72
    65
 73
     6
 40
1.25
 49
0.5
 49
-0.25
 49
0.0
 49
-0.25
 49
0.0
 49
-0.25
  0
LTYPE
  2
CENTER
 70
    64
  3
____ _ ____ _ ____ _ ____ _ ____ _ ____ _ ____ _ ____ _ ____ _
 72
    65
 73
     4
 40
2.0
 49
1.25
 49
-0.25
 49
0.25
 49
-0.25
  0
ENDTAB
  0
TABLE
  2
LAYER
 70
    26
  0
LAYER
  2
0
 70
     0
 62
     7
  6
CONTINUOUS
  0
LAYER
  2
CONSTRUCTION_CLASS
 70
     1
 62
     7
  6
CONTINUOUS
  0
LAYER
  2
PATTERN_CLASS
 70
     0
 62
     7
  6
CONTINUOUS
  0
LAYER
  2
6
 70
    64
 62
     7
  6
CONTINUOUS
  0
LAYER
  2
27
 70
    64
 62
     7
  6
CONTINUOUS
  0
LAYER
  2
10
 70
    64
 62
     7
  6
CONTINUOUS
  0
LAYER
  2
28
 70
    64
 62
     7
  6
CONTINUOUS
  0
LAYER
  2
11
 70
    64
 62
     7
  6
CONTINUOUS
  0
LAYER
  2
19
 70
    64
 62
     7
  6
CONTINUOUS
  0
LAYER
  2
21
 70
    64
 62
     7
  6
CONTINUOUS
  0
LAYER
  2
13
 70
    64
 62
     7
  6
CONTINUOUS
  0
LAYER
  2
22
 70
    64
 62
     7
  6
CONTINUOUS
  0
LAYER
  2
1
 70
    64
 62
     7
  6
CONTINUOUS
  0
LAYER
  2
58
 70
    64
 62
     7
  6
CONTINUOUS
  0
LAYER
  2
-6
 70
    64
 62
     7
  6
CONTINUOUS
  0
LAYER
  2
-27
 70
    64
 62
     7
  6
CONTINUOUS
  0
LAYER
  2
-19
 70
    64
 62
     7
  6
CONTINUOUS
  0
LAYER
  2
-11
 70
    64
 62
     7
  6
CONTINUOUS
  0
LAYER
  2
DEFPOINTS
 70
    64
 62
     7
  6
CONTINUOUS
  0
LAYER
  2
-58
 70
    64
 62
     7
  6
CONTINUOUS
  0
LAYER
  2
-1
 70
    64
 62
     7
  6
CONTINUOUS
  0
LAYER
  2
-10
 70
    64
 62
     7
  6
CONTINUOUS
  0
LAYER
  2
-28
 70
    64
 62
     7
  6
CONTINUOUS
  0
LAYER
  2
-15
 70
    64
 62
     7
  6
CONTINUOUS
  0
LAYER
  2
-22
 70
    64
 62
     7
  6
CONTINUOUS
  0
LAYER
  2
-13
 70
    64
 62
     7
  6
CONTINUOUS
  0
ENDTAB
  0
TABLE
  2
STYLE
 70
     4
  0
STYLE
  2
STANDARD
 70
     0
 40
0.0
 41
1.0
 50
0.0
 71
     0
 42
0.0
  3
txt
  4

  0
STYLE
  2
ROMANS
 70
     0
 40
0.2
 41
1.0
 50
0.0
 71
     0
 42
0.2
  3
ROMANS
  4

  0
STYLE
  2
ROMANC
 70
     0
 40
0.2
 41
1.0
 50
0.0
 71
     0
 42
0.2
  3
ROMANC
  4

  0
STYLE
  2
txt
 70
     0
 40
0.2
 41
1.0
 50
0.0
 71
     0
 42
0.2
  3
TXT
  4

  0
ENDTAB
  0
TABLE
  2
VIEW
 70
     0
  0
ENDTAB
  0
TABLE
  2
UCS
 70
     0
  0
ENDTAB
  0
TABLE
  2
APPID
 70
     1
  0
APPID
  2
ACAD
 70
     0
  0
ENDTAB
  0
TABLE
  2
DIMSTYLE
 70
     2
  0
DIMSTYLE
  2
STANDARD
 70
     0
  3

  4

  5

  6

  7

 40
1.0
 41
0.18
 42
0.0625
 43
0.38
 44
0.18
 45
0.0
 46
0.0
 47
0.0
 48
0.0
140
0.18
141
0.09
142
0.0
143
25.4
144
1.0
145
0.0
146
1.0
147
0.09
 71
     0
 72
     0
 73
     1
 74
     1
 75
     0
 76
     0
 77
     0
 78
     0
170
     0
171
     2
172
     0
173
     0
174
     0
175
     0
176
     0
177
     0
178
     0
  0
DIMSTYLE
  2
MSADIM
 70
     0
  3

  4

  5

  6

  7

 40
1.0
 41
8.0
 42
4.0
 43
0.0
 44
4.0
 45
0.0
 46
0.0
 47
0.0
 48
0.0
140
8.0
141
4.0
142
0.0
143
25.4
144
1.0
145
4.0
146
1.0
147
4.0
 71
     0
 72
     0
 73
     1
 74
     1
 75
     1
 76
     1
 77
     0
 78
     2
170
     0
171
     2
172
     0
173
     0
174
     0
175
     0
176
     0
177
     0
178
     0
  0
ENDTAB
  0
ENDSEC
  0
SECTION
  2
BLOCKS
  0
BLOCK
  8
-11
  6
CONTINUOUS
 62
     7
  5
C7
  2
*D0
 70
     1
 10
0.0
 20
0.0
 30
0.0
  3
*N0
  0
TEXT
  8
-11
  6
CONTINUOUS
 62
     7
  5
C8
 10
950171.604
 20
7304589.022
 30
0.0
 40
8.0
  1
S19%%d36'20"W
 50
70.394364
  7
ROMANS
 72
     1
 11
950178.450573
 21
7304632.08529
 31
0.0
210
0.0
220
0.0
230
1.0
 73
     3
  0
TEXT
  8
-11
  6
CONTINUOUS
 62
     7
  5
C9
 10
950162.414
 20
7304610.906
 30
0.0
 40
8.0
  1
686.79'
 50
70.394364
  7
ROMANS
 72
     1
 11
950170.914342
 21
7304634.770305
 31
0.0
210
0.0
220
0.0
230
1.0
  0
ENDBLK
  8
-11
  6
CONTINUOUS
 62
     7
  5
CA
  0
BLOCK
  8
-11
  6
CONTINUOUS
 62
     7
  5
CD
  2
*D1
 70
     1
 10
0.0
 20
0.0
 30
0.0
  3
*N1
  0
TEXT
  8
-11
  6
CONTINUOUS
 62
     7
  5
CE
 10
949214.597
 20
7302429.166
 30
0.0
 40
8.0
  1
S24%%d38'11"W
 50
65.363564
  7
ROMANS
 72
     1
 11
949225.193471
 21
7302471.463013
 31
0.0
210
0.0
220
0.0
230
1.0
 73
     3
  0
TEXT
  8
-11
  6
CONTINUOUS
 62
     7
  5
CF
 10
949205.694
 20
7302448.135
 30
0.0
 40
8.0
  1
4348.83'
 50
65.363564
  7
ROMANS
 72
     1
 11
949217.921723
 21
7302474.797852
 31
0.0
210
0.0
220
0.0
230
1.0
  0
ENDBLK
  8
-11
  6
CONTINUOUS
 62
     7
  5
D0
  0
ENDSEC
  0
SECTION
  2
ENTITIES
  0
LINE
  8
6
  6
CONTINUOUS
 62
     7
  5
29
 10
948154.213
 20
7299721.693
 30
0.0
 11
948300.106
 21
7300039.412
 31
0.0
  0
LINE
  8
27
  6
CONTINUOUS
 62
    32
  5
2B
 10
948099.996
 20
7299723.159
 30
0.0
 11
948303.696
 21
7300166.327
 31
0.0
  0
LINE
  8
6
  6
CONTINUOUS
 62
     7
  5
2C
 10
942994.975
 20
7299926.593
 30
0.0
 11
946812.958
 21
7299814.32
 31
0.0
  0
ARC
  8
6
  6
CONTINUOUS
 62
     7
  5
2D
 10
946706.387333
 20
7296047.32833
 30
0.0
 40
3768.498704
 50
78.530742
 51
88.3795
210
0.0
220
0.0
230
1.0
  0
LINE
  8
6
  6
CONTINUOUS
 62
     7
  5
2E
 10
942947.38
 20
7299976.958
 30
0.0
 11
943083.043
 21
7305092.187
 31
0.0
  0
LINE
  8
6
  6
CONTINUOUS
 62
     7
  5
2F
 10
942947.38
 20
7299976.958
 30
0.0
 11
942994.975
 21
7299926.593
 31
0.0
  0
TEXT
  8
10
  6
CONTINUOUS
 62
     4
  5
32
 10
945553.367
 20
7302562.329
 30
0.0
 40
13.999
  1
UNSUBDIVIDED
 50
358.3795
  7
ROMANS
 11
945553.762882
 21
7302576.322401
 31
0.0
210
0.0
220
0.0
230
1.0
 73
     3
  0
TEXT
  8
28
  6
CONTINUOUS
 62
    32
  5
35
 10
948081.653
 20
7299714.645
 30
0.0
 40
24.0
  1
A
 50
65.187839
  7
ROMANC
 72
     1
 11
948085.935055
 21
7299723.907053
 31
0.0
210
0.0
220
0.0
230
1.0
  0
TEXT
  8
28
  6
CONTINUOUS
 62
    32
  5
36
 10
948095.334
 20
7299744.234
 30
0.0
 40
24.0
  1
.
 50
65.187839
  7
ROMANC
 72
     1
 11
948096.008369
 21
7299745.692655
 31
0.0
210
0.0
220
0.0
230
1.0
  0
TEXT
  8
28
  6
CONTINUOUS
 62
    32
  5
37
 10
948101.042
 20
7299756.584
 30
0.0
 40
24.0
  1
 
 50
65.187839
  7
ROMANC
 72
     1
 11
948104.399158
 21
7299763.845507
 31
0.0
210
0.0
220
0.0
230
1.0
  0
TEXT
  8
28
  6
CONTINUOUS
 62
    32
  5
38
 10
948112.58
 20
7299781.541
 30
0.0
 40
24.0
  1
T
 50
65.187839
  7
ROMANC
 72
     1
 11
948116.148239
 21
7299789.259075
 31
0.0
210
0.0
220
0.0
230
1.0
  0
TEXT
  8
28
  6
CONTINUOUS
 62
    32
  5
39
 10
948125.548
 20
7299809.587
 30
0.0
 40
24.0
  1
.
 50
65.187839
  7
ROMANC
 72
     1
 11
948126.222369
 21
7299811.045655
 31
0.0
210
0.0
220
0.0
230
1.0
  0
TEXT
  8
28
  6
CONTINUOUS
 62
    32
  5
3A
 10
948131.257
 20
7299821.937
 30
0.0
 40
24.0
  1
 
 50
65.187839
  7
ROMANC
 72
     1
 11
948134.614158
 21
7299829.198507
 31
0.0
210
0.0
220
0.0
230
1.0
  0
TEXT
  8
28
  6
CONTINUOUS
 62
    32
  5
3B
 10
948142.954
 20
7299847.238
 30
0.0
 40
24.0
  1
&
 50
65.187839
  7
ROMANC
 72
     1
 11
948146.363614
 21
7299854.612968
 31
0.0
210
0.0
220
0.0
230
1.0
  0
TEXT
  8
28
  6
CONTINUOUS
 62
    32
  5
3C
 10
948151.4
 20
7299865.506
 30
0.0
 40
24.0
  1
 
 50
65.187839
  7
ROMANC
 72
     1
 11
948154.757158
 21
7299872.767507
 31
0.0
210
0.0
220
0.0
230
1.0
  0
TEXT
  8
28
  6
CONTINUOUS
 62
    32
  5
3D
 10
948163.175
 20
7299890.978
 30
0.0
 40
24.0
  1
S
 50
65.187839
  7
ROMANC
 72
     1
 11
948166.505301
 21
7299898.181415
 31
0.0
210
0.0
220
0.0
230
1.0
  0
TEXT
  8
28
  6
CONTINUOUS
 62
    32
  5
3E
 10
948175.905
 20
7299918.51
 30
0.0
 40
24.0
  1
.
 50
65.187839
  7
ROMANC
 72
     1
 11
948176.579369
 21
7299919.968655
 31
0.0
210
0.0
220
0.0
230
1.0
  0
TEXT
  8
28
  6
CONTINUOUS
 62
    32
  5
3F
 10
948182.844
 20
7299933.518
 30
0.0
 40
24.0
  1
F
 50
65.187839
  7
ROMANC
 72
     1
 11
948186.650178
 21
7299941.750734
 31
0.0
210
0.0
220
0.0
230
1.0
  0
TEXT
  8
28
  6
CONTINUOUS
 62
    32
  5
40
 10
948196.047
 20
7299962.079
 30
0.0
 40
24.0
  1
.
 50
65.187839
  7
ROMANC
 72
     1
 11
948196.721369
 21
7299963.537655
 31
0.0
210
0.0
220
0.0
230
1.0
  0
TEXT
  8
28
  6
CONTINUOUS
 62
    32
  5
41
 10
948201.757
 20
7299974.429
 30
0.0
 40
24.0
  1
 
 50
65.187839
  7
ROMANC
 72
     1
 11
948205.114158
 21
7299981.690507
 31
0.0
210
0.0
220
0.0
230
1.0
  0
TEXT
  8
28
  6
CONTINUOUS
 62
    32
  5
42
 10
948252.114
 20
7300083.351
 30
0.0
 40
24.0
  1
 
 50
65.187839
  7
ROMANC
 72
     1
 11
948255.471158
 21
7300090.612507
 31
0.0
210
0.0
220
0.0
230
1.0
  0
TEXT
  8
11
  6
CONTINUOUS
 62
     7
  5
44
 10
943171.413
 20
7305058.66
 30
0.0
 40
8.0
  1
50'
 50
358.3795
  7
ROMANS
210
0.0
220
0.0
230
1.0
  0
TEXT
  8
11
  6
CONTINUOUS
 62
     7
  5
45
 10
942912.242
 20
7299981.649
 30
0.0
 40
8.0
  1
50'
 50
358.3795
  7
ROMANS
210
0.0
220
0.0
230
1.0
  0
TEXT
  8
11
  6
CONTINUOUS
 62
     7
  5
46
 10
943152.154
 20
7299852.45
 30
0.0
 40
8.0
  1
105'
 50
88.3795
  7
ROMANS
210
0.0
220
0.0
230
1.0
  0
TEXT
  8
11
  6
CONTINUOUS
 62
     7
  5
47
 10
942957.873
 20
7299969.108
 30
0.0
 40
8.0
  1
7
 50
313.3795
  7
ROMANS
 72
     1
 11
942959.475369
 21
7299967.412328
 31
0.0
210
0.0
220
0.0
230
1.0
  0
TEXT
  8
11
  6
CONTINUOUS
 62
     7
  5
48
 10
942963.151
 20
7299963.524
 30
0.0
 40
8.0
  1
0
 50
313.3795
  7
ROMANS
 72
     1
 11
942964.97178
 21
7299961.597199
 31
0.0
210
0.0
220
0.0
230
1.0
  0
TEXT
  8
11
  6
CONTINUOUS
 62
     7
  5
49
 10
942969.555
 20
7299956.749
 30
0.0
 40
8.0
  1
.
 50
313.3795
  7
ROMANS
 72
     1
 11
942970.462986
 21
7299955.788143
 31
0.0
210
0.0
220
0.0
230
1.0
  0
TEXT
  8
11
  6
CONTINUOUS
 62
     7
  5
4A
 10
942974.358
 20
7299951.666
 30
0.0
 40
8.0
  1
7
 50
313.3795
  7
ROMANS
 72
     1
 11
942975.960369
 21
7299949.970328
 31
0.0
210
0.0
220
0.0
230
1.0
  0
TEXT
  8
11
  6
CONTINUOUS
 62
     7
  5
4B
 10
942980.544
 20
7299945.119
 30
0.0
 40
8.0
  1
1
 50
313.3795
  7
ROMANS
 72
     1
 11
942981.459541
 21
7299944.150148
 31
0.0
210
0.0
220
0.0
230
1.0
  0
TEXT
  8
11
  6
CONTINUOUS
 62
     7
  5
4C
 10
942986.039
 20
7299939.304
 30
0.0
 40
8.0
  1
'
 50
313.3795
  7
ROMANS
 72
     1
 11
942986.954541
 21
7299938.335148
 31
0.0
210
0.0
220
0.0
230
1.0
  0
TEXT
  8
11
  6
CONTINUOUS
 62
     7
  5
4D
 10
946770.837
 20
7299749.334
 30
0.0
 40
8.0
  1
105'
 50
88.3795
  7
ROMANS
210
0.0
220
0.0
230
1.0
  0
TEXT
  8
11
  6
CONTINUOUS
 62
     7
  5
4E
 10
947988.091
 20
7299752.875
 30
0.0
 40
8.0
  1
100'
 50
320.996689
  7
ROMANS
210
0.0
220
0.0
230
1.0
  0
TEXT
  8
11
  6
CONTINUOUS
 62
     7
  5
4F
 10
948272.361
 20
7300442.903
 30
0.0
 40
8.0
  1
60'
 50
358.3795
  7
ROMANS
210
0.0
220
0.0
230
1.0
  0
TEXT
  8
11
  6
CONTINUOUS
 62
     7
  5
50
 10
948213.052
 20
7300242.147
 30
0.0
 40
8.0
  1
100'
 50
320.996689
  7
ROMANS
210
0.0
220
0.0
230
1.0
  0
TEXT
  8
11
  6
CONTINUOUS
 62
     7
  5
51
 10
948312.898
 20
7301805.283
 30
0.0
 40
8.0
  1
60'
 50
358.3795
  7
ROMANS
210
0.0
220
0.0
230
1.0
  0
TEXT
  8
11
  6
CONTINUOUS
 62
     7
  5
52
 10
948373.807
 20
7304099.149
 30
0.0
 40
8.0
  1
60'
 50
358.3795
  7
ROMANS
210
0.0
220
0.0
230
1.0
  0
TEXT
  8
11
  6
CONTINUOUS
 62
     7
  5
53
 10
948400.897
 20
7304918.507
 30
0.0
 40
8.0
  1
60'
 50
358.3795
  7
ROMANS
210
0.0
220
0.0
230
1.0
  0
TEXT
  8
11
  6
CONTINUOUS
 62
     7
  5
54
 10
944939.45
 20
7299869.885
 30
0.0
 40
8.0
  1
710.81'
 50
358.3795
  7
ROMANS
 72
     4
 11
944964.885986
 21
7299873.167001
 31
0.0
210
0.0
220
0.0
230
1.0
  0
TEXT
  8
11
  6
CONTINUOUS
 62
     7
  5
55
 10
947210.866
 20
7299770.805
 30
0.0
 40
8.0
  1
8
 50
351.915886
  7
ROMANS
 72
     1
 11
947214.30083
 21
7299778.397419
 31
0.0
210
0.0
220
0.0
230
1.0
 73
     3
  0
TEXT
  8
11
  6
CONTINUOUS
 62
     7
  5
56
 10
947218.725
 20
7299769.689
 30
0.0
 40
8.0
  1
8
 50
351.915886
  7
ROMANS
 72
     1
 11
947222.15983
 21
7299777.281419
 31
0.0
210
0.0
220
0.0
230
1.0
 73
     3
  0
TEXT
  8
11
  6
CONTINUOUS
 62
     7
  5
57
 10
947226.583
 20
7299768.573
 30
0.0
 40
8.0
  1
9
 50
351.915886
  7
ROMANS
 72
     1
 11
947230.01783
 21
7299776.165419
 31
0.0
210
0.0
220
0.0
230
1.0
 73
     3
  0
TEXT
  8
11
  6
CONTINUOUS
 62
     7
  5
58
 10
947234.442
 20
7299767.456
 30
0.0
 40
8.0
  1
.
 50
351.915886
  7
ROMANS
 72
     1
 11
947236.875877
 21
7299775.190593
 31
0.0
210
0.0
220
0.0
230
1.0
 73
     3
  0
TEXT
  8
11
  6
CONTINUOUS
 62
     7
  5
59
 10
947242.298
 20
7299766.341
 30
0.0
 40
8.0
  1
6
 50
351.915886
  7
ROMANS
 72
     1
 11
947245.917972
 21
7299773.907122
 31
0.0
210
0.0
220
0.0
230
1.0
 73
     3
  0
TEXT
  8
11
  6
CONTINUOUS
 62
     7
  5
5A
 10
947250.157
 20
7299765.225
 30
0.0
 40
8.0
  1
'
 50
351.915886
  7
ROMANS
 72
     1
 11
947252.602757
 21
7299772.957905
 31
0.0
210
0.0
220
0.0
230
1.0
 73
     3
  0
TEXT
  8
11
  6
CONTINUOUS
 62
     7
  5
5B
 10
947200.675
 20
7299786.237
 30
0.0
 40
8.0
  1
R
 50
352.662558
  7
ROMANS
 72
     1
 11
947203.174364
 21
7299785.915164
 31
0.0
210
0.0
220
0.0
230
1.0
  0
TEXT
  8
11
  6
CONTINUOUS
 62
     7
  5
5C
 10
947208.547
 20
7299785.224
 30
0.0
 40
8.0
  1
=
 50
352.662558
  7
ROMANS
 72
     1
 11
947211.852707
 21
7299784.798333
 31
0.0
210
0.0
220
0.0
230
1.0
  0
TEXT
  8
11
  6
CONTINUOUS
 62
     7
  5
5D
 10
947216.451
 20
7299784.151
 30
0.0
 40
8.0
  1
3
 50
351.915886
  7
ROMANS
 72
     1
 11
947218.760816
 21
7299783.822918
 31
0.0
210
0.0
220
0.0
230
1.0
  0
TEXT
  8
11
  6
CONTINUOUS
 62
     7
  5
5E
 10
947224.31
 20
7299783.036
 30
0.0
 40
8.0
  1
7
 50
351.915886
  7
ROMANS
 72
     1
 11
947226.619816
 21
7299782.707918
 31
0.0
210
0.0
220
0.0
230
1.0
  0
TEXT
  8
11
  6
CONTINUOUS
 62
     7
  5
5F
 10
947232.167
 20
7299781.92
 30
0.0
 40
8.0
  1
6
 50
351.915886
  7
ROMANS
 72
     1
 11
947234.661958
 21
7299781.565621
 31
0.0
210
0.0
220
0.0
230
1.0
  0
TEXT
  8
11
  6
CONTINUOUS
 62
     7
  5
60
 10
947240.026
 20
7299780.803
 30
0.0
 40
8.0
  1
8
 50
351.915886
  7
ROMANS
 72
     1
 11
947242.335816
 21
7299780.474918
 31
0.0
210
0.0
220
0.0
230
1.0
  0
TEXT
  8
11
  6
CONTINUOUS
 62
     7
  5
61
 10
947247.884
 20
7299779.688
 30
0.0
 40
8.0
  1
.
 50
351.915886
  7
ROMANS
 72
     1
 11
947249.192863
 21
7299779.502091
 31
0.0
210
0.0
220
0.0
230
1.0
  0
TEXT
  8
11
  6
CONTINUOUS
 62
     7
  5
62
 10
947255.742
 20
7299778.571
 30
0.0
 40
8.0
  1
5
 50
351.915886
  7
ROMANS
 72
     1
 11
947258.062707
 21
7299778.241371
 31
0.0
210
0.0
220
0.0
230
1.0
  0
TEXT
  8
11
  6
CONTINUOUS
 62
     7
  5
63
 10
947263.633
 20
7299777.416
 30
0.0
 40
8.0
  1
'
 50
351.169217
  7
ROMANS
 72
     1
 11
947264.951187
 21
7299777.211209
 31
0.0
210
0.0
220
0.0
230
1.0
  0
TEXT
  8
11
  6
CONTINUOUS
 62
     7
  5
64
 10
948198.521
 20
7299673.015
 30
0.0
 40
8.0
  1
159.4'
 50
358.3795
  7
ROMANS
 72
     4
 11
948219.958585
 21
7299676.410118
 31
0.0
210
0.0
220
0.0
230
1.0
  0
TEXT
  8
11
  6
CONTINUOUS
 62
     7
  5
65
 10
948290.143
 20
7299801.871
 30
0.0
 40
8.0
  1
372.06'
 50
88.3795
  7
ROMANS
 72
     4
 11
948286.860999
 21
7299827.306986
 31
0.0
210
0.0
220
0.0
230
1.0
  0
TEXT
  8
11
  6
CONTINUOUS
 62
     7
  5
66
 10
948218.722
 20
7300068.384
 30
0.0
 40
8.0
  1
50'
 50
336.3795
  7
ROMANS
 72
     4
 11
948228.875783
 21
7300068.30936
 31
0.0
210
0.0
220
0.0
230
1.0
  0
TEXT
  8
11
  6
CONTINUOUS
 62
     7
  5
67
 10
948266.347
 20
7300044.252
 30
0.0
 40
8.0
  1
50'
 50
336.3795
  7
ROMANS
 72
     4
 11
948276.500783
 21
7300044.17736
 31
0.0
210
0.0
220
0.0
230
1.0
  0
TEXT
  8
11
  6
CONTINUOUS
 62
     7
  5
68
 10
948101.464
 20
7299680.213
 30
0.0
 40
8.0
  1
50'
 50
336.3795
  7
ROMANS
 72
     4
 11
948111.617783
 21
7299680.13836
 31
0.0
210
0.0
220
0.0
230
1.0
  0
TEXT
  8
11
  6
CONTINUOUS
 62
     7
  5
69
 10
948054.412
 20
7299700.186
 30
0.0
 40
8.0
  1
50'
 50
336.3795
  7
ROMANS
 72
     4
 11
948064.565783
 21
7299700.11136
 31
0.0
210
0.0
220
0.0
230
1.0
  0
TEXT
  8
11
  6
CONTINUOUS
 62
     7
  5
6A
 10
947850.494
 20
7299681.882
 30
0.0
 40
8.0
  1
328.61'
 50
358.3795
  7
ROMANS
 72
     4
 11
947875.929986
 21
7299685.164001
 31
0.0
210
0.0
220
0.0
230
1.0
  0
TEXT
  8
19
  6
CONTINUOUS
 62
     1
  5
6C
 10
942937.72
 20
7300064.632
 30
0.0
 40
24.0
  1
N UNIVERSITY AVE
 50
88.3795
  7
ROMANC
 72
     4
 11
942931.592271
 21
7300272.371371
 31
0.0
210
0.0
220
0.0
230
1.0
  0
TEXT
  8
19
  6
CONTINUOUS
 62
     1
  5
6D
 10
943988.219
 20
7299853.582
 30
0.0
 40
24.0
  1
FARM RD 2641 (BLUEFIELD ST)
 50
358.3795
  7
ROMANC
 72
     4
 11
944318.834208
 21
7299856.233497
 31
0.0
210
0.0
220
0.0
230
1.0
  0
TEXT
  8
19
  6
CONTINUOUS
 62
     1
  5
6E
 10
942977.591
 20
7302268.848
 30
0.0
 40
24.0
  1
N UNIVERSITY AVE
 50
88.3795
  7
ROMANC
 72
     4
 11
942971.463271
 21
7302476.587371
 31
0.0
210
0.0
220
0.0
230
1.0
  0
TEXT
  8
19
  6
CONTINUOUS
 62
     1
  5
6F
 10
943033.276
 20
7304266.682
 30
0.0
 40
24.0
  1
N UNIVERSITY AVE
 50
88.3795
  7
ROMANC
 72
     4
 11
943027.148271
 21
7304474.421371
 31
0.0
210
0.0
220
0.0
230
1.0
  0
TEXT
  8
19
  6
CONTINUOUS
 62
     1
  5
70
 10
943301.236
 20
7305061.404
 30
0.0
 40
24.0
  1
STONEHILL ST
 50
358.3795
  7
ROMANC
 72
     4
 11
943447.774857
 21
7305069.263128
 31
0.0
210
0.0
220
0.0
230
1.0
  0
TEXT
  8
19
  6
CONTINUOUS
 62
     1
  5
71
 10
945792.272
 20
7304988.57
 30
0.0
 40
24.0
  1
STONEHILL ST
 50
358.3795
  7
ROMANC
 72
     4
 11
945938.810857
 21
7304996.429128
 31
0.0
210
0.0
220
0.0
230
1.0
  0
TEXT
  8
19
  6
CONTINUOUS
 62
     1
  5
72
 10
948023.515
 20
7304921.454
 30
0.0
 40
24.0
  1
STONEHILL ST
 50
358.3795
  7
ROMANC
 72
     4
 11
948170.053857
 21
7304929.313128
 31
0.0
210
0.0
220
0.0
230
1.0
  0
TEXT
  8
19
  6
CONTINUOUS
 62
     1
  5
73
 10
948413.408
 20
7304545.286
 30
0.0
 40
24.0
  1
N AVE Q
 50
88.3795
  7
ROMANC
 72
     4
 11
948404.041925
 21
7304638.558169
 31
0.0
210
0.0
220
0.0
230
1.0
  0
TEXT
  8
19
  6
CONTINUOUS
 62
     1
  5
74
 10
948351.08
 20
7302379.046
 30
0.0
 40
24.0
  1
N AVE Q
 50
88.3795
  7
ROMANC
 72
     4
 11
948341.713925
 21
7302472.318169
 31
0.0
210
0.0
220
0.0
230
1.0
  0
TEXT
  8
19
  6
CONTINUOUS
 62
     1
  5
75
 10
945796.874
 20
7299799.425
 30
0.0
 40
24.0
  1
FARM RD 2641 (BLUEFIELD ST)
 50
358.3795
  7
ROMANC
 72
     4
 11
946127.489208
 21
7299802.076497
 31
0.0
210
0.0
220
0.0
230
1.0
  0
TEXT
  8
19
  6
CONTINUOUS
 62
     1
  5
76
 10
948300.11
 20
7300587.982
 30
0.0
 40
24.0
  1
N AVE Q
 50
88.3795
  7
ROMANC
 72
     4
 11
948290.743925
 21
7300681.254169
 31
0.0
210
0.0
220
0.0
230
1.0
  0
POLYLINE
  8
21
  6
DASHDOT
 62
     7
  5
78
 66
     1
 10
0.0
 20
0.0
 30
0.0
  0
VERTEX
  8
21
  6
DASHDOT
 62
     7
  5
79
 10
948021.351
 20
7299675.591
 30
0.0
  0
VERTEX
  8
21
  6
DASHDOT
 62
     7
  5
7A
 10
947934.616
 20
7299678.046
 30
0.0
  0
VERTEX
  8
21
  6
DASHDOT
 62
     7
  5
7B
 10
948084.682
 20
7300008.717
 30
0.0
  0
VERTEX
  8
21
  6
DASHDOT
 62
     7
  5
7C
 10
948084.681961
 20
7300008.716506
 30
0.0
 42
0.099593
  0
VERTEX
  8
21
  6
DASHDOT
 62
     7
  5
7D
 10
948249.259448
 20
7300719.61772
 30
0.0
  0
VERTEX
  8
21
  6
DASHDOT
 62
     7
  5
7E
 10
948249.26
 20
7300719.617
 30
0.0
  0
VERTEX
  8
21
  6
DASHDOT
 62
     7
  5
7F
 10
948294.607
 20
7302284.681
 30
0.0
  0
VERTEX
  8
21
  6
DASHDOT
 62
     7
  5
80
 10
948354.583
 20
7302282.984
 30
0.0
  0
VERTEX
  8
21
  6
DASHDOT
 62
     7
  5
81
 10
948296.609
 20
7300282.124
 30
0.0
  0
VERTEX
  8
21
  6
DASHDOT
 62
     7
  5
82
 10
948021.358
 20
7299675.609
 30
0.0
  0
VERTEX
  8
21
  6
DASHDOT
 62
     7
  5
83
 10
948021.351
 20
7299675.591
 30
0.0
  0
SEQEND
  8
21
  6
DASHDOT
 62
     7
  5
84
  0
TEXT
  8
13
  6
CONTINUOUS
 62
    14
  5
87
 10
948220.006
 20
7300310.278
 30
0.0
 40
8.0
  1
V1337 P485
 50
358.3795
  7
txt
 72
     4
 11
948257.992964
 21
7300313.204926
 31
0.0
210
0.0
220
0.0
230
1.0
  0
TEXT
  8
22
  6
CONTINUOUS
 62
     3
  5
89
 10
948221.829
 20
7300354.098
 30
0.0
 40
6.0
  1
WARRANTY DEED
 50
358.3795
  7
txt
 72
     4
 11
948260.754298
 21
7300355.99798
 31
0.0
210
0.0
220
0.0
230
1.0
  0
POLYLINE
  8
21
  6
DASHDOT
 62
     7
  5
8A
 66
     1
 10
0.0
 20
0.0
 30
0.0
  0
VERTEX
  8
21
  6
DASHDOT
 62
     7
  5
8B
 10
948440.739
 20
7304883.95
 30
0.0
  0
VERTEX
  8
21
  6
DASHDOT
 62
     7
  5
8C
 10
948365.353
 20
7302282.161
 30
0.0
  0
VERTEX
  8
21
  6
DASHDOT
 62
     7
  5
8D
 10
948305.377
 20
7302283.858
 30
0.0
  0
VERTEX
  8
21
  6
DASHDOT
 62
     7
  5
8E
 10
948355.109
 20
7304000.31
 30
0.0
  0
VERTEX
  8
21
  6
DASHDOT
 62
     7
  5
8F
 10
948355.109378
 20
7304000.309349
 30
0.0
 42
0.07939
  0
VERTEX
  8
21
  6
DASHDOT
 62
     7
  5
90
 10
948279.734157
 20
7304579.188312
 30
0.0
  0
VERTEX
  8
21
  6
DASHDOT
 62
     7
  5
91
 10
948279.735
 20
7304579.188
 30
0.0
  0
VERTEX
  8
21
  6
DASHDOT
 62
     7
  5
92
 10
948187.5
 20
7304890.628
 30
0.0
  0
VERTEX
  8
21
  6
DASHDOT
 62
     7
  5
93
 10
948440.718
 20
7304883.464
 30
0.0
  0
VERTEX
  8
21
  6
DASHDOT
 62
     7
  5
94
 10
948440.739
 20
7304883.95
 30
0.0
  0
SEQEND
  8
21
  6
DASHDOT
 62
     7
  5
95
  0
TEXT
  8
22
  6
CONTINUOUS
 62
     3
  5
96
 10
948329.878
 20
7302286.973
 30
0.0
 40
6.0
  1
60'
 50
358.3795
  7
txt
 72
     4
 11
948337.022013
 21
7302289.772092
 31
0.0
210
0.0
220
0.0
230
1.0
  0
TEXT
  8
13
  6
CONTINUOUS
 62
    14
  5
97
 10
948310.624
 20
7304756.783
 30
0.0
 40
8.0
  1
V1326 P342
 50
358.3795
  7
txt
 72
     4
 11
948348.17014
 21
7304759.722397
 31
0.0
210
0.0
220
0.0
230
1.0
  0
POLYLINE
  8
6
  6
CONTINUOUS
 62
     7
  5
98
 66
     1
 10
0.0
 20
0.0
 30
0.0
  0
VERTEX
  8
6
  6
CONTINUOUS
 62
     7
  5
99
 10
947890.541
 20
7297802.142
 30
0.0
  0
VERTEX
  8
6
  6
CONTINUOUS
 62
     7
  5
9A
 10
948040.607
 20
7298132.813
 30
0.0
  0
VERTEX
  8
6
  6
CONTINUOUS
 62
     7
  5
9B
 10
948040.607413
 20
7298132.812902
 30
0.0
 42
0.099593
  0
VERTEX
  8
6
  6
CONTINUOUS
 62
     7
  5
9C
 10
948205.1849
 20
7298843.714115
 30
0.0
  0
VERTEX
  8
6
  6
CONTINUOUS
 62
     7
  5
9D
 10
948205.185
 20
7298843.713
 30
0.0
  0
VERTEX
  8
6
  6
CONTINUOUS
 62
     7
  5
9E
 10
948250.532
 20
7300408.777
 30
0.0
  0
SEQEND
  8
6
  6
CONTINUOUS
 62
     7
  5
9F
  0
LINE
  8
6
  6
CONTINUOUS
 62
     7
  5
A0
 10
948297.386
 20
7300282.973
 30
0.0
 11
948044.868
 21
7299724.649
 31
0.0
  0
ARC
  8
6
  6
CONTINUOUS
 62
     7
  5
A1
 10
946506.004768
 20
7304053.88616
 30
0.0
 40
1849.880432
 50
358.34035
 51
16.497019
210
0.0
220
0.0
230
1.0
  0
LINE
  8
6
  6
CONTINUOUS
 62
     7
  5
A2
 10
948355.109
 20
7304000.31
 30
0.0
 11
948305.377
 21
7302283.858
 31
0.0
  0
LINE
  8
6
  6
CONTINUOUS
 62
     7
  5
A3
 10
948279.734
 20
7304579.188
 30
0.0
 11
948168.452
 21
7304954.945
 31
0.0
  0
POLYLINE
  8
1
  6
HIDDEN
 62
   253
  5
A5
 66
     1
 10
0.0
 20
0.0
 30
0.0
 70
     1
  0
VERTEX
  8
1
  6
HIDDEN
 62
   253
  5
A6
 10
943142.656
 20
7305090.841
 30
0.0
  0
VERTEX
  8
1
  6
HIDDEN
 62
   253
  5
A7
 10
948447.39
 20
7304947.403
 30
0.0
  0
VERTEX
  8
1
  6
HIDDEN
 62
   253
  5
A8
 10
948281.949
 20
7299718.24
 30
0.0
  0
VERTEX
  8
1
  6
HIDDEN
 62
   253
  5
A9
 10
942980.555
 20
7299861.556
 30
0.0
  0
SEQEND
  8
1
  6
HIDDEN
 62
   253
  5
AA
  0
LINE
  8
58
  6
DIVIDE
 62
   216
  5
AC
 10
947931.702
 20
7299727.708
 30
0.0
 11
948250.532
 21
7300408.777
 31
0.0
  0
POLYLINE
  8
58
  6
DIVIDE
 62
   216
  5
AD
 66
     1
 10
0.0
 20
0.0
 30
0.0
  0
VERTEX
  8
58
  6
DIVIDE
 62
   216
  5
AE
 10
945799.955
 20
7305020.048
 30
0.0
  0
VERTEX
  8
58
  6
DIVIDE
 62
   216
  5
AF
 10
948378.923
 20
7304947.088
 30
0.0
  0
VERTEX
  8
58
  6
DIVIDE
 62
   216
  5
B0
 10
948250.532
 20
7300408.777
 30
0.0
  0
SEQEND
  8
58
  6
DIVIDE
 62
   216
  5
B1
  0
TEXT
  8
11
  6
CONTINUOUS
 62
     7
  5
B2
 10
948188.777
 20
7299808.139
 30
0.0
 40
8.0
  1
404.77'
 50
65.187864
  7
ROMANS
 72
     1
 11
948199.40785
 21
7299831.133476
 31
0.0
210
0.0
220
0.0
230
1.0
  0
LINE
  8
-6
  6
CONTINUOUS
 62
     7
  5
B4
 10
953156.206
 20
7302291.929
 30
0.0
 11
953270.588
 21
7303733.827
 31
0.0
  0
LINE
  8
-6
  6
CONTINUOUS
 62
     7
  5
B5
 10
953156.206
 20
7302291.929
 30
0.0
 11
953148.176
 21
7302018.102
 31
0.0
  0
ARC
  8
-6
  6
CONTINUOUS
 62
     7
  5
B6
 10
953259.644879
 20
7302020.021787
 30
0.0
 40
67.436145
 50
88.3203
 51
134.548483
210
0.0
220
0.0
230
1.0
  0
LINE
  8
-6
  6
CONTINUOUS
 62
     7
  5
B7
 10
948300.106
 20
7300039.412
 30
0.0
 11
950206.354
 21
7304190.471
 31
0.0
  0
LINE
  8
-6
  6
CONTINUOUS
 62
     7
  5
B8
 10
950115.527
 20
7304232.308
 30
0.0
 11
948296.609
 21
7300282.124
 31
0.0
  0
LINE
  8
-27
  6
CONTINUOUS
 62
    32
  5
BA
 10
948286.838
 20
7300130.374
 30
0.0
 11
950160.915
 21
7304211.334
 31
0.0
  0
TEXT
  8
-19
  6
CONTINUOUS
 62
     1
  5
BC
 10
953277.649
 20
7299914.375
 30
0.0
 40
24.0
  1
INTERSTATE  27
 50
88.3203
  7
ROMANC
 72
     4
 11
953270.694635
 21
7300086.611856
 31
0.0
210
0.0
220
0.0
230
1.0
  0
TEXT
  8
-19
  6
CONTINUOUS
 62
     1
  5
BD
 10
953259.157
 20
7300887.75
 30
0.0
 40
24.0
  1
INTERSTATE  27
 50
88.3203
  7
ROMANC
 72
     4
 11
953252.202635
 21
7301059.986856
 31
0.0
210
0.0
220
0.0
230
1.0
  0
TEXT
  8
-19
  6
CONTINUOUS
 62
     1
  5
BE
 10
953307.889
 20
7302549.552
 30
0.0
 40
24.0
  1
INTERSTATE  27
 50
88.3203
  7
ROMANC
 72
     4
 11
953300.934635
 21
7302721.788856
 31
0.0
210
0.0
220
0.0
230
1.0
  0
TEXT
  8
-19
  6
CONTINUOUS
 62
     1
  5
BF
 10
953372.073
 20
7303936.309
 30
0.0
 40
24.0
  1
INTERSTATE  27
 50
88.3203
  7
ROMANC
 72
     4
 11
953365.118635
 21
7304108.545856
 31
0.0
210
0.0
220
0.0
230
1.0
  0
TEXT
  8
-11
  6
CONTINUOUS
 62
     7
  5
C1
 10
948238.256
 20
7299779.11
 30
0.0
 40
8.0
  1
60'
 50
358.3203
  7
ROMANS
210
0.0
220
0.0
230
1.0
  0
TEXT
  8
-11
  6
CONTINUOUS
 62
     7
  5
C2
 10
948389.231
 20
7304928.886
 30
0.0
 40
8.0
  1
60'
 50
358.3203
  7
ROMANS
210
0.0
220
0.0
230
1.0
  0
TEXT
  8
-11
  6
CONTINUOUS
 62
     7
  5
C3
 10
949497.127
 20
7304917.154
 30
0.0
 40
8.0
  1
1847.59'
 50
358.3203
  7
ROMANS
 72
     4
 11
949526.564644
 21
7304920.29247
 31
0.0
210
0.0
220
0.0
230
1.0
  0
INSERT
  8
-11
  6
CONTINUOUS
 62
     7
  5
CB
  2
*D0
 10
950274.356
 20
7304913.256
 30
0.0
 70
     0
 71
     0
  0
INSERT
  8
-11
  6
CONTINUOUS
 62
     7
  5
D1
  2
*D1
 10
950043.909
 20
7304266.287
 30
0.0
 70
     0
 71
     0
  0
TEXT
  8
-11
  6
CONTINUOUS
 62
     7
  5
D2
 10
950270.701
 20
7304856.973
 30
0.0
 40
8.0
  1
50'
 50
338.3203
  7
ROMANS
 72
     4
 11
950280.851487
 21
7304857.24228
 31
0.0
210
0.0
220
0.0
230
1.0
  0
TEXT
  8
-11
  6
CONTINUOUS
 62
     7
  5
D3
 10
950323.035
 20
7304840.643
 30
0.0
 40
8.0
  1
50'
 50
338.3203
  7
ROMANS
 72
     4
 11
950333.185487
 21
7304840.91228
 31
0.0
210
0.0
220
0.0
230
1.0
  0
TEXT
  8
-11
  6
CONTINUOUS
 62
     7
  5
D4
 10
950098.86
 20
7304160.164
 30
0.0
 40
8.0
  1
50'
 50
338.3203
  7
ROMANS
 72
     4
 11
950109.010487
 21
7304160.43328
 31
0.0
210
0.0
220
0.0
230
1.0
  0
TEXT
  8
-11
  6
CONTINUOUS
 62
     7
  5
D5
 10
950151.487
 20
7304146.222
 30
0.0
 40
8.0
  1
50'
 50
338.3203
  7
ROMANS
 72
     4
 11
950161.637487
 21
7304146.49128
 31
0.0
210
0.0
220
0.0
230
1.0
  0
TEXT
  8
-11
  6
CONTINUOUS
 62
     7
  5
D6
 10
948313.796
 20
7300449.551
 30
0.0
 40
8.0
  1
50'
 50
338.3203
  7
ROMANS
 72
     4
 11
948323.946487
 21
7300449.82028
 31
0.0
210
0.0
220
0.0
230
1.0
  0
TEXT
  8
-11
  6
CONTINUOUS
 62
     7
  5
D7
 10
948411.099
 20
7300349.96
 30
0.0
 40
8.0
  1
50'
 50
338.3203
  7
ROMANS
 72
     4
 11
948421.249487
 21
7300350.22928
 31
0.0
210
0.0
220
0.0
230
1.0
  0
TEXT
  8
-19
  6
CONTINUOUS
 62
     1
  5
D8
 10
948387.737
 20
7304562.946
 30
0.0
 40
24.0
  1
N AVE Q
 50
88.3203
  7
ROMANC
 72
     4
 11
948378.467302
 21
7304656.227797
 31
0.0
210
0.0
220
0.0
230
1.0
  0
TEXT
  8
-19
  6
CONTINUOUS
 62
     1
  5
D9
 10
948328.916
 20
7302395.639
 30
0.0
 40
24.0
  1
N AVE Q
 50
88.3203
  7
ROMANC
 72
     4
 11
948319.646302
 21
7302488.920797
 31
0.0
210
0.0
220
0.0
230
1.0
  0
TEXT
  8
-19
  6
CONTINUOUS
 62
     1
  5
DA
 10
948277.087
 20
7300605.564
 30
0.0
 40
24.0
  1
N AVE Q
 50
88.3203
  7
ROMANC
 72
     4
 11
948267.817302
 21
7300698.845797
 31
0.0
210
0.0
220
0.0
230
1.0
  0
LINE
  8
-58
  6
DIVIDE
 62
   216
  5
DC
 10
948281.949
 20
7299718.24
 30
0.0
 11
948447.39
 21
7304947.403
 31
0.0
  0
ARC
  8
-6
  6
CONTINUOUS
 62
     7
  5
DD
 10
946202.897856
 20
7304035.539179
 30
0.0
 40
2258.82245
 50
356.171272
 51
18.953022
210
0.0
220
0.0
230
1.0
  0
POLYLINE
  8
-1
  6
HIDDEN
 62
   253
  5
DF
 66
     1
 10
0.0
 20
0.0
 30
0.0
 70
     1
  0
VERTEX
  8
-1
  6
HIDDEN
 62
   253
  5
E0
 10
948447.39
 20
7304947.403
 30
0.0
  0
VERTEX
  8
-1
  6
HIDDEN
 62
   253
  5
E1
 10
953708.493
 20
7304805.145
 30
0.0
  0
VERTEX
  8
-1
  6
HIDDEN
 62
   253
  5
E2
 10
953545.168
 20
7299575.956
 30
0.0
  0
VERTEX
  8
-1
  6
HIDDEN
 62
   253
  5
E3
 10
948281.949
 20
7299718.24
 30
0.0
  0
SEQEND
  8
-1
  6
HIDDEN
 62
   253
  5
E4
  0
LINE
  8
-6
  6
CONTINUOUS
 62
     7
  5
E5
 10
948325.61
 20
7300345.105
 30
0.0
 11
948456.679
 21
7303884.708
 31
0.0
  0
ARC
  8
-6
  6
CONTINUOUS
 62
     7
  5
E6
 10
948328.186257
 20
7305058.257389
 30
0.0
 40
1968.953865
 50
335.197833
 51
358.386964
210
0.0
220
0.0
230
1.0
  0
ARC
  8
-6
  6
CONTINUOUS
 62
     7
  5
E7
 10
948328.186096
 20
7305058.25803
 30
0.0
 40
2068.953865
 50
335.197833
 51
358.386964
210
0.0
220
0.0
230
1.0
  0
ARC
  8
-27
  6
CONTINUOUS
 62
    32
  5
E8
 10
948328.186177
 20
7305058.257709
 30
0.0
 40
2018.953865
 50
335.197833
 51
358.386964
210
0.0
220
0.0
230
1.0
  0
ARC
  8
-6
  6
CONTINUOUS
 62
     7
  5
E9
 10
956975.043081
 20
7304064.41805
 30
0.0
 40
3696.259594
 50
168.441444
 51
180.077917
210
0.0
220
0.0
230
1.0
  0
LINE
  8
-6
  6
CONTINUOUS
 62
     7
  5
EA
 10
953270.588
 20
7303733.827
 30
0.0
 11
953278.787
 21
7304059.391
 31
0.0
  0
LINE
  8
-6
  6
CONTINUOUS
 62
     7
  5
EB
 10
953148.176
 20
7302018.102
 30
0.0
 11
953193.253
 21
7300722.065
 31
0.0
  0
LINE
  8
-6
  6
CONTINUOUS
 62
     7
  5
EC
 10
953193.253
 20
7300722.065
 30
0.0
 11
953185.973
 21
7300374.302
 31
0.0
  0
ARC
  8
-6
  6
CONTINUOUS
 62
     7
  5
ED
 10
956524.098029
 20
7300256.783759
 30
0.0
 40
3340.192992
 50
177.983742
 51
192.399683
210
0.0
220
0.0
230
1.0
  0
LINE
  8
-58
  6
DIVIDE
 62
   216
  5
EE
 10
948281.949
 20
7299718.24
 30
0.0
 11
953544.792
 21
7299563.909
 31
0.0
  0
TEXT
  8
-10
  6
CONTINUOUS
 62
   134
  5
F0
 10
948970.801
 20
7303728.71
 30
0.0
 40
13.999
  1
UNSUBDIVIDED
 50
358.3203
  7
ROMANS
 11
948971.21134
 21
7303742.702985
 31
0.0
210
0.0
220
0.0
230
1.0
 73
     3
  0
TEXT
  8
-10
  6
CONTINUOUS
 62
   134
  5
F1
 10
951289.435
 20
7302237.129
 30
0.0
 40
13.999
  1
UNSUBDIVIDED
 50
358.3203
  7
ROMANS
 11
951289.84534
 21
7302251.121985
 31
0.0
210
0.0
220
0.0
230
1.0
 73
     3
  0
TEXT
  8
-28
  6
CONTINUOUS
 62
    32
  5
F3
 10
948451.955
 20
7300533.625
 30
0.0
 40
24.0
  1
ATCHISON TOPEKA & SANTA FE RAILROAD
 50
65.0
  7
txt
 72
     4
 11
948610.022647
 21
7300900.996582
 31
0.0
210
0.0
220
0.0
230
1.0
  0
TEXT
  8
-28
  6
CONTINUOUS
 62
    32
  5
F4
 10
949755.245
 20
7303350.076
 30
0.0
 40
24.0
  1
ATCHISON TOPEKA & SANTA FE RAILROAD
 50
65.0
  7
txt
 72
     4
 11
949913.312647
 21
7303717.447582
 31
0.0
210
0.0
220
0.0
230
1.0
  0
LINE
  8
-6
  6
CONTINUOUS
 62
     7
  5
F5
 10
953270.588
 20
7303733.827
 30
0.0
 11
953278.787
 21
7304059.391
 31
0.0
  0
POLYLINE
  8
-1
  6
HIDDEN
 62
   253
  5
F6
 66
     1
 10
0.0
 20
0.0
 30
0.0
 70
     1
  0
VERTEX
  8
-1
  6
HIDDEN
 62
   253
  5
F7
 10
948281.949
 20
7299718.24
 30
0.0
  0
VERTEX
  8
-1
  6
HIDDEN
 62
   253
  5
F8
 10
942980.555
 20
7299861.556
 30
0.0
  0
VERTEX
  8
-1
  6
HIDDEN
 62
   253
  5
F9
 10
942818.036
 20
7294618.83
 30
0.0
  0
VERTEX
  8
-1
  6
HIDDEN
 62
   253
  5
FA
 10
948115.954
 20
7294471.599
 30
0.0
  0
SEQEND
  8
-1
  6
HIDDEN
 62
   253
  5
FB
  0
TEXT
  8
-19
  6
CONTINUOUS
 62
     1
  5
FC
 10
942910.886
 20
7295649.248
 30
0.0
 40
24.0
  1
N UNIVERSITY AVE
 50
88.1874
  7
ROMANC
 72
     4
 11
942905.454808
 21
7295857.006748
 31
0.0
210
0.0
220
0.0
230
1.0
  0
TEXT
  8
-19
  6
CONTINUOUS
 62
     1
  5
FD
 10
942881.044
 20
7298392.888
 30
0.0
 40
24.0
  1
N UNIVERSITY AVE
 50
88.1874
  7
ROMANC
 72
     4
 11
942875.612808
 21
7298600.646748
 31
0.0
210
0.0
220
0.0
230
1.0
  0
TEXT
  8
-19
  6
CONTINUOUS
 62
     1
  5
FE
 10
944859.63
 20
7299774.453
 30
0.0
 40
24.0
  1
FARM RD 2641 (BLUEFIELD ST)
 50
358.1874
  7
ROMANC
 72
     4
 11
945190.25224
 21
7299775.996005
 31
0.0
210
0.0
220
0.0
230
1.0
  0
TEXT
  8
-19
  6
CONTINUOUS
 62
     1
  5
FF
 10
947595.784
 20
7299625.73
 30
0.0
 40
24.0
  1
FARM RD 2641 (BLUEFIELD ST)
 50
343.1874
  7
ROMANC
 72
     4
 11
947915.539919
 21
7299541.649096
 31
0.0
210
0.0
220
0.0
230
1.0
  0
TEXT
  8
-19
  6
CONTINUOUS
 62
     1
  5
100
 10
948197.639
 20
7298048.817
 30
0.0
 40
24.0
  1
N AVE P
 50
88.1874
  7
ROMANC
 72
     4
 11
948188.603664
 21
7298142.687763
 31
0.0
210
0.0
220
0.0
230
1.0
  0
TEXT
  8
-19
  6
CONTINUOUS
 62
     1
  5
101
 10
948132.253
 20
7295459.617
 30
0.0
 40
24.0
  1
N AVE P
 50
88.1874
  7
ROMANC
 72
     4
 11
948123.217664
 21
7295553.487763
 31
0.0
210
0.0
220
0.0
230
1.0
  0
LINE
  8
-6
  6
CONTINUOUS
 62
     7
  5
102
 10
942955.996
 20
7299822.397
 30
0.0
 11
946841.027
 21
7299691.165
 31
0.0
  0
ARC
  8
-6
  6
CONTINUOUS
 62
     7
  5
103
 10
946735.992111
 20
7295940.796892
 30
0.0
 40
3751.838653
 50
74.838775
 51
88.395761
210
0.0
220
0.0
230
1.0
  0
LINE
  8
-6
  6
CONTINUOUS
 62
     7
  5
104
 10
942802.108
 20
7294577.404
 30
0.0
 11
942862.234
 21
7296865.553
 31
0.0
  0
LINE
  8
-6
  6
CONTINUOUS
 62
     7
  5
105
 10
942802.108
 20
7294577.404
 30
0.0
 11
947334.98
 21
7294435.177
 31
0.0
  0
LINE
  8
-6
  6
CONTINUOUS
 62
     7
  5
106
 10
942940.529
 20
7299807.879
 30
0.0
 11
942934.203
 21
7299607.979
 31
0.0
  0
ARC
  8
-6
  6
CONTINUOUS
 62
     7
  5
107
 10
942955.521884
 20
7299807.404427
 30
0.0
 40
15.0
 50
88.1874
 51
178.1874
210
0.0
220
0.0
230
1.0
  0
LINE
  8
-6
  6
CONTINUOUS
 62
     7
  5
108
 10
942934.203
 20
7299607.979
 30
0.0
 11
942912.142
 21
7299227.004
 31
0.0
  0
TEXT
  8
-11
  6
CONTINUOUS
 62
     7
  5
109
 10
942883.333
 20
7299190.172
 30
0.0
 40
8.0
  1
40'
 50
358.1874
  7
ROMANS
210
0.0
220
0.0
230
1.0
  0
TEXT
  8
-11
  6
CONTINUOUS
 62
     7
  5
10A
 10
942907.018
 20
7299772.848
 30
0.0
 40
8.0
  1
50'
 50
358.1874
  7
ROMANS
210
0.0
220
0.0
230
1.0
  0
TEXT
  8
-11
  6
CONTINUOUS
 62
     7
  5
10B
 10
943033.11
 20
7299825.395
 30
0.0
 40
8.0
  1
15'
 50
88.1874
  7
ROMANS
210
0.0
220
0.0
230
1.0
  0
LINE
  8
-6
  6
CONTINUOUS
 62
     7
  5
10C
 10
942862.677
 20
7297195.704
 30
0.0
 11
942912.142
 21
7299227.004
 31
0.0
  0
TEXT
  8
-19
  6
CONTINUOUS
 62
     1
  5
10D
 10
942945.424
 20
7297166.201
 30
0.0
 40
24.0
  1
REGIS ST
 50
358.1874
  7
ROMANC
 72
     4
 11
943038.727047
 21
7297175.254302
 31
0.0
210
0.0
220
0.0
230
1.0
  0
LINE
  8
-6
  6
CONTINUOUS
 62
     7
  5
10E
 10
948098.388
 20
7294410.202
 30
0.0
 11
947474.887
 21
7294430.753
 31
0.0
  0
TEXT
  8
-11
  6
CONTINUOUS
 62
     7
  5
10F
 10
948108.827
 20
7294392.587
 30
0.0
 40
8.0
  1
40'
 50
88.1874
  7
ROMANS
210
0.0
220
0.0
230
1.0
  0
POLYLINE
  8
-6
  6
CONTINUOUS
 62
     7
  5
110
 66
     1
 10
0.0
 20
0.0
 30
0.0
  0
VERTEX
  8
-6
  6
CONTINUOUS
 62
     7
  5
111
 10
947474.887
 20
7294430.753
 30
0.0
  0
VERTEX
  8
-6
  6
CONTINUOUS
 62
     7
  5
112
 10
947493.004
 20
7295003.226
 30
0.0
  0
VERTEX
  8
-6
  6
CONTINUOUS
 62
     7
  5
113
 10
947504.729
 20
7295373.74
 30
0.0
  0
VERTEX
  8
-6
  6
CONTINUOUS
 62
     7
  5
114
 10
947559.777
 20
7297445.056
 30
0.0
  0
SEQEND
  8
-6
  6
CONTINUOUS
 62
     7
  5
115
  0
POLYLINE
  8
-27
  6
CONTINUOUS
 62
    32
  5
116
 66
     1
 10
0.0
 20
0.0
 30
0.0
  0
VERTEX
  8
-27
  6
CONTINUOUS
 62
    32
  5
117
 10
947423.973
 20
7294402.679
 30
0.0
  0
VERTEX
  8
-27
  6
CONTINUOUS
 62
    32
  5
118
 10
947443.029
 20
7295004.807
 30
0.0
  0
VERTEX
  8
-27
  6
CONTINUOUS
 62
    32
  5
119
 10
947454.754
 20
7295375.322
 30
0.0
  0
VERTEX
  8
-27
  6
CONTINUOUS
 62
    32
  5
11A
 10
947509.795
 20
7297446.399
 30
0.0
  0
SEQEND
  8
-27
  6
CONTINUOUS
 62
    32
  5
11B
  0
POLYLINE
  8
-6
  6
CONTINUOUS
 62
     7
  5
11C
 66
     1
 10
0.0
 20
0.0
 30
0.0
  0
VERTEX
  8
-6
  6
CONTINUOUS
 62
     7
  5
11D
 10
947374.937
 20
7294433.923
 30
0.0
  0
VERTEX
  8
-6
  6
CONTINUOUS
 62
     7
  5
11E
 10
947404.779
 20
7295376.903
 30
0.0
  0
VERTEX
  8
-6
  6
CONTINUOUS
 62
     7
  5
11F
 10
947459.813
 20
7297447.742
 30
0.0
  0
SEQEND
  8
-6
  6
CONTINUOUS
 62
     7
  5
120
  0
ARC
  8
-6
  6
CONTINUOUS
 62
     7
  5
121
 10
953387.829007
 20
7297138.126282
 30
0.0
 40
5936.104273
 50
154.168417
 51
177.003497
210
0.0
220
0.0
230
1.0
  0
ARC
  8
-6
  6
CONTINUOUS
 62
     7
  5
122
 10
953391.745154
 20
7297138.258776
 30
0.0
 40
5840.023829
 50
153.744992
 51
176.995481
210
0.0
220
0.0
230
1.0
  0
LINE
  8
-6
  6
CONTINUOUS
 62
     7
  5
123
 10
947708.584
 20
7299674.355
 30
0.0
 11
947886.53
 21
7299621.441
 31
0.0
  0
LINE
  8
-6
  6
CONTINUOUS
 62
     7
  5
124
 10
948079.12
 20
7299560.812
 30
0.0
 11
948275.124
 21
7299502.528
 31
0.0
  0
LINE
  8
-6
  6
CONTINUOUS
 62
     7
  5
125
 10
947717.233
 20
7299562.048
 30
0.0
 11
947901.399
 21
7299507.283
 31
0.0
  0
LINE
  8
-6
  6
CONTINUOUS
 62
     7
  5
126
 10
948031.168
 20
7299449.878
 30
0.0
 11
948271.2
 21
7299378.501
 31
0.0
  0
ARC
  8
-27
  6
CONTINUOUS
 62
    32
  5
127
 10
953196.244649
 20
7297187.188024
 30
0.0
 40
5692.354516
 50
153.544364
 51
177.390036
210
0.0
220
0.0
230
1.0
  0
TEXT
  8
-19
  6
CONTINUOUS
 62
     1
  5
128
 10
943016.586
 20
7294550.013
 30
0.0
 40
24.0
  1
KENT ST
 50
358.1874
  7
ROMANC
 72
     4
 11
943104.885552
 21
7294559.224645
 31
0.0
210
0.0
220
0.0
230
1.0
  0
TEXT
  8
-19
  6
CONTINUOUS
 62
     1
  5
129
 10
944874.631
 20
7294491.213
 30
0.0
 40
24.0
  1
KENT ST
 50
358.1874
  7
ROMANC
 72
     4
 11
944962.930552
 21
7294500.424645
 31
0.0
210
0.0
220
0.0
230
1.0
  0
TEXT
  8
-19
  6
CONTINUOUS
 62
     1
  5
12A
 10
947618.82
 20
7294404.369
 30
0.0
 40
24.0
  1
KENT ST
 50
358.1874
  7
ROMANC
 72
     4
 11
947707.119552
 21
7294413.580645
 31
0.0
210
0.0
220
0.0
230
1.0
  0
TEXT
  8
-11
  6
CONTINUOUS
 62
     7
  5
12B
 10
942772.961
 20
7294588.882
 30
0.0
 40
8.0
  1
50'
 50
358.1874
  7
ROMANS
210
0.0
220
0.0
230
1.0
  0
TEXT
  8
-11
  6
CONTINUOUS
 62
     7
  5
12C
 10
942834.1
 20
7294536.503
 30
0.0
 40
8.0
  1
60'
 50
88.1874
  7
ROMANS
210
0.0
220
0.0
230
1.0
  0
LINE
  8
-6
  6
CONTINUOUS
 62
     7
  5
12D
 10
942862.677
 20
7297195.704
 30
0.0
 11
943525.345
 21
7297174.733
 31
0.0
  0
LINE
  8
-6
  6
CONTINUOUS
 62
     7
  5
12E
 10
942876.587
 20
7296908.12
 30
0.0
 11
942884.305
 21
7297151.998
 31
0.0
  0
LINE
  8
-6
  6
CONTINUOUS
 62
     7
  5
12F
 10
942862.234
 20
7296865.553
 30
0.0
 11
943514.907
 21
7296844.898
 31
0.0
  0
LINE
  8
-6
  6
CONTINUOUS
 62
     7
  5
130
 10
943505.797
 20
7296873.201
 30
0.0
 11
943514.464
 21
7297147.063
 31
0.0
  0
LINE
  8
-6
  6
CONTINUOUS
 62
     7
  5
131
 10
942899.772
 20
7297166.516
 30
0.0
 11
943514.464
 21
7297147.063
 31
0.0
  0
LINE
  8
-6
  6
CONTINUOUS
 62
     7
  5
132
 10
942891.105
 20
7296892.653
 30
0.0
 11
943505.797
 21
7296873.201
 31
0.0
  0
LINE
  8
-6
  6
CONTINUOUS
 62
     7
  5
133
 10
943514.907
 20
7296844.898
 30
0.0
 11
943525.345
 21
7297174.733
 31
0.0
  0
ARC
  8
-6
  6
CONTINUOUS
 62
     7
  5
134
 10
942899.297336
 20
7297151.52361
 30
0.0
 40
15.0
 50
88.1874
 51
178.1874
210
0.0
220
0.0
230
1.0
  0
ARC
  8
-6
  6
CONTINUOUS
 62
     7
  5
135
 10
942891.579479
 20
7296907.645701
 30
0.0
 40
15.0
 50
178.1874
 51
268.1874
210
0.0
220
0.0
230
1.0
  0
TEXT
  8
-11
  6
CONTINUOUS
 62
     7
  5
136
 10
942840.867
 20
7297116.027
 30
0.0
 40
8.0
  1
63'
 50
358.1874
  7
ROMANS
210
0.0
220
0.0
230
1.0
  0
TEXT
  8
-11
  6
CONTINUOUS
 62
     7
  5
137
 10
942835.8
 20
7297206.451
 30
0.0
 40
8.0
  1
40'
 50
358.1874
  7
ROMANS
210
0.0
220
0.0
230
1.0
  0
TEXT
  8
-11
  6
CONTINUOUS
 62
     7
  5
138
 10
942826.263
 20
7296841.513
 30
0.0
 40
8.0
  1
50'
 50
358.1874
  7
ROMANS
210
0.0
220
0.0
230
1.0
  0
TEXT
  8
-11
  6
CONTINUOUS
 62
     7
  5
139
 10
943161.665
 20
7297147.504
 30
0.0
 40
8.0
  1
615'
 50
358.1874
  7
ROMANS
210
0.0
220
0.0
230
1.0
  0
TEXT
  8
-11
  6
CONTINUOUS
 62
     7
  5
13A
 10
942893.31
 20
7297011.125
 30
0.0
 40
8.0
  1
244.01'
 50
88.1874
  7
ROMANS
210
0.0
220
0.0
230
1.0
  0
TEXT
  8
-11
  6
CONTINUOUS
 62
     7
  5
13B
 10
943504.034
 20
7296998.371
 30
0.0
 40
8.0
  1
274.01'
 50
88.1874
  7
ROMANS
210
0.0
220
0.0
230
1.0
  0
TEXT
  8
-11
  6
CONTINUOUS
 62
     7
  5
13C
 10
943146.215
 20
7296888.204
 30
0.0
 40
8.0
  1
615'
 50
358.1874
  7
ROMANS
210
0.0
220
0.0
230
1.0
  0
TEXT
  8
-11
  6
CONTINUOUS
 62
     7
  5
13D
 10
943514.355
 20
7297133.226
 30
0.0
 40
8.0
  1
10'
 50
358.1874
  7
ROMANS
210
0.0
220
0.0
230
1.0
  0
TEXT
  8
-11
  6
CONTINUOUS
 62
     7
  5
13E
 10
942914.112
 20
7297170.696
 30
0.0
 40
8.0
  1
28'
 50
88.1874
  7
ROMANS
210
0.0
220
0.0
230
1.0
  0
TEXT
  8
-11
  6
CONTINUOUS
 62
     7
  5
13F
 10
942899.422
 20
7296869.97
 30
0.0
 40
8.0
  1
28'
 50
88.1874
  7
ROMANS
210
0.0
220
0.0
230
1.0
  0
TEXT
  8
-15
  6
CONTINUOUS
 62
    30
  5
141
 10
942899.315
 20
7296890.929
 30
0.0
 40
50.0
  1
WEDGEWOOD
 50
28.1874
  7
ROMANC
 72
     4
 11
943113.049403
 21
7297033.835602
 31
0.0
210
0.0
220
0.0
230
1.0
  0
TEXT
  8
-11
  6
CONTINUOUS
 62
     7
  5
142
 10
948253.764
 20
7299429.605
 30
0.0
 40
8.0
  1
120'
 50
73.820733
  7
ROMANS
210
0.0
220
0.0
230
1.0
  0
TEXT
  8
-11
  6
CONTINUOUS
 62
     7
  5
143
 10
947726.027
 20
7299594.134
 30
0.0
 40
8.0
  1
120'
 50
73.820733
  7
ROMANS
210
0.0
220
0.0
230
1.0
  0
TEXT
  8
-11
  6
CONTINUOUS
 62
     7
  5
144
 10
948202.645
 20
7299649.965
 30
0.0
 40
8.0
  1
159'
 50
358.1874
  7
ROMANS
 72
     4
 11
948216.09885
 21
7299653.541237
 31
0.0
210
0.0
220
0.0
230
1.0
  0
TEXT
  8
-11
  6
CONTINUOUS
 62
     7
  5
145
 10
948277.846
 20
7299565.299
 30
0.0
 40
8.0
  1
155'
 50
88.1874
  7
ROMANS
 72
     4
 11
948274.269763
 21
7299578.75285
 31
0.0
210
0.0
220
0.0
230
1.0
  0
POLYLINE
  8
-6
  6
CONTINUOUS
 62
     7
  5
146
 66
     1
 10
0.0
 20
0.0
 30
0.0
 70
     1
  0
VERTEX
  8
-6
  6
CONTINUOUS
 62
     7
  5
147
 10
948285.075
 20
7299658.071
 30
0.0
  0
VERTEX
  8
-6
  6
CONTINUOUS
 62
     7
  5
148
 10
948135.15
 20
7299662.816
 30
0.0
  0
VERTEX
  8
-6
  6
CONTINUOUS
 62
     7
  5
149
 10
948115.262
 20
7299603.415
 30
0.0
  0
VERTEX
  8
-6
  6
CONTINUOUS
 62
     7
  5
14A
 10
948283.178
 20
7299598.101
 30
0.0
  0
VERTEX
  8
-6
  6
CONTINUOUS
 62
     7
  5
14B
 10
948285.075
 20
7299658.071
 30
0.0
  0
SEQEND
  8
-6
  6
CONTINUOUS
 62
     7
  5
14C
  0
TEXT
  8
-22
  6
CONTINUOUS
 62
     3
  5
14E
 10
948165.471
 20
7299636.101
 30
0.0
 40
6.0
  1
QUITCLAIM DEED
 50
358.1874
  7
txt
 72
     4
 11
948204.709296
 21
7299637.860751
 31
0.0
210
0.0
220
0.0
230
1.0
  0
TEXT
  8
-13
  6
CONTINUOUS
 62
    14
  5
150
 10
948168.908
 20
7299624.77
 30
0.0
 40
8.0
  1
V4481 P124
 50
358.1874
  7
txt
 72
     4
 11
948204.386824
 21
7299627.649226
 31
0.0
210
0.0
220
0.0
230
1.0
  0
ARC
  8
-6
  6
CONTINUOUS
 62
     7
  5
151
 10
953387.829007
 20
7297138.126282
 30
0.0
 40
5976.104273
 50
156.644289
 51
177.003497
210
0.0
220
0.0
230
1.0
  0
ARC
  8
-6
  6
CONTINUOUS
 62
     7
  5
152
 10
953380.134614
 20
7297268.967702
 30
0.0
 40
5976.104273
 50
156.279867
 51
156.818406
210
0.0
220
0.0
230
1.0
  0
POLYLINE
  8
-6
  6
CONTINUOUS
 62
     7
  5
153
 66
     1
 10
0.0
 20
0.0
 30
0.0
  0
VERTEX
  8
-6
  6
CONTINUOUS
 62
     7
  5
154
 10
947334.98
 20
7294435.177
 30
0.0
  0
VERTEX
  8
-6
  6
CONTINUOUS
 62
     7
  5
155
 10
947364.819
 20
7295378.066
 30
0.0
  0
VERTEX
  8
-6
  6
CONTINUOUS
 62
     7
  5
156
 10
947419.85
 20
7297448.804
 30
0.0
  0
SEQEND
  8
-6
  6
CONTINUOUS
 62
     7
  5
157
  0
LINE
  8
-58
  6
DIVIDE
 62
   216
  5
158
 10
942900.844
 20
7297290.135
 30
0.0
 11
947360.501
 21
7297149.003
 31
0.0
  0
LINE
  8
-58
  6
DIVIDE
 62
   216
  5
159
 10
947365.663
 20
7297312.127
 30
0.0
 11
947360.501
 21
7297149.003
 31
0.0
  0
ARC
  8
-58
  6
DIVIDE
 62
   216
  5
15A
 10
953556.66714
 20
7297135.509038
 30
0.0
 40
6193.522921
 50
155.257939
 51
178.3659
210
0.0
220
0.0
230
1.0
  0
TEXT
  8
-19
  6
CONTINUOUS
 62
     1
  5
15B
 10
943129.248
 20
7299831.055
 30
0.0
 40
24.0
  1
FARM RD 2641 (BLUEFIELD ST)
 50
358.1874
  7
ROMANC
 72
     4
 11
943459.87024
 21
7299832.598005
 31
0.0
210
0.0
220
0.0
230
1.0
  0
ARC
  8
-6
  6
CONTINUOUS
 62
     7
  5
15C
 10
946735.992111
 20
7295940.796892
 30
0.0
 40
3858.159246
 50
74.838775
 51
80.161044
210
0.0
220
0.0
230
1.0
  0
TEXT
  8
-10
  6
CONTINUOUS
 62
   134
  5
15D
 10
943172.693
 20
7297022.082
 30
0.0
 40
13.999
  1
A
 50
358.1874
  7
ROMANS
 11
943173.135796
 21
7297036.073995
 31
0.0
210
0.0
220
0.0
230
1.0
 73
     3
  0
TEXT
  8
-10
  6
CONTINUOUS
 62
   134
  5
15E
 10
944318.97
 20
7296015.049
 30
0.0
 40
13.999
  1
UNSUBDIVIDED
 50
358.1874
  7
ROMANS
 72
     4
 11
944400.600659
 21
7296019.469188
 31
0.0
210
0.0
220
0.0
230
1.0
  0
TEXT
  8
-10
  6
CONTINUOUS
 62
   134
  5
15F
 10
946573.557
 20
7295061.305
 30
0.0
 40
13.999
  1
UNSUBDIVIDED
 50
358.1874
  7
ROMANS
 72
     4
 11
946655.187659
 21
7295065.725188
 31
0.0
210
0.0
220
0.0
230
1.0
  0
TEXT
  8
-10
  6
CONTINUOUS
 62
   134
  5
160
 10
947801.277
 20
7296015.146
 30
0.0
 40
13.999
  1
UNSUBDIVIDED
 50
358.1874
  7
ROMANS
 72
     4
 11
947882.907659
 21
7296019.566188
 31
0.0
210
0.0
220
0.0
230
1.0
  0
TEXT
  8
-10
  6
CONTINUOUS
 62
   134
  5
161
 10
947884.119
 20
7298383.957
 30
0.0
 40
13.999
  1
UNSUBDIVIDED
 50
358.1874
  7
ROMANS
 72
     4
 11
947965.749659
 21
7298388.377188
 31
0.0
210
0.0
220
0.0
230
1.0
  0
TEXT
  8
-10
  6
CONTINUOUS
 62
   134
  5
162
 10
946398.611
 20
7297997.649
 30
0.0
 40
13.999
  1
UNSUBDIVIDED
 50
358.1874
  7
ROMANS
 72
     4
 11
946480.241659
 21
7298002.069188
 31
0.0
210
0.0
220
0.0
230
1.0
  0
TEXT
  8
-10
  6
CONTINUOUS
 62
   134
  5
163
 10
943814.953
 20
7299009.078
 30
0.0
 40
13.999
  1
UNSUBDIVIDED
 50
358.1874
  7
ROMANS
 72
     4
 11
943896.583659
 21
7299013.498188
 31
0.0
210
0.0
220
0.0
230
1.0
  0
ENDSEC
  0
EOF
