  0
SECTION
  2
HEADER
  9
$ACADVER
  1
AC1009
  9
$INSBASE
 10
0.0
 20
0.0
 30
0.0
  9
$EXTMIN
 10
910332.955
 20
7269018.616
 30
0.0
  9
$EXTMAX
 10
915774.749
 20
7274463.047
 30
0.0
  9
$LIMMIN
 10
0.0
 20
0.0
  9
$LIMMAX
 10
12.0
 20
9.0
  9
$ORTHOMODE
 70
     0
  9
$REGENMODE
 70
     1
  9
$FILLMODE
 70
     1
  9
$QTEXTMODE
 70
     0
  9
$MIRRTEXT
 70
     1
  9
$DRAGMODE
 70
     2
  9
$LTSCALE
 40
1.0
  9
$OSMODE
 70
     0
  9
$ATTMODE
 70
     1
  9
$TEXTSIZE
 40
0.2
  9
$TRACEWID
 40
0.05
  9
$TEXTSTYLE
  7
STANDARD
  9
$CLAYER
  8
0
  9
$CELTYPE
  6
CONTINUOUS
  9
$CECOLOR
 62
   256
  9
$DIMSCALE
 40
1.0
  9
$DIMASZ
 40
0.18
  9
$DIMEXO
 40
0.0625
  9
$DIMDLI
 40
0.38
  9
$DIMRND
 40
0.0
  9
$DIMDLE
 40
0.0
  9
$DIMEXE
 40
0.18
  9
$DIMTP
 40
0.0
  9
$DIMTM
 40
0.0
  9
$DIMTXT
 40
0.18
  9
$DIMCEN
 40
0.09
  9
$DIMTSZ
 40
0.0
  9
$DIMTOL
 70
     0
  9
$DIMLIM
 70
     0
  9
$DIMTIH
 70
     1
  9
$DIMTOH
 70
     1
  9
$DIMSE1
 70
     0
  9
$DIMSE2
 70
     0
  9
$DIMTAD
 70
     0
  9
$DIMZIN
 70
     0
  9
$DIMBLK
  1

  9
$DIMASO
 70
     1
  9
$DIMSHO
 70
     1
  9
$DIMPOST
  1

  9
$DIMAPOST
  1

  9
$DIMALT
 70
     0
  9
$DIMALTD
 70
     2
  9
$DIMALTF
 40
25.4
  9
$DIMLFAC
 40
1.0
  9
$DIMTOFL
 70
     0
  9
$DIMTVP
 40
0.0
  9
$DIMTIX
 70
     0
  9
$DIMSOXD
 70
     0
  9
$DIMSAH
 70
     0
  9
$DIMBLK1
  1

  9
$DIMBLK2
  1

  9
$DIMSTYLE
  2
STANDARD
  9
$DIMCLRD
 70
     0
  9
$DIMCLRE
 70
     0
  9
$DIMCLRT
 70
     0
  9
$DIMTFAC
 40
1.0
  9
$DIMGAP
 40
0.09
  9
$LUNITS
 70
     2
  9
$LUPREC
 70
     4
  9
$AXISMODE
 70
     0
  9
$AXISUNIT
 10
0.0
 20
0.0
  9
$SKETCHINC
 40
0.1
  9
$FILLETRAD
 40
0.0
  9
$AUNITS
 70
     0
  9
$AUPREC
 70
     0
  9
$MENU
  1
acad
  9
$ELEVATION
 40
0.0
  9
$PELEVATION
 40
0.0
  9
$THICKNESS
 40
0.0
  9
$LIMCHECK
 70
     0
  9
$BLIPMODE
 70
     1
  9
$CHAMFERA
 40
0.0
  9
$CHAMFERB
 40
0.0
  9
$SKPOLY
 70
     0
  9
$TDCREATE
 40
2453013.902916667
  9
$TDUPDATE
 40
2453013.902916667
  9
$TDINDWG
 40
0.0000000000
  9
$TDUSRTIMER
 40
0.0000000000
  9
$USRTIMER
 70
     1
  9
$ANGBASE
 50
0.0
  9
$ANGDIR
 70
     0
  9
$PDMODE
 70
     0
  9
$PDSIZE
 40
0.0
  9
$PLINEWID
 40
0.0
  9
$COORDS
 70
     0
  9
$SPLFRAME
 70
     0
  9
$SPLINETYPE
 70
     6
  9
$SPLINESEGS
 70
    10
  9
$ATTDIA
 70
     0
  9
$ATTREQ
 70
     1
  9
$HANDLING
 70
     1
  9
$HANDSEED
  5
924
  9
$SURFTAB1
 70
     6
  9
$SURFTAB2
 70
     6
  9
$SURFTYPE
 70
     6
  9
$SURFU
 70
     6
  9
$SURFV
 70
     6
  9
$UCSNAME
  2

  9
$UCSORG
 10
0.0
 20
0.0
 30
0.0
  9
$UCSXDIR
 10
1.0
 20
0.0
 30
0.0
  9
$UCSYDIR
 10
0.0
 20
1.0
 30
0.0
  9
$PUCSNAME
  2

  9
$PUCSORG
 10
0.0
 20
0.0
 30
0.0
  9
$PUCSXDIR
 10
1.0
 20
0.0
 30
0.0
  9
$PUCSYDIR
 10
0.0
 20
1.0
 30
0.0
  9
$USERI1
 70
     0
  9
$USERI2
 70
     0
  9
$USERI3
 70
     0
  9
$USERI4
 70
     0
  9
$USERI5
 70
     0
  9
$USERR1
 40
0.0
  9
$USERR2
 40
0.0
  9
$USERR3
 40
0.0
  9
$USERR4
 40
0.0
  9
$USERR5
 40
0.0
  9
$WORLDVIEW
 70
     1
  9
$SHADEDGE
 70
     3
  9
$SHADEDIF
 70
    70
  9
$TILEMODE
 70
     1
  9
$MAXACTVP
 70
    16
  9
$PINSBASE
 10
0.0
 20
0.0
 30
0.0
  9
$PLIMCHECK
 70
     0
  9
$PEXTMIN
 10
-1.000000E+20
 20
-1.000000E+20
 30
-1.000000E+20
  9
$PEXTMAX
 10
-1.000000E+20
 20
-1.000000E+20
 30
-1.000000E+20
  9
$PLIMMIN
 10
0.0
 20
0.0
  9
$PLIMMAX
 10
12.0
 20
9.0
  9
$UNITMODE
 70
     0
  9
$VISRETAIN
 70
     0
  9
$PLINEGEN
 70
     1
  9
$PSLTSCALE
 70
     0
  9
$TREEDEPTH
 70
  3020
  9
$DWGCODEPAGE
  3
ansi_1252
  0
ENDSEC
  0
SECTION
  2
TABLES
  0
TABLE
  2
VPORT
 70
     1
  0
VPORT
  2
*ACTIVE
 70
     0
 10
0.0
 20
0.0
 11
1.0
 21
1.0
 12
0.0
 22
0.0
 13
0.0
 23
0.0
 14
0.0
 24
0.0
 15
0.0
 25
0.0
 16
0.0
 26
0.0
 36
1.0
 17
912704.880744
 27
7271585.884431
 37
0.0
 40
5416.606
 41
1.214876
 42
50.0
 43
0.004
 44
0.0
 50
1.742624
 51
0.0
 71
     0
 72
   100
 73
     1
 74
     0
 75
     0
 76
     0
 77
     0
 78
     0
  0
ENDTAB
  0
TABLE
  2
LTYPE
 70
     7
  0
LTYPE
  2
CONTINUOUS
 70
     0
  3
Solid line
 72
    65
 73
     0
 40
0.0
  0
LTYPE
  2
DOT
 70
    64
  3
. . . . . . . . . . . . . . . . . . . . . . . . . . . . . . . . .
 72
    65
 73
     2
 40
0.25
 49
0.0
 49
-0.25
  0
LTYPE
  2
HIDDEN
 70
    64
  3
__ __ __ __ __ __ __ __ __ __ __ __ __ __ __ __ __ __ __ __ __ 
 72
    65
 73
     2
 40
0.375
 49
0.25
 49
-0.125
  0
LTYPE
  2
DASHED
 70
    64
  3
__ __ __ __ __ __ __ __ __ __ __ __ __ __ __ __ __ __ __ __ __
 72
    65
 73
     2
 40
0.75
 49
0.5
 49
-0.25
  0
LTYPE
  2
DASHDOT
 70
    64
  3
__ . __ . __ . __ . __ . __ . __ . __ . __ . __ . __ . __ . _
 72
    65
 73
     4
 40
1.0
 49
0.5
 49
-0.25
 49
0.0
 49
-0.25
  0
LTYPE
  2
DIVIDE
 70
    64
  3
____ . . ____ . . ____ . . ____ . . ____ . . ____ . . ____ . .
 72
    65
 73
     6
 40
1.25
 49
0.5
 49
-0.25
 49
0.0
 49
-0.25
 49
0.0
 49
-0.25
  0
LTYPE
  2
CENTER
 70
    64
  3
____ _ ____ _ ____ _ ____ _ ____ _ ____ _ ____ _ ____ _ ____ _
 72
    65
 73
     4
 40
2.0
 49
1.25
 49
-0.25
 49
0.25
 49
-0.25
  0
ENDTAB
  0
TABLE
  2
LAYER
 70
    15
  0
LAYER
  2
0
 70
     0
 62
     7
  6
CONTINUOUS
  0
LAYER
  2
CONSTRUCTION_CLASS
 70
     1
 62
     7
  6
CONTINUOUS
  0
LAYER
  2
PATTERN_CLASS
 70
     0
 62
     7
  6
CONTINUOUS
  0
LAYER
  2
6
 70
    64
 62
     7
  6
CONTINUOUS
  0
LAYER
  2
7
 70
    64
 62
     7
  6
CONTINUOUS
  0
LAYER
  2
10
 70
    64
 62
     7
  6
CONTINUOUS
  0
LAYER
  2
11
 70
    64
 62
     7
  6
CONTINUOUS
  0
LAYER
  2
DEFPOINTS
 70
    64
 62
     7
  6
CONTINUOUS
  0
LAYER
  2
21
 70
    64
 62
     7
  6
CONTINUOUS
  0
LAYER
  2
22
 70
    64
 62
     7
  6
CONTINUOUS
  0
LAYER
  2
1
 70
    64
 62
     7
  6
CONTINUOUS
  0
LAYER
  2
13
 70
    64
 62
     7
  6
CONTINUOUS
  0
LAYER
  2
19
 70
    64
 62
     7
  6
CONTINUOUS
  0
LAYER
  2
15
 70
    64
 62
     7
  6
CONTINUOUS
  0
LAYER
  2
25
 70
    64
 62
     7
  6
CONTINUOUS
  0
ENDTAB
  0
TABLE
  2
STYLE
 70
     4
  0
STYLE
  2
STANDARD
 70
     0
 40
0.0
 41
1.0
 50
0.0
 71
     0
 42
0.0
  3
txt
  4

  0
STYLE
  2
ROMANS
 70
     0
 40
0.2
 41
1.0
 50
0.0
 71
     0
 42
0.2
  3
ROMANS
  4

  0
STYLE
  2
txt
 70
     0
 40
0.2
 41
1.0
 50
0.0
 71
     0
 42
0.2
  3
TXT
  4

  0
STYLE
  2
ROMANC
 70
     0
 40
0.2
 41
1.0
 50
0.0
 71
     0
 42
0.2
  3
ROMANC
  4

  0
ENDTAB
  0
TABLE
  2
VIEW
 70
     0
  0
ENDTAB
  0
TABLE
  2
UCS
 70
     0
  0
ENDTAB
  0
TABLE
  2
APPID
 70
     1
  0
APPID
  2
ACAD
 70
     0
  0
ENDTAB
  0
TABLE
  2
DIMSTYLE
 70
     2
  0
DIMSTYLE
  2
STANDARD
 70
     0
  3

  4

  5

  6

  7

 40
1.0
 41
0.18
 42
0.0625
 43
0.38
 44
0.18
 45
0.0
 46
0.0
 47
0.0
 48
0.0
140
0.18
141
0.09
142
0.0
143
25.4
144
1.0
145
0.0
146
1.0
147
0.09
 71
     0
 72
     0
 73
     1
 74
     1
 75
     0
 76
     0
 77
     0
 78
     0
170
     0
171
     2
172
     0
173
     0
174
     0
175
     0
176
     0
177
     0
178
     0
  0
DIMSTYLE
  2
MSADIM
 70
     0
  3

  4

  5

  6

  7

 40
1.0
 41
8.0
 42
4.0
 43
0.0
 44
4.0
 45
0.0
 46
0.0
 47
0.0
 48
0.0
140
8.0
141
4.0
142
0.0
143
25.4
144
1.0
145
4.0
146
1.0
147
4.0
 71
     0
 72
     0
 73
     1
 74
     1
 75
     1
 76
     1
 77
     0
 78
     2
170
     0
171
     2
172
     0
173
     1
174
     0
175
     0
176
     0
177
     0
178
     0
  0
ENDTAB
  0
ENDSEC
  0
SECTION
  2
BLOCKS
  0
BLOCK
  8
11
  6
CONTINUOUS
 62
     7
  5
3D2
  2
*D0
 70
     1
 10
0.0
 20
0.0
 30
0.0
  3
*N0
  0
POLYLINE
  8
11
  6
CONTINUOUS
 62
     7
  5
3D3
 66
     1
 10
0.0
 20
0.0
 30
0.0
  0
VERTEX
  8
11
  6
CONTINUOUS
 62
     7
  5
3D4
 10
911922.821
 20
7269730.647
 30
0.0
  0
VERTEX
  8
11
  6
CONTINUOUS
 62
     7
  5
3D5
 10
911924.788
 20
7269737.589
 30
0.0
  0
VERTEX
  8
11
  6
CONTINUOUS
 62
     7
  5
3D6
 10
911926.319
 20
7269730.538
 30
0.0
  0
SEQEND
  8
11
  6
CONTINUOUS
 62
     7
  5
3D7
  0
POLYLINE
  8
11
  6
CONTINUOUS
 62
     7
  5
3D8
 66
     1
 10
0.0
 20
0.0
 30
0.0
  0
VERTEX
  8
11
  6
CONTINUOUS
 62
     7
  5
3D9
 10
911924.788
 20
7269737.589
 30
0.0
  0
VERTEX
  8
11
  6
CONTINUOUS
 62
     7
  5
3DA
 10
911924.433
 20
7269726.209
 30
0.0
  0
VERTEX
  8
11
  6
CONTINUOUS
 62
     7
  5
3DB
 10
911915.588
 20
7269726.486
 30
0.0
  0
SEQEND
  8
11
  6
CONTINUOUS
 62
     7
  5
3DC
  0
ENDBLK
  8
11
  6
CONTINUOUS
 62
     7
  5
3DD
  0
BLOCK
  8
11
  6
CONTINUOUS
 62
     7
  5
3E1
  2
*D1
 70
     1
 10
0.0
 20
0.0
 30
0.0
  3
*N1
  0
POLYLINE
  8
11
  6
CONTINUOUS
 62
     7
  5
3E2
 66
     1
 10
0.0
 20
0.0
 30
0.0
  0
VERTEX
  8
11
  6
CONTINUOUS
 62
     7
  5
3E3
 10
911958.289
 20
7270848.43
 30
0.0
  0
VERTEX
  8
11
  6
CONTINUOUS
 62
     7
  5
3E4
 10
911960.256
 20
7270855.372
 30
0.0
  0
VERTEX
  8
11
  6
CONTINUOUS
 62
     7
  5
3E5
 10
911961.787
 20
7270848.321
 30
0.0
  0
SEQEND
  8
11
  6
CONTINUOUS
 62
     7
  5
3E6
  0
POLYLINE
  8
11
  6
CONTINUOUS
 62
     7
  5
3E7
 66
     1
 10
0.0
 20
0.0
 30
0.0
  0
VERTEX
  8
11
  6
CONTINUOUS
 62
     7
  5
3E8
 10
911960.256
 20
7270855.372
 30
0.0
  0
VERTEX
  8
11
  6
CONTINUOUS
 62
     7
  5
3E9
 10
911959.311
 20
7270825.025
 30
0.0
  0
VERTEX
  8
11
  6
CONTINUOUS
 62
     7
  5
3EA
 10
911946.042
 20
7270825.438
 30
0.0
  0
SEQEND
  8
11
  6
CONTINUOUS
 62
     7
  5
3EB
  0
ENDBLK
  8
11
  6
CONTINUOUS
 62
     7
  5
3EC
  0
BLOCK
  8
11
  6
CONTINUOUS
 62
     7
  5
3EF
  2
*D2
 70
     1
 10
0.0
 20
0.0
 30
0.0
  3
*N2
  0
POLYLINE
  8
11
  6
CONTINUOUS
 62
     7
  5
3F0
 66
     1
 10
0.0
 20
0.0
 30
0.0
  0
VERTEX
  8
11
  6
CONTINUOUS
 62
     7
  5
3F1
 10
911960.411
 20
7270804.148
 30
0.0
  0
VERTEX
  8
11
  6
CONTINUOUS
 62
     7
  5
3F2
 10
911958.444
 20
7270797.206
 30
0.0
  0
VERTEX
  8
11
  6
CONTINUOUS
 62
     7
  5
3F3
 10
911956.913
 20
7270804.257
 30
0.0
  0
SEQEND
  8
11
  6
CONTINUOUS
 62
     7
  5
3F4
  0
LINE
  8
11
  6
CONTINUOUS
 62
     7
  5
3F5
 10
911958.444
 20
7270797.206
 30
0.0
 11
911959.311
 21
7270825.025
 31
0.0
  0
ENDBLK
  8
11
  6
CONTINUOUS
 62
     7
  5
3F6
  0
BLOCK
  8
11
  6
CONTINUOUS
 62
     7
  5
401
  2
*D3
 70
     1
 10
0.0
 20
0.0
 30
0.0
  3
*N3
  0
POLYLINE
  8
11
  6
CONTINUOUS
 62
     7
  5
402
 66
     1
 10
0.0
 20
0.0
 30
0.0
  0
VERTEX
  8
11
  6
CONTINUOUS
 62
     7
  5
403
 10
911989.94
 20
7271740.654
 30
0.0
  0
VERTEX
  8
11
  6
CONTINUOUS
 62
     7
  5
404
 10
911988.241
 20
7271733.642
 30
0.0
  0
VERTEX
  8
11
  6
CONTINUOUS
 62
     7
  5
405
 10
911986.44
 20
7271740.629
 30
0.0
  0
SEQEND
  8
11
  6
CONTINUOUS
 62
     7
  5
406
  0
POLYLINE
  8
11
  6
CONTINUOUS
 62
     7
  5
407
 66
     1
 10
0.0
 20
0.0
 30
0.0
  0
VERTEX
  8
11
  6
CONTINUOUS
 62
     7
  5
408
 10
911988.241
 20
7271733.642
 30
0.0
  0
VERTEX
  8
11
  6
CONTINUOUS
 62
     7
  5
409
 10
911988.122
 20
7271750.099
 30
0.0
  0
VERTEX
  8
11
  6
CONTINUOUS
 62
     7
  5
40A
 10
911971.695
 20
7271750.611
 30
0.0
  0
SEQEND
  8
11
  6
CONTINUOUS
 62
     7
  5
40B
  0
ENDBLK
  8
11
  6
CONTINUOUS
 62
     7
  5
40C
  0
BLOCK
  8
11
  6
CONTINUOUS
 62
     7
  5
410
  2
*D4
 70
     1
 10
0.0
 20
0.0
 30
0.0
  3
*N4
  0
POLYLINE
  8
11
  6
CONTINUOUS
 62
     7
  5
411
 66
     1
 10
0.0
 20
0.0
 30
0.0
  0
VERTEX
  8
11
  6
CONTINUOUS
 62
     7
  5
412
 10
911559.939
 20
7271753.98
 30
0.0
  0
VERTEX
  8
11
  6
CONTINUOUS
 62
     7
  5
413
 10
911557.972
 20
7271747.038
 30
0.0
  0
VERTEX
  8
11
  6
CONTINUOUS
 62
     7
  5
414
 10
911556.44
 20
7271754.089
 30
0.0
  0
SEQEND
  8
11
  6
CONTINUOUS
 62
     7
  5
415
  0
POLYLINE
  8
11
  6
CONTINUOUS
 62
     7
  5
416
 66
     1
 10
0.0
 20
0.0
 30
0.0
  0
VERTEX
  8
11
  6
CONTINUOUS
 62
     7
  5
417
 10
911557.972
 20
7271747.038
 30
0.0
  0
VERTEX
  8
11
  6
CONTINUOUS
 62
     7
  5
418
 10
911558.444
 20
7271762.212
 30
0.0
  0
VERTEX
  8
11
  6
CONTINUOUS
 62
     7
  5
419
 10
911574.24
 20
7271761.72
 30
0.0
  0
SEQEND
  8
11
  6
CONTINUOUS
 62
     7
  5
41A
  0
ENDBLK
  8
11
  6
CONTINUOUS
 62
     7
  5
41B
  0
BLOCK
  8
11
  6
CONTINUOUS
 62
     7
  5
41F
  2
*D5
 70
     1
 10
0.0
 20
0.0
 30
0.0
  3
*N5
  0
POLYLINE
  8
11
  6
CONTINUOUS
 62
     7
  5
420
 66
     1
 10
0.0
 20
0.0
 30
0.0
  0
VERTEX
  8
11
  6
CONTINUOUS
 62
     7
  5
421
 10
911529.375
 20
7270864.068
 30
0.0
  0
VERTEX
  8
11
  6
CONTINUOUS
 62
     7
  5
422
 10
911531.342
 20
7270871.01
 30
0.0
  0
VERTEX
  8
11
  6
CONTINUOUS
 62
     7
  5
423
 10
911532.873
 20
7270863.959
 30
0.0
  0
SEQEND
  8
11
  6
CONTINUOUS
 62
     7
  5
424
  0
POLYLINE
  8
11
  6
CONTINUOUS
 62
     7
  5
425
 66
     1
 10
0.0
 20
0.0
 30
0.0
  0
VERTEX
  8
11
  6
CONTINUOUS
 62
     7
  5
426
 10
911531.342
 20
7270871.01
 30
0.0
  0
VERTEX
  8
11
  6
CONTINUOUS
 62
     7
  5
427
 10
911530.318
 20
7270838.134
 30
0.0
  0
VERTEX
  8
11
  6
CONTINUOUS
 62
     7
  5
428
 10
911546.745
 20
7270837.623
 30
0.0
  0
SEQEND
  8
11
  6
CONTINUOUS
 62
     7
  5
429
  0
ENDBLK
  8
11
  6
CONTINUOUS
 62
     7
  5
42A
  0
BLOCK
  8
11
  6
CONTINUOUS
 62
     7
  5
42D
  2
*D6
 70
     1
 10
0.0
 20
0.0
 30
0.0
  3
*N6
  0
POLYLINE
  8
11
  6
CONTINUOUS
 62
     7
  5
42E
 66
     1
 10
0.0
 20
0.0
 30
0.0
  0
VERTEX
  8
11
  6
CONTINUOUS
 62
     7
  5
42F
 10
911531.439
 20
7270817.889
 30
0.0
  0
VERTEX
  8
11
  6
CONTINUOUS
 62
     7
  5
430
 10
911529.472
 20
7270810.947
 30
0.0
  0
VERTEX
  8
11
  6
CONTINUOUS
 62
     7
  5
431
 10
911527.941
 20
7270817.998
 30
0.0
  0
SEQEND
  8
11
  6
CONTINUOUS
 62
     7
  5
432
  0
LINE
  8
11
  6
CONTINUOUS
 62
     7
  5
433
 10
911529.472
 20
7270810.947
 30
0.0
 11
911530.318
 21
7270838.134
 31
0.0
  0
ENDBLK
  8
11
  6
CONTINUOUS
 62
     7
  5
434
  0
BLOCK
  8
11
  6
CONTINUOUS
 62
     7
  5
438
  2
*D7
 70
     1
 10
0.0
 20
0.0
 30
0.0
  3
*N7
  0
POLYLINE
  8
11
  6
CONTINUOUS
 62
     7
  5
439
 66
     1
 10
0.0
 20
0.0
 30
0.0
  0
VERTEX
  8
11
  6
CONTINUOUS
 62
     7
  5
43A
 10
911404.806
 20
7270688.112
 30
0.0
  0
VERTEX
  8
11
  6
CONTINUOUS
 62
     7
  5
43B
 10
911411.748
 20
7270686.146
 30
0.0
  0
VERTEX
  8
11
  6
CONTINUOUS
 62
     7
  5
43C
 10
911404.697
 20
7270684.614
 30
0.0
  0
SEQEND
  8
11
  6
CONTINUOUS
 62
     7
  5
43D
  0
POLYLINE
  8
11
  6
CONTINUOUS
 62
     7
  5
43E
 66
     1
 10
0.0
 20
0.0
 30
0.0
  0
VERTEX
  8
11
  6
CONTINUOUS
 62
     7
  5
43F
 10
911411.748
 20
7270686.146
 30
0.0
  0
VERTEX
  8
11
  6
CONTINUOUS
 62
     7
  5
440
 10
911401.006
 20
7270686.479
 30
0.0
  0
VERTEX
  8
11
  6
CONTINUOUS
 62
     7
  5
441
 10
911400.73
 20
7270677.627
 30
0.0
  0
SEQEND
  8
11
  6
CONTINUOUS
 62
     7
  5
442
  0
ENDBLK
  8
11
  6
CONTINUOUS
 62
     7
  5
443
  0
BLOCK
  8
11
  6
CONTINUOUS
 62
     7
  5
446
  2
*D8
 70
     1
 10
0.0
 20
0.0
 30
0.0
  3
*N8
  0
POLYLINE
  8
11
  6
CONTINUOUS
 62
     7
  5
447
 66
     1
 10
0.0
 20
0.0
 30
0.0
  0
VERTEX
  8
11
  6
CONTINUOUS
 62
     7
  5
448
 10
911398.507
 20
7270684.795
 30
0.0
  0
VERTEX
  8
11
  6
CONTINUOUS
 62
     7
  5
449
 10
911391.565
 20
7270686.762
 30
0.0
  0
VERTEX
  8
11
  6
CONTINUOUS
 62
     7
  5
44A
 10
911398.616
 20
7270688.293
 30
0.0
  0
SEQEND
  8
11
  6
CONTINUOUS
 62
     7
  5
44B
  0
LINE
  8
11
  6
CONTINUOUS
 62
     7
  5
44C
 10
911391.565
 20
7270686.762
 30
0.0
 11
911401.065
 21
7270686.466
 31
0.0
  0
ENDBLK
  8
11
  6
CONTINUOUS
 62
     7
  5
44D
  0
BLOCK
  8
11
  6
CONTINUOUS
 62
     7
  5
451
  2
*D9
 70
     1
 10
0.0
 20
0.0
 30
0.0
  3
*N9
  0
POLYLINE
  8
11
  6
CONTINUOUS
 62
     7
  5
452
 66
     1
 10
0.0
 20
0.0
 30
0.0
  0
VERTEX
  8
11
  6
CONTINUOUS
 62
     7
  5
453
 10
910428.529
 20
7270718.597
 30
0.0
  0
VERTEX
  8
11
  6
CONTINUOUS
 62
     7
  5
454
 10
910435.471
 20
7270716.631
 30
0.0
  0
VERTEX
  8
11
  6
CONTINUOUS
 62
     7
  5
455
 10
910428.42
 20
7270715.099
 30
0.0
  0
SEQEND
  8
11
  6
CONTINUOUS
 62
     7
  5
456
  0
POLYLINE
  8
11
  6
CONTINUOUS
 62
     7
  5
457
 66
     1
 10
0.0
 20
0.0
 30
0.0
  0
VERTEX
  8
11
  6
CONTINUOUS
 62
     7
  5
458
 10
910435.471
 20
7270716.631
 30
0.0
  0
VERTEX
  8
11
  6
CONTINUOUS
 62
     7
  5
459
 10
910425.84
 20
7270716.93
 30
0.0
  0
VERTEX
  8
11
  6
CONTINUOUS
 62
     7
  5
45A
 10
910425.139
 20
7270694.446
 30
0.0
  0
SEQEND
  8
11
  6
CONTINUOUS
 62
     7
  5
45B
  0
ENDBLK
  8
11
  6
CONTINUOUS
 62
     7
  5
45C
  0
BLOCK
  8
11
  6
CONTINUOUS
 62
     7
  5
461
  2
*D10
 70
     1
 10
0.0
 20
0.0
 30
0.0
  3
*N10
  0
POLYLINE
  8
11
  6
CONTINUOUS
 62
     7
  5
462
 66
     1
 10
0.0
 20
0.0
 30
0.0
  0
VERTEX
  8
11
  6
CONTINUOUS
 62
     7
  5
463
 10
910999.939
 20
7270344.623
 30
0.0
  0
VERTEX
  8
11
  6
CONTINUOUS
 62
     7
  5
464
 10
911006.153
 20
7270348.291
 30
0.0
  0
VERTEX
  8
11
  6
CONTINUOUS
 62
     7
  5
465
 10
911002.396
 20
7270342.131
 30
0.0
  0
SEQEND
  8
11
  6
CONTINUOUS
 62
     7
  5
466
  0
LINE
  8
11
  6
CONTINUOUS
 62
     7
  5
467
 10
911006.153
 20
7270348.291
 30
0.0
 11
910971.824
 21
7270314.452
 31
0.0
  0
ENDBLK
  8
11
  6
CONTINUOUS
 62
     7
  5
468
  0
BLOCK
  8
11
  6
CONTINUOUS
 62
     7
  5
504
  2
*D11
 70
     1
 10
0.0
 20
0.0
 30
0.0
  3
*N11
  0
TEXT
  8
11
  6
CONTINUOUS
 62
     7
  5
505
 10
910700.177
 20
7269222.942
 30
0.0
 40
8.0
  1
N85%%d02'29"W
 50
355.04145
  7
ROMANS
 72
     1
 11
910743.572061
 21
7269227.207109
 31
0.0
210
0.0
220
0.0
230
1.0
 73
     3
  0
TEXT
  8
11
  6
CONTINUOUS
 62
     7
  5
506
 10
910719.025
 20
7269237.367
 30
0.0
 40
8.0
  1
138.21'
 50
355.04145
  7
ROMANS
 72
     1
 11
910744.263191
 21
7269235.177341
 31
0.0
210
0.0
220
0.0
230
1.0
  0
ENDBLK
  8
11
  6
CONTINUOUS
 62
     7
  5
507
  0
BLOCK
  8
11
  6
CONTINUOUS
 62
     7
  5
50A
  2
*D12
 70
     1
 10
0.0
 20
0.0
 30
0.0
  3
*N12
  0
TEXT
  8
11
  6
CONTINUOUS
 62
     7
  5
50B
 10
914444.102
 20
7274263.813
 30
0.0
 40
5.0
  1
S76%%d06'42"E
 50
346.111708
  7
ROMANS
 72
     1
 11
914471.087623
 21
7274262.29116
 31
0.0
210
0.0
220
0.0
230
1.0
 73
     3
  0
TEXT
  8
11
  6
CONTINUOUS
 62
     7
  5
50C
 10
914464.198
 20
7274269.145
 30
0.0
 40
5.0
  1
102'
 50
346.111708
  7
ROMANS
 72
     1
 11
914472.287389
 21
7274267.144833
 31
0.0
210
0.0
220
0.0
230
1.0
  0
ENDBLK
  8
11
  6
CONTINUOUS
 62
     7
  5
50D
  0
BLOCK
  8
11
  6
CONTINUOUS
 62
     7
  5
510
  2
*D13
 70
     1
 10
0.0
 20
0.0
 30
0.0
  3
*N13
  0
TEXT
  8
11
  6
CONTINUOUS
 62
     7
  5
511
 10
915114.909
 20
7273607.882
 30
0.0
 40
8.0
  1
S43%%d12'59"E
 50
313.216406
  7
ROMANS
 72
     1
 11
915149.841302
 21
7273582.387211
 31
0.0
210
0.0
220
0.0
230
1.0
 73
     3
  0
TEXT
  8
11
  6
CONTINUOUS
 62
     7
  5
512
 10
915138.324
 20
7273606.327
 30
0.0
 40
8.0
  1
179.52'
 50
313.216406
  7
ROMANS
 72
     1
 11
915155.670919
 21
7273587.865004
 31
0.0
210
0.0
220
0.0
230
1.0
  0
ENDBLK
  8
11
  6
CONTINUOUS
 62
     7
  5
513
  0
BLOCK
  8
11
  6
CONTINUOUS
 62
     7
  5
516
  2
*D14
 70
     1
 10
0.0
 20
0.0
 30
0.0
  3
*N14
  0
TEXT
  8
11
  6
CONTINUOUS
 62
     7
  5
517
 10
915176.231
 20
7273628.168
 30
0.0
 40
8.0
  1
S24%%d30'20"E
 50
294.505556
  7
ROMANS
 72
     1
 11
915201.138581
 21
7273592.814607
 31
0.0
210
0.0
220
0.0
230
1.0
 73
     3
  0
TEXT
  8
11
  6
CONTINUOUS
 62
     7
  5
518
 10
915197.91
 20
7273619.184
 30
0.0
 40
8.0
  1
132.63'
 50
294.505556
  7
ROMANS
 72
     1
 11
915208.417659
 21
7273596.13297
 31
0.0
210
0.0
220
0.0
230
1.0
  0
ENDBLK
  8
11
  6
CONTINUOUS
 62
     7
  5
519
  0
BLOCK
  8
11
  6
CONTINUOUS
 62
     7
  5
51C
  2
*D15
 70
     1
 10
0.0
 20
0.0
 30
0.0
  3
*N15
  0
TEXT
  8
11
  6
CONTINUOUS
 62
     7
  5
51D
 10
915096.748
 20
7273547.635
 30
0.0
 40
8.0
  1
S59%%d46'34"E
 50
329.776144
  7
ROMANS
 72
     1
 11
915137.497813
 21
7273533.153883
 31
0.0
210
0.0
220
0.0
230
1.0
 73
     3
  0
TEXT
  8
11
  6
CONTINUOUS
 62
     7
  5
51E
 10
915119.636
 20
7273552.818
 30
0.0
 40
8.0
  1
135.82'
 50
329.776144
  7
ROMANS
 72
     1
 11
915141.525366
 21
7273540.065881
 31
0.0
210
0.0
220
0.0
230
1.0
  0
ENDBLK
  8
11
  6
CONTINUOUS
 62
     7
  5
51F
  0
BLOCK
  8
11
  6
CONTINUOUS
 62
     7
  5
523
  2
*D16
 70
     1
 10
0.0
 20
0.0
 30
0.0
  3
*N16
  0
POLYLINE
  8
11
  6
CONTINUOUS
 62
     7
  5
524
 66
     1
 10
0.0
 20
0.0
 30
0.0
  0
VERTEX
  8
11
  6
CONTINUOUS
 62
     7
  5
525
 10
915200.089
 20
7273473.907
 30
0.0
  0
VERTEX
  8
11
  6
CONTINUOUS
 62
     7
  5
526
 10
915195.206
 20
7273475.557
 30
0.0
  0
VERTEX
  8
11
  6
CONTINUOUS
 62
     7
  5
527
 10
915200.291
 20
7273476.399
 30
0.0
  0
SEQEND
  8
11
  6
CONTINUOUS
 62
     7
  5
528
  0
POLYLINE
  8
11
  6
CONTINUOUS
 62
     7
  5
529
 66
     1
 10
0.0
 20
0.0
 30
0.0
  0
VERTEX
  8
11
  6
CONTINUOUS
 62
     7
  5
52A
 10
915195.206
 20
7273475.557
 30
0.0
  0
VERTEX
  8
11
  6
CONTINUOUS
 62
     7
  5
52B
 10
915202.907
 20
7273474.933
 30
0.0
  0
VERTEX
  8
11
  6
CONTINUOUS
 62
     7
  5
52C
 10
915200.113
 20
7273459.566
 30
0.0
  0
SEQEND
  8
11
  6
CONTINUOUS
 62
     7
  5
52D
  0
ENDBLK
  8
11
  6
CONTINUOUS
 62
     7
  5
52E
  0
BLOCK
  8
11
  6
CONTINUOUS
 62
     7
  5
532
  2
*D17
 70
     1
 10
0.0
 20
0.0
 30
0.0
  3
*N17
  0
POLYLINE
  8
11
  6
CONTINUOUS
 62
     7
  5
533
 66
     1
 10
0.0
 20
0.0
 30
0.0
  0
VERTEX
  8
11
  6
CONTINUOUS
 62
     7
  5
534
 10
915206.057
 20
7273489.808
 30
0.0
  0
VERTEX
  8
11
  6
CONTINUOUS
 62
     7
  5
535
 10
915201.098
 20
7273491.213
 30
0.0
  0
VERTEX
  8
11
  6
CONTINUOUS
 62
     7
  5
536
 10
915206.134
 20
7273492.307
 30
0.0
  0
SEQEND
  8
11
  6
CONTINUOUS
 62
     7
  5
537
  0
POLYLINE
  8
11
  6
CONTINUOUS
 62
     7
  5
538
 66
     1
 10
0.0
 20
0.0
 30
0.0
  0
VERTEX
  8
11
  6
CONTINUOUS
 62
     7
  5
539
 10
915201.098
 20
7273491.213
 30
0.0
  0
VERTEX
  8
11
  6
CONTINUOUS
 62
     7
  5
53A
 10
915210.74
 20
7273490.913
 30
0.0
  0
VERTEX
  8
11
  6
CONTINUOUS
 62
     7
  5
53B
 10
915210.524
 20
7273483.966
 30
0.0
  0
SEQEND
  8
11
  6
CONTINUOUS
 62
     7
  5
53C
  0
ENDBLK
  8
11
  6
CONTINUOUS
 62
     7
  5
53D
  0
BLOCK
  8
11
  6
CONTINUOUS
 62
     7
  5
541
  2
*D18
 70
     1
 10
0.0
 20
0.0
 30
0.0
  3
*N18
  0
POLYLINE
  8
11
  6
CONTINUOUS
 62
     7
  5
542
 66
     1
 10
0.0
 20
0.0
 30
0.0
  0
VERTEX
  8
11
  6
CONTINUOUS
 62
     7
  5
543
 10
915213.476
 20
7273504.033
 30
0.0
  0
VERTEX
  8
11
  6
CONTINUOUS
 62
     7
  5
544
 10
915209.715
 20
7273507.557
 30
0.0
  0
VERTEX
  8
11
  6
CONTINUOUS
 62
     7
  5
545
 10
915214.692
 20
7273506.217
 30
0.0
  0
SEQEND
  8
11
  6
CONTINUOUS
 62
     7
  5
546
  0
POLYLINE
  8
11
  6
CONTINUOUS
 62
     7
  5
547
 66
     1
 10
0.0
 20
0.0
 30
0.0
  0
VERTEX
  8
11
  6
CONTINUOUS
 62
     7
  5
548
 10
915209.715
 20
7273507.557
 30
0.0
  0
VERTEX
  8
11
  6
CONTINUOUS
 62
     7
  5
549
 10
915221.479
 20
7273501.009
 30
0.0
  0
VERTEX
  8
11
  6
CONTINUOUS
 62
     7
  5
54A
 10
915221.347
 20
7273496.765
 30
0.0
  0
SEQEND
  8
11
  6
CONTINUOUS
 62
     7
  5
54B
  0
ENDBLK
  8
11
  6
CONTINUOUS
 62
     7
  5
54C
  0
BLOCK
  8
11
  6
CONTINUOUS
 62
     7
  5
550
  2
*D19
 70
     1
 10
0.0
 20
0.0
 30
0.0
  3
*N19
  0
POLYLINE
  8
11
  6
CONTINUOUS
 62
     7
  5
551
 66
     1
 10
0.0
 20
0.0
 30
0.0
  0
VERTEX
  8
11
  6
CONTINUOUS
 62
     7
  5
552
 10
915226.07
 20
7273517.732
 30
0.0
  0
VERTEX
  8
11
  6
CONTINUOUS
 62
     7
  5
553
 10
915226.406
 20
7273522.875
 30
0.0
  0
VERTEX
  8
11
  6
CONTINUOUS
 62
     7
  5
554
 10
915228.53
 20
7273518.179
 30
0.0
  0
SEQEND
  8
11
  6
CONTINUOUS
 62
     7
  5
555
  0
POLYLINE
  8
11
  6
CONTINUOUS
 62
     7
  5
556
 66
     1
 10
0.0
 20
0.0
 30
0.0
  0
VERTEX
  8
11
  6
CONTINUOUS
 62
     7
  5
557
 10
915226.406
 20
7273522.875
 30
0.0
  0
VERTEX
  8
11
  6
CONTINUOUS
 62
     7
  5
558
 10
915228.383
 20
7273511.998
 30
0.0
  0
VERTEX
  8
11
  6
CONTINUOUS
 62
     7
  5
559
 10
915232.24
 20
7273511.878
 30
0.0
  0
SEQEND
  8
11
  6
CONTINUOUS
 62
     7
  5
55A
  0
ENDBLK
  8
11
  6
CONTINUOUS
 62
     7
  5
55B
  0
BLOCK
  8
11
  6
CONTINUOUS
 62
     7
  5
55F
  2
*D20
 70
     1
 10
0.0
 20
0.0
 30
0.0
  3
*N20
  0
POLYLINE
  8
11
  6
CONTINUOUS
 62
     7
  5
560
 66
     1
 10
0.0
 20
0.0
 30
0.0
  0
VERTEX
  8
11
  6
CONTINUOUS
 62
     7
  5
561
 10
915240.692
 20
7273525.928
 30
0.0
  0
VERTEX
  8
11
  6
CONTINUOUS
 62
     7
  5
562
 10
915242.097
 20
7273530.887
 30
0.0
  0
VERTEX
  8
11
  6
CONTINUOUS
 62
     7
  5
563
 10
915243.191
 20
7273525.851
 30
0.0
  0
SEQEND
  8
11
  6
CONTINUOUS
 62
     7
  5
564
  0
POLYLINE
  8
11
  6
CONTINUOUS
 62
     7
  5
565
 66
     1
 10
0.0
 20
0.0
 30
0.0
  0
VERTEX
  8
11
  6
CONTINUOUS
 62
     7
  5
566
 10
915242.097
 20
7273530.887
 30
0.0
  0
VERTEX
  8
11
  6
CONTINUOUS
 62
     7
  5
567
 10
915241.761
 20
7273520.08
 30
0.0
  0
VERTEX
  8
11
  6
CONTINUOUS
 62
     7
  5
568
 10
915246.004
 20
7273519.948
 30
0.0
  0
SEQEND
  8
11
  6
CONTINUOUS
 62
     7
  5
569
  0
ENDBLK
  8
11
  6
CONTINUOUS
 62
     7
  5
56A
  0
BLOCK
  8
11
  6
CONTINUOUS
 62
     7
  5
56E
  2
*D21
 70
     1
 10
0.0
 20
0.0
 30
0.0
  3
*N21
  0
POLYLINE
  8
11
  6
CONTINUOUS
 62
     7
  5
56F
 66
     1
 10
0.0
 20
0.0
 30
0.0
  0
VERTEX
  8
11
  6
CONTINUOUS
 62
     7
  5
570
 10
915257.843
 20
7273531.188
 30
0.0
  0
VERTEX
  8
11
  6
CONTINUOUS
 62
     7
  5
571
 10
915259.248
 20
7273536.147
 30
0.0
  0
VERTEX
  8
11
  6
CONTINUOUS
 62
     7
  5
572
 10
915260.341
 20
7273531.11
 30
0.0
  0
SEQEND
  8
11
  6
CONTINUOUS
 62
     7
  5
573
  0
POLYLINE
  8
11
  6
CONTINUOUS
 62
     7
  5
574
 66
     1
 10
0.0
 20
0.0
 30
0.0
  0
VERTEX
  8
11
  6
CONTINUOUS
 62
     7
  5
575
 10
915259.248
 20
7273536.147
 30
0.0
  0
VERTEX
  8
11
  6
CONTINUOUS
 62
     7
  5
576
 10
915258.995
 20
7273528.043
 30
0.0
  0
VERTEX
  8
11
  6
CONTINUOUS
 62
     7
  5
577
 10
915262.081
 20
7273527.946
 30
0.0
  0
SEQEND
  8
11
  6
CONTINUOUS
 62
     7
  5
578
  0
ENDBLK
  8
11
  6
CONTINUOUS
 62
     7
  5
579
  0
BLOCK
  8
11
  6
CONTINUOUS
 62
     7
  5
584
  2
*D22
 70
     1
 10
0.0
 20
0.0
 30
0.0
  3
*N22
  0
TEXT
  8
11
  6
CONTINUOUS
 62
     7
  5
585
 10
915009.765
 20
7271697.723
 30
0.0
 40
8.0
  1
N87%%d25'22"E
 50
2.577083
  7
ROMANS
 72
     1
 11
915051.86231
 21
7271707.625855
 31
0.0
210
0.0
220
0.0
230
1.0
 73
     3
  0
TEXT
  8
11
  6
CONTINUOUS
 62
     7
  5
586
 10
915042.179
 20
7271715.199
 30
0.0
 40
8.0
  1
66'
 50
2.577083
  7
ROMANS
 72
     1
 11
915051.502561
 21
7271715.618644
 31
0.0
210
0.0
220
0.0
230
1.0
  0
ENDBLK
  8
11
  6
CONTINUOUS
 62
     7
  5
587
  0
BLOCK
  8
11
  6
CONTINUOUS
 62
     7
  5
58A
  2
*D23
 70
     1
 10
0.0
 20
0.0
 30
0.0
  3
*N23
  0
TEXT
  8
11
  6
CONTINUOUS
 62
     7
  5
58B
 10
915311.444
 20
7269065.22
 30
0.0
 40
8.0
  1
N85%%d10'46"W
 50
355.179367
  7
ROMANS
 72
     1
 11
915354.828669
 21
7269069.589552
 31
0.0
210
0.0
220
0.0
230
1.0
 73
     3
  0
TEXT
  8
11
  6
CONTINUOUS
 62
     7
  5
58C
 10
915330.258
 20
7269079.69
 30
0.0
 40
8.0
  1
399.52'
 50
355.179367
  7
ROMANS
 72
     1
 11
915355.501389
 21
7269077.561098
 31
0.0
210
0.0
220
0.0
230
1.0
  0
ENDBLK
  8
11
  6
CONTINUOUS
 62
     7
  5
58D
  0
BLOCK
  8
11
  6
CONTINUOUS
 62
     7
  5
590
  2
*D24
 70
     1
 10
0.0
 20
0.0
 30
0.0
  3
*N24
  0
TEXT
  8
11
  6
CONTINUOUS
 62
     7
  5
591
 10
915576.77
 20
7269572.017
 30
0.0
 40
8.0
  1
N03%%d55'35"W
 50
273.926411
  7
ROMANS
 72
     1
 11
915587.686343
 21
7269529.801411
 31
0.0
210
0.0
220
0.0
230
1.0
 73
     3
  0
TEXT
  8
11
  6
CONTINUOUS
 62
     7
  5
592
 10
915594.206
 20
7269551.632
 30
0.0
 40
8.0
  1
67.36'
 50
273.926411
  7
ROMANS
 72
     1
 11
915595.666781
 21
7269530.349072
 31
0.0
210
0.0
220
0.0
230
1.0
  0
ENDBLK
  8
11
  6
CONTINUOUS
 62
     7
  5
593
  0
BLOCK
  8
11
  6
CONTINUOUS
 62
     7
  5
596
  2
*D25
 70
     1
 10
0.0
 20
0.0
 30
0.0
  3
*N25
  0
TEXT
  8
11
  6
CONTINUOUS
 62
     7
  5
597
 10
915578.537
 20
7269274.954
 30
0.0
 40
8.0
  1
S07%%d02'28"E
 50
277.0411
  7
ROMANS
 72
     1
 11
915591.686373
 21
7269233.755165
 31
0.0
210
0.0
220
0.0
230
1.0
 73
     3
  0
TEXT
  8
11
  6
CONTINUOUS
 62
     7
  5
598
 10
915596.52
 20
7269259.878
 30
0.0
 40
8.0
  1
180.47'
 50
277.0411
  7
ROMANS
 72
     1
 11
915599.625352
 21
7269234.736049
 31
0.0
210
0.0
220
0.0
230
1.0
  0
ENDBLK
  8
11
  6
CONTINUOUS
 62
     7
  5
599
  0
BLOCK
  8
22
  6
CONTINUOUS
 62
     3
  5
6E2
  2
*D26
 70
     1
 10
0.0
 20
0.0
 30
0.0
  3
*N26
  0
POLYLINE
  8
22
  6
CONTINUOUS
 62
     3
  5
6E3
 66
     1
 10
0.0
 20
0.0
 30
0.0
  0
VERTEX
  8
22
  6
CONTINUOUS
 62
     3
  5
6E4
 10
913235.608
 20
7273953.959
 30
0.0
  0
VERTEX
  8
22
  6
CONTINUOUS
 62
     3
  5
6E5
 10
913243.542
 20
7273951.711
 30
0.0
  0
VERTEX
  8
22
  6
CONTINUOUS
 62
     3
  5
6E6
 10
913235.484
 20
7273949.961
 30
0.0
  0
SEQEND
  8
22
  6
CONTINUOUS
 62
     3
  5
6E7
  0
LINE
  8
22
  6
CONTINUOUS
 62
     3
  5
6E8
 10
913243.542
 20
7273951.711
 30
0.0
 11
913208.466
 21
7273952.803
 31
0.0
  0
ENDBLK
  8
22
  6
CONTINUOUS
 62
     3
  5
6E9
  0
BLOCK
  8
22
  6
CONTINUOUS
 62
     3
  5
6EF
  2
*D27
 70
     1
 10
0.0
 20
0.0
 30
0.0
  3
*N27
  0
POLYLINE
  8
22
  6
CONTINUOUS
 62
     3
  5
6F0
 66
     1
 10
0.0
 20
0.0
 30
0.0
  0
VERTEX
  8
22
  6
CONTINUOUS
 62
     3
  5
6F1
 10
914002.097
 20
7274025.747
 30
0.0
  0
VERTEX
  8
22
  6
CONTINUOUS
 62
     3
  5
6F2
 10
913999.849
 20
7274017.813
 30
0.0
  0
VERTEX
  8
22
  6
CONTINUOUS
 62
     3
  5
6F3
 10
913998.099
 20
7274025.871
 30
0.0
  0
SEQEND
  8
22
  6
CONTINUOUS
 62
     3
  5
6F4
  0
POLYLINE
  8
22
  6
CONTINUOUS
 62
     3
  5
6F5
 66
     1
 10
0.0
 20
0.0
 30
0.0
  0
VERTEX
  8
22
  6
CONTINUOUS
 62
     3
  5
6F6
 10
913999.849
 20
7274017.813
 30
0.0
  0
VERTEX
  8
22
  6
CONTINUOUS
 62
     3
  5
6F7
 10
914000.528
 20
7274039.598
 30
0.0
  0
VERTEX
  8
22
  6
CONTINUOUS
 62
     3
  5
6F8
 10
913987.224
 20
7274040.013
 30
0.0
  0
SEQEND
  8
22
  6
CONTINUOUS
 62
     3
  5
6F9
  0
ENDBLK
  8
22
  6
CONTINUOUS
 62
     3
  5
6FA
  0
BLOCK
  8
22
  6
CONTINUOUS
 62
     3
  5
6FD
  2
*D28
 70
     1
 10
0.0
 20
0.0
 30
0.0
  3
*N28
  0
POLYLINE
  8
22
  6
CONTINUOUS
 62
     3
  5
6FE
 66
     1
 10
0.0
 20
0.0
 30
0.0
  0
VERTEX
  8
22
  6
CONTINUOUS
 62
     3
  5
6FF
 10
913997.187
 20
7273996.565
 30
0.0
  0
VERTEX
  8
22
  6
CONTINUOUS
 62
     3
  5
700
 10
913999.434
 20
7274004.499
 30
0.0
  0
VERTEX
  8
22
  6
CONTINUOUS
 62
     3
  5
701
 10
914001.185
 20
7273996.441
 30
0.0
  0
SEQEND
  8
22
  6
CONTINUOUS
 62
     3
  5
702
  0
LINE
  8
22
  6
CONTINUOUS
 62
     3
  5
703
 10
913999.434
 20
7274004.499
 30
0.0
 11
913998.795
 21
7273983.924
 31
0.0
  0
ENDBLK
  8
22
  6
CONTINUOUS
 62
     3
  5
704
  0
BLOCK
  8
22
  6
CONTINUOUS
 62
     3
  5
73C
  2
*D29
 70
     1
 10
0.0
 20
0.0
 30
0.0
  3
*N29
  0
POLYLINE
  8
22
  6
CONTINUOUS
 62
     3
  5
73D
 66
     1
 10
0.0
 20
0.0
 30
0.0
  0
VERTEX
  8
22
  6
CONTINUOUS
 62
     3
  5
73E
 10
912983.56
 20
7271751.578
 30
0.0
  0
VERTEX
  8
22
  6
CONTINUOUS
 62
     3
  5
73F
 10
912981.312
 20
7271743.644
 30
0.0
  0
VERTEX
  8
22
  6
CONTINUOUS
 62
     3
  5
740
 10
912979.562
 20
7271751.702
 30
0.0
  0
SEQEND
  8
22
  6
CONTINUOUS
 62
     3
  5
741
  0
LINE
  8
22
  6
CONTINUOUS
 62
     3
  5
742
 10
912981.312
 20
7271743.644
 30
0.0
 11
912982.036
 21
7271766.933
 31
0.0
  0
ENDBLK
  8
22
  6
CONTINUOUS
 62
     3
  5
743
  0
BLOCK
  8
22
  6
CONTINUOUS
 62
     3
  5
746
  2
*D30
 70
     1
 10
0.0
 20
0.0
 30
0.0
  3
*N30
  0
POLYLINE
  8
22
  6
CONTINUOUS
 62
     3
  5
747
 66
     1
 10
0.0
 20
0.0
 30
0.0
  0
VERTEX
  8
22
  6
CONTINUOUS
 62
     3
  5
748
 10
912978.821
 20
7271722.446
 30
0.0
  0
VERTEX
  8
22
  6
CONTINUOUS
 62
     3
  5
749
 10
912981.069
 20
7271730.38
 30
0.0
  0
VERTEX
  8
22
  6
CONTINUOUS
 62
     3
  5
74A
 10
912982.819
 20
7271722.322
 30
0.0
  0
SEQEND
  8
22
  6
CONTINUOUS
 62
     3
  5
74B
  0
LINE
  8
22
  6
CONTINUOUS
 62
     3
  5
74C
 10
912981.069
 20
7271730.38
 30
0.0
 11
912980.45
 21
7271710.49
 31
0.0
  0
ENDBLK
  8
22
  6
CONTINUOUS
 62
     3
  5
74D
  0
BLOCK
  8
22
  6
CONTINUOUS
 62
     3
  5
750
  2
*D31
 70
     1
 10
0.0
 20
0.0
 30
0.0
  3
*N31
  0
POLYLINE
  8
22
  6
CONTINUOUS
 62
     3
  5
751
 66
     1
 10
0.0
 20
0.0
 30
0.0
  0
VERTEX
  8
22
  6
CONTINUOUS
 62
     3
  5
752
 10
913004.439
 20
7271761.308
 30
0.0
  0
VERTEX
  8
22
  6
CONTINUOUS
 62
     3
  5
753
 10
913002.191
 20
7271753.374
 30
0.0
  0
VERTEX
  8
22
  6
CONTINUOUS
 62
     3
  5
754
 10
913000.441
 20
7271761.432
 30
0.0
  0
SEQEND
  8
22
  6
CONTINUOUS
 62
     3
  5
755
  0
LINE
  8
22
  6
CONTINUOUS
 62
     3
  5
756
 10
913002.191
 20
7271753.374
 30
0.0
 11
913003.032
 21
7271780.403
 31
0.0
  0
ENDBLK
  8
22
  6
CONTINUOUS
 62
     3
  5
757
  0
BLOCK
  8
22
  6
CONTINUOUS
 62
     3
  5
75A
  2
*D32
 70
     1
 10
0.0
 20
0.0
 30
0.0
  3
*N32
  0
POLYLINE
  8
22
  6
CONTINUOUS
 62
     3
  5
75B
 66
     1
 10
0.0
 20
0.0
 30
0.0
  0
VERTEX
  8
22
  6
CONTINUOUS
 62
     3
  5
75C
 10
912999.042
 20
7271721.986
 30
0.0
  0
VERTEX
  8
22
  6
CONTINUOUS
 62
     3
  5
75D
 10
913001.29
 20
7271729.92
 30
0.0
  0
VERTEX
  8
22
  6
CONTINUOUS
 62
     3
  5
75E
 10
913003.04
 20
7271721.862
 30
0.0
  0
SEQEND
  8
22
  6
CONTINUOUS
 62
     3
  5
75F
  0
LINE
  8
22
  6
CONTINUOUS
 62
     3
  5
760
 10
913001.29
 20
7271729.92
 30
0.0
 11
913000.666
 21
7271709.86
 31
0.0
  0
ENDBLK
  8
22
  6
CONTINUOUS
 62
     3
  5
761
  0
BLOCK
  8
22
  6
CONTINUOUS
 62
     3
  5
766
  2
*D33
 70
     1
 10
0.0
 20
0.0
 30
0.0
  3
*N33
  0
POLYLINE
  8
22
  6
CONTINUOUS
 62
     3
  5
767
 66
     1
 10
0.0
 20
0.0
 30
0.0
  0
VERTEX
  8
22
  6
CONTINUOUS
 62
     3
  5
768
 10
911531.013
 20
7271796.511
 30
0.0
  0
VERTEX
  8
22
  6
CONTINUOUS
 62
     3
  5
769
 10
911528.765
 20
7271788.577
 30
0.0
  0
VERTEX
  8
22
  6
CONTINUOUS
 62
     3
  5
76A
 10
911527.015
 20
7271796.635
 30
0.0
  0
SEQEND
  8
22
  6
CONTINUOUS
 62
     3
  5
76B
  0
LINE
  8
22
  6
CONTINUOUS
 62
     3
  5
76C
 10
911528.765
 20
7271788.577
 30
0.0
 11
911529.564
 21
7271814.248
 31
0.0
  0
ENDBLK
  8
22
  6
CONTINUOUS
 62
     3
  5
76D
  0
BLOCK
  8
22
  6
CONTINUOUS
 62
     3
  5
770
  2
*D34
 70
     1
 10
0.0
 20
0.0
 30
0.0
  3
*N34
  0
POLYLINE
  8
22
  6
CONTINUOUS
 62
     3
  5
771
 66
     1
 10
0.0
 20
0.0
 30
0.0
  0
VERTEX
  8
22
  6
CONTINUOUS
 62
     3
  5
772
 10
911526.095
 20
7271767.109
 30
0.0
  0
VERTEX
  8
22
  6
CONTINUOUS
 62
     3
  5
773
 10
911528.343
 20
7271775.043
 30
0.0
  0
VERTEX
  8
22
  6
CONTINUOUS
 62
     3
  5
774
 10
911530.093
 20
7271766.985
 30
0.0
  0
SEQEND
  8
22
  6
CONTINUOUS
 62
     3
  5
775
  0
LINE
  8
22
  6
CONTINUOUS
 62
     3
  5
776
 10
911528.343
 20
7271775.043
 30
0.0
 11
911527.649
 21
7271752.796
 31
0.0
  0
ENDBLK
  8
22
  6
CONTINUOUS
 62
     3
  5
777
  0
BLOCK
  8
22
  6
CONTINUOUS
 62
     3
  5
782
  2
*D35
 70
     1
 10
0.0
 20
0.0
 30
0.0
  3
*N35
  0
POLYLINE
  8
22
  6
CONTINUOUS
 62
     3
  5
783
 66
     1
 10
0.0
 20
0.0
 30
0.0
  0
VERTEX
  8
22
  6
CONTINUOUS
 62
     3
  5
784
 10
912963.064
 20
7269208.732
 30
0.0
  0
VERTEX
  8
22
  6
CONTINUOUS
 62
     3
  5
785
 10
912970.998
 20
7269206.484
 30
0.0
  0
VERTEX
  8
22
  6
CONTINUOUS
 62
     3
  5
786
 10
912962.94
 20
7269204.734
 30
0.0
  0
SEQEND
  8
22
  6
CONTINUOUS
 62
     3
  5
787
  0
LINE
  8
22
  6
CONTINUOUS
 62
     3
  5
788
 10
912970.998
 20
7269206.484
 30
0.0
 11
912958.162
 21
7269206.884
 31
0.0
  0
ENDBLK
  8
22
  6
CONTINUOUS
 62
     3
  5
789
  0
BLOCK
  8
22
  6
CONTINUOUS
 62
     3
  5
78C
  2
*D36
 70
     1
 10
0.0
 20
0.0
 30
0.0
  3
*N36
  0
POLYLINE
  8
22
  6
CONTINUOUS
 62
     3
  5
78D
 66
     1
 10
0.0
 20
0.0
 30
0.0
  0
VERTEX
  8
22
  6
CONTINUOUS
 62
     3
  5
78E
 10
913004.601
 20
7269203.438
 30
0.0
  0
VERTEX
  8
22
  6
CONTINUOUS
 62
     3
  5
78F
 10
912996.667
 20
7269205.686
 30
0.0
  0
VERTEX
  8
22
  6
CONTINUOUS
 62
     3
  5
790
 10
913004.725
 20
7269207.436
 30
0.0
  0
SEQEND
  8
22
  6
CONTINUOUS
 62
     3
  5
791
  0
LINE
  8
22
  6
CONTINUOUS
 62
     3
  5
792
 10
912996.667
 20
7269205.686
 30
0.0
 11
913018.989
 21
7269204.991
 31
0.0
  0
ENDBLK
  8
22
  6
CONTINUOUS
 62
     3
  5
793
  0
BLOCK
  8
22
  6
CONTINUOUS
 62
     3
  5
797
  2
*D37
 70
     1
 10
0.0
 20
0.0
 30
0.0
  3
*N37
  0
POLYLINE
  8
22
  6
CONTINUOUS
 62
     3
  5
798
 66
     1
 10
0.0
 20
0.0
 30
0.0
  0
VERTEX
  8
22
  6
CONTINUOUS
 62
     3
  5
799
 10
912965.604
 20
7269272.375
 30
0.0
  0
VERTEX
  8
22
  6
CONTINUOUS
 62
     3
  5
79A
 10
912973.538
 20
7269270.127
 30
0.0
  0
VERTEX
  8
22
  6
CONTINUOUS
 62
     3
  5
79B
 10
912965.48
 20
7269268.377
 30
0.0
  0
SEQEND
  8
22
  6
CONTINUOUS
 62
     3
  5
79C
  0
LINE
  8
22
  6
CONTINUOUS
 62
     3
  5
79D
 10
912973.538
 20
7269270.127
 30
0.0
 11
912959.029
 21
7269270.579
 31
0.0
  0
ENDBLK
  8
22
  6
CONTINUOUS
 62
     3
  5
79E
  0
BLOCK
  8
22
  6
CONTINUOUS
 62
     3
  5
7A1
  2
*D38
 70
     1
 10
0.0
 20
0.0
 30
0.0
  3
*N38
  0
POLYLINE
  8
22
  6
CONTINUOUS
 62
     3
  5
7A2
 66
     1
 10
0.0
 20
0.0
 30
0.0
  0
VERTEX
  8
22
  6
CONTINUOUS
 62
     3
  5
7A3
 10
912997.637
 20
7269266.816
 30
0.0
  0
VERTEX
  8
22
  6
CONTINUOUS
 62
     3
  5
7A4
 10
912989.703
 20
7269269.064
 30
0.0
  0
VERTEX
  8
22
  6
CONTINUOUS
 62
     3
  5
7A5
 10
912997.761
 20
7269270.814
 30
0.0
  0
SEQEND
  8
22
  6
CONTINUOUS
 62
     3
  5
7A6
  0
LINE
  8
22
  6
CONTINUOUS
 62
     3
  5
7A7
 10
912989.703
 20
7269269.064
 30
0.0
 11
913004.771
 21
7269268.595
 31
0.0
  0
ENDBLK
  8
22
  6
CONTINUOUS
 62
     3
  5
7A8
  0
BLOCK
  8
22
  6
CONTINUOUS
 62
     3
  5
7C3
  2
*D39
 70
     1
 10
0.0
 20
0.0
 30
0.0
  3
*N39
  0
POLYLINE
  8
22
  6
CONTINUOUS
 62
     3
  5
7C4
 66
     1
 10
0.0
 20
0.0
 30
0.0
  0
VERTEX
  8
22
  6
CONTINUOUS
 62
     3
  5
7C5
 10
915617.597
 20
7272295.135
 30
0.0
  0
VERTEX
  8
22
  6
CONTINUOUS
 62
     3
  5
7C6
 10
915619.845
 20
7272303.069
 30
0.0
  0
VERTEX
  8
22
  6
CONTINUOUS
 62
     3
  5
7C7
 10
915621.595
 20
7272295.011
 30
0.0
  0
SEQEND
  8
22
  6
CONTINUOUS
 62
     3
  5
7C8
  0
POLYLINE
  8
22
  6
CONTINUOUS
 62
     3
  5
7C9
 66
     1
 10
0.0
 20
0.0
 30
0.0
  0
VERTEX
  8
22
  6
CONTINUOUS
 62
     3
  5
7CA
 10
915619.845
 20
7272303.069
 30
0.0
  0
VERTEX
  8
22
  6
CONTINUOUS
 62
     3
  5
7CB
 10
915619.247
 20
7272283.844
 30
0.0
  0
VERTEX
  8
22
  6
CONTINUOUS
 62
     3
  5
7CC
 10
915632.053
 20
7272283.447
 30
0.0
  0
SEQEND
  8
22
  6
CONTINUOUS
 62
     3
  5
7CD
  0
ENDBLK
  8
22
  6
CONTINUOUS
 62
     3
  5
7CE
  0
BLOCK
  8
22
  6
CONTINUOUS
 62
     3
  5
7D2
  2
*D40
 70
     1
 10
0.0
 20
0.0
 30
0.0
  3
*N40
  0
POLYLINE
  8
22
  6
CONTINUOUS
 62
     3
  5
7D3
 66
     1
 10
0.0
 20
0.0
 30
0.0
  0
VERTEX
  8
22
  6
CONTINUOUS
 62
     3
  5
7D4
 10
915635.63
 20
7272886.568
 30
0.0
  0
VERTEX
  8
22
  6
CONTINUOUS
 62
     3
  5
7D5
 10
915637.878
 20
7272894.502
 30
0.0
  0
VERTEX
  8
22
  6
CONTINUOUS
 62
     3
  5
7D6
 10
915639.628
 20
7272886.444
 30
0.0
  0
SEQEND
  8
22
  6
CONTINUOUS
 62
     3
  5
7D7
  0
POLYLINE
  8
22
  6
CONTINUOUS
 62
     3
  5
7D8
 66
     1
 10
0.0
 20
0.0
 30
0.0
  0
VERTEX
  8
22
  6
CONTINUOUS
 62
     3
  5
7D9
 10
915637.878
 20
7272894.502
 30
0.0
  0
VERTEX
  8
22
  6
CONTINUOUS
 62
     3
  5
7DA
 10
915637.292
 20
7272875.654
 30
0.0
  0
VERTEX
  8
22
  6
CONTINUOUS
 62
     3
  5
7DB
 10
915649.346
 20
7272875.279
 30
0.0
  0
SEQEND
  8
22
  6
CONTINUOUS
 62
     3
  5
7DC
  0
ENDBLK
  8
22
  6
CONTINUOUS
 62
     3
  5
7DD
  0
BLOCK
  8
22
  6
CONTINUOUS
 62
     3
  5
7E0
  2
*D41
 70
     1
 10
0.0
 20
0.0
 30
0.0
  3
*N41
  0
POLYLINE
  8
22
  6
CONTINUOUS
 62
     3
  5
7E1
 66
     1
 10
0.0
 20
0.0
 30
0.0
  0
VERTEX
  8
22
  6
CONTINUOUS
 62
     3
  5
7E2
 10
915071.701
 20
7273486.691
 30
0.0
  0
VERTEX
  8
22
  6
CONTINUOUS
 62
     3
  5
7E3
 10
915078.901
 20
7273490.712
 30
0.0
  0
VERTEX
  8
22
  6
CONTINUOUS
 62
     3
  5
7E4
 10
915074.44
 20
7273483.776
 30
0.0
  0
SEQEND
  8
22
  6
CONTINUOUS
 62
     3
  5
7E5
  0
POLYLINE
  8
22
  6
CONTINUOUS
 62
     3
  5
7E6
 66
     1
 10
0.0
 20
0.0
 30
0.0
  0
VERTEX
  8
22
  6
CONTINUOUS
 62
     3
  5
7E7
 10
915078.901
 20
7273490.712
 30
0.0
  0
VERTEX
  8
22
  6
CONTINUOUS
 62
     3
  5
7E8
 10
915065.14
 20
7273477.782
 30
0.0
  0
VERTEX
  8
22
  6
CONTINUOUS
 62
     3
  5
7E9
 10
915041.595
 20
7273478.516
 30
0.0
  0
VERTEX
  8
22
  6
CONTINUOUS
 62
     3
  5
7EA
 10
915041.895
 20
7273488.146
 30
0.0
  0
SEQEND
  8
22
  6
CONTINUOUS
 62
     3
  5
7EB
  0
ENDBLK
  8
22
  6
CONTINUOUS
 62
     3
  5
7EC
  0
BLOCK
  8
22
  6
CONTINUOUS
 62
     3
  5
7EF
  2
*D42
 70
     1
 10
0.0
 20
0.0
 30
0.0
  3
*N42
  0
POLYLINE
  8
22
  6
CONTINUOUS
 62
     3
  5
7F0
 66
     1
 10
0.0
 20
0.0
 30
0.0
  0
VERTEX
  8
22
  6
CONTINUOUS
 62
     3
  5
7F1
 10
915617.696
 20
7272105.735
 30
0.0
  0
VERTEX
  8
22
  6
CONTINUOUS
 62
     3
  5
7F2
 10
915616.479
 20
7272110.584
 30
0.0
  0
VERTEX
  8
22
  6
CONTINUOUS
 62
     3
  5
7F3
 10
915619.835
 20
7272106.879
 30
0.0
  0
SEQEND
  8
22
  6
CONTINUOUS
 62
     3
  5
7F4
  0
LINE
  8
22
  6
CONTINUOUS
 62
     3
  5
7F5
 10
915616.479
 20
7272110.584
 30
0.0
 11
915632.569
 21
7272080.489
 31
0.0
  0
ENDBLK
  8
22
  6
CONTINUOUS
 62
     3
  5
7F6
  0
BLOCK
  8
22
  6
CONTINUOUS
 62
     3
  5
7F9
  2
*D43
 70
     1
 10
0.0
 20
0.0
 30
0.0
  3
*N43
  0
POLYLINE
  8
22
  6
CONTINUOUS
 62
     3
  5
7FA
 66
     1
 10
0.0
 20
0.0
 30
0.0
  0
VERTEX
  8
22
  6
CONTINUOUS
 62
     3
  5
7FB
 10
915614.144
 20
7271890.824
 30
0.0
  0
VERTEX
  8
22
  6
CONTINUOUS
 62
     3
  5
7FC
 10
915610.429
 20
7271887.479
 30
0.0
  0
VERTEX
  8
22
  6
CONTINUOUS
 62
     3
  5
7FD
 10
915612.133
 20
7271892.179
 30
0.0
  0
SEQEND
  8
22
  6
CONTINUOUS
 62
     3
  5
7FE
  0
LINE
  8
22
  6
CONTINUOUS
 62
     3
  5
7FF
 10
915610.429
 20
7271887.479
 30
0.0
 11
915626.402
 21
7271911.194
 31
0.0
  0
ENDBLK
  8
22
  6
CONTINUOUS
 62
     3
  5
800
  0
BLOCK
  8
22
  6
CONTINUOUS
 62
     3
  5
803
  2
*D44
 70
     1
 10
0.0
 20
0.0
 30
0.0
  3
*N44
  0
POLYLINE
  8
22
  6
CONTINUOUS
 62
     3
  5
804
 66
     1
 10
0.0
 20
0.0
 30
0.0
  0
VERTEX
  8
22
  6
CONTINUOUS
 62
     3
  5
805
 10
915652.435
 20
7273089.196
 30
0.0
  0
VERTEX
  8
22
  6
CONTINUOUS
 62
     3
  5
806
 10
915648.607
 20
7273085.98
 30
0.0
  0
VERTEX
  8
22
  6
CONTINUOUS
 62
     3
  5
807
 10
915650.471
 20
7273090.619
 30
0.0
  0
SEQEND
  8
22
  6
CONTINUOUS
 62
     3
  5
808
  0
LINE
  8
22
  6
CONTINUOUS
 62
     3
  5
809
 10
915648.607
 20
7273085.98
 30
0.0
 11
915666.399
 21
7273110.535
 31
0.0
  0
ENDBLK
  8
22
  6
CONTINUOUS
 62
     3
  5
80A
  0
BLOCK
  8
22
  6
CONTINUOUS
 62
     3
  5
80D
  2
*D45
 70
     1
 10
0.0
 20
0.0
 30
0.0
  3
*N45
  0
POLYLINE
  8
22
  6
CONTINUOUS
 62
     3
  5
80E
 66
     1
 10
0.0
 20
0.0
 30
0.0
  0
VERTEX
  8
22
  6
CONTINUOUS
 62
     3
  5
80F
 10
911918.898
 20
7269630.715
 30
0.0
  0
VERTEX
  8
22
  6
CONTINUOUS
 62
     3
  5
810
 10
911919.215
 20
7269635.704
 30
0.0
  0
VERTEX
  8
22
  6
CONTINUOUS
 62
     3
  5
811
 10
911921.283
 20
7269631.152
 30
0.0
  0
SEQEND
  8
22
  6
CONTINUOUS
 62
     3
  5
812
  0
LINE
  8
22
  6
CONTINUOUS
 62
     3
  5
813
 10
911919.215
 20
7269635.704
 30
0.0
 11
911936.231
 21
7269542.967
 31
0.0
  0
ENDBLK
  8
22
  6
CONTINUOUS
 62
     3
  5
814
  0
BLOCK
  8
22
  6
CONTINUOUS
 62
     3
  5
817
  2
*D46
 70
     1
 10
0.0
 20
0.0
 30
0.0
  3
*N46
  0
POLYLINE
  8
22
  6
CONTINUOUS
 62
     3
  5
818
 66
     1
 10
0.0
 20
0.0
 30
0.0
  0
VERTEX
  8
22
  6
CONTINUOUS
 62
     3
  5
819
 10
911908.166
 20
7269263.687
 30
0.0
  0
VERTEX
  8
22
  6
CONTINUOUS
 62
     3
  5
81A
 10
911906.017
 20
7269259.173
 30
0.0
  0
VERTEX
  8
22
  6
CONTINUOUS
 62
     3
  5
81B
 10
911905.789
 20
7269264.167
 30
0.0
  0
SEQEND
  8
22
  6
CONTINUOUS
 62
     3
  5
81C
  0
LINE
  8
22
  6
CONTINUOUS
 62
     3
  5
81D
 10
911906.017
 20
7269259.173
 30
0.0
 11
911928.676
 21
7269371.33
 31
0.0
  0
ENDBLK
  8
22
  6
CONTINUOUS
 62
     3
  5
81E
  0
BLOCK
  8
22
  6
CONTINUOUS
 62
     3
  5
826
  2
*D47
 70
     1
 10
0.0
 20
0.0
 30
0.0
  3
*N47
  0
TEXT
  8
22
  6
CONTINUOUS
 62
     3
  5
827
 10
913172.441
 20
7273884.194
 30
0.0
 40
5.0
  1
N60%%d56'50"E
 50
29.052781
  7
ROMANS
 72
     1
 11
913193.232701
 21
7273901.463772
 31
0.0
210
0.0
220
0.0
230
1.0
 73
     3
  0
TEXT
  8
22
  6
CONTINUOUS
 62
     3
  5
828
 10
913176.964
 20
7273898.146
 30
0.0
 40
5.0
  1
115.89'
 50
29.052781
  7
ROMANS
 72
     1
 11
913190.804777
 21
7273905.834744
 31
0.0
210
0.0
220
0.0
230
1.0
  0
ENDBLK
  8
22
  6
CONTINUOUS
 62
     3
  5
829
  0
BLOCK
  8
11
  6
CONTINUOUS
 62
     7
  5
86A
  2
*D48
 70
     1
 10
0.0
 20
0.0
 30
0.0
  3
*N48
  0
POLYLINE
  8
11
  6
CONTINUOUS
 62
     7
  5
86B
 66
     1
 10
0.0
 20
0.0
 30
0.0
  0
VERTEX
  8
11
  6
CONTINUOUS
 62
     7
  5
86C
 10
910602.093
 20
7271776.485
 30
0.0
  0
VERTEX
  8
11
  6
CONTINUOUS
 62
     7
  5
86D
 10
910594.159
 20
7271778.733
 30
0.0
  0
VERTEX
  8
11
  6
CONTINUOUS
 62
     7
  5
86E
 10
910602.217
 20
7271780.483
 30
0.0
  0
SEQEND
  8
11
  6
CONTINUOUS
 62
     7
  5
86F
  0
LINE
  8
11
  6
CONTINUOUS
 62
     7
  5
870
 10
910594.159
 20
7271778.733
 30
0.0
 11
910630.756
 21
7271777.593
 31
0.0
  0
ENDBLK
  8
11
  6
CONTINUOUS
 62
     7
  5
871
  0
BLOCK
  8
11
  6
CONTINUOUS
 62
     7
  5
874
  2
*D49
 70
     1
 10
0.0
 20
0.0
 30
0.0
  3
*N49
  0
POLYLINE
  8
11
  6
CONTINUOUS
 62
     7
  5
875
 66
     1
 10
0.0
 20
0.0
 30
0.0
  0
VERTEX
  8
11
  6
CONTINUOUS
 62
     7
  5
876
 10
910685.76
 20
7271777.582
 30
0.0
  0
VERTEX
  8
11
  6
CONTINUOUS
 62
     7
  5
877
 10
910693.694
 20
7271775.334
 30
0.0
  0
VERTEX
  8
11
  6
CONTINUOUS
 62
     7
  5
878
 10
910685.636
 20
7271773.584
 30
0.0
  0
SEQEND
  8
11
  6
CONTINUOUS
 62
     7
  5
879
  0
LINE
  8
11
  6
CONTINUOUS
 62
     7
  5
87A
 10
910693.694
 20
7271775.334
 30
0.0
 11
910652.729
 21
7271776.61
 31
0.0
  0
ENDBLK
  8
11
  6
CONTINUOUS
 62
     7
  5
87B
  0
ENDSEC
  0
SECTION
  2
ENTITIES
  0
LINE
  8
6
  6
CONTINUOUS
 62
     7
  5
29
 10
914647.676
 20
7274247.429
 30
0.0
 11
914632.784
 21
7273769.109
 31
0.0
  0
LINE
  8
6
  6
CONTINUOUS
 62
     7
  5
2A
 10
914703.649
 20
7274245.685
 30
0.0
 11
914688.711
 21
7273765.918
 31
0.0
  0
LINE
  8
6
  6
CONTINUOUS
 62
     7
  5
2B
 10
914978.516
 20
7274237.128
 30
0.0
 11
914963.578
 21
7273757.36
 31
0.0
  0
LINE
  8
6
  6
CONTINUOUS
 62
     7
  5
2C
 10
914003.089
 20
7273788.714
 30
0.0
 11
914018.649
 21
7274288.471
 31
0.0
  0
LINE
  8
6
  6
CONTINUOUS
 62
     7
  5
2D
 10
914018.649
 20
7274288.471
 30
0.0
 11
914427.041
 21
7274275.757
 31
0.0
  0
LINE
  8
6
  6
CONTINUOUS
 62
     7
  5
2E
 10
914338.494
 20
7274278.513
 30
0.0
 11
914322.934
 21
7273778.756
 31
0.0
  0
LINE
  8
6
  6
CONTINUOUS
 62
     7
  5
2F
 10
914688.711
 20
7273765.918
 30
0.0
 11
915060.651
 21
7273754.338
 31
0.0
  0
LINE
  8
6
  6
CONTINUOUS
 62
     7
  5
30
 10
915667.155
 20
7274215.687
 30
0.0
 11
914647.676
 21
7274247.429
 31
0.0
  0
LINE
  8
6
  6
CONTINUOUS
 62
     7
  5
31
 10
914647.676
 20
7274247.429
 30
0.0
 11
914526.334
 21
7274251.206
 31
0.0
  0
LINE
  8
6
  6
CONTINUOUS
 62
     7
  5
32
 10
914632.784
 20
7273769.109
 30
0.0
 11
914322.934
 21
7273778.756
 31
0.0
  0
LINE
  8
6
  6
CONTINUOUS
 62
     7
  5
33
 10
914322.934
 20
7273778.756
 30
0.0
 11
914003.089
 21
7273788.714
 31
0.0
  0
LINE
  8
6
  6
CONTINUOUS
 62
     7
  5
34
 10
914427.041
 20
7274275.757
 30
0.0
 11
914526.334
 21
7274251.206
 31
0.0
  0
LINE
  8
6
  6
CONTINUOUS
 62
     7
  5
35
 10
915060.651
 20
7273754.338
 30
0.0
 11
915070.335
 21
7273744.031
 31
0.0
  0
LINE
  8
6
  6
CONTINUOUS
 62
     7
  5
36
 10
915070.335
 20
7273744.031
 30
0.0
 11
915006.982
 21
7271709.217
 31
0.0
  0
LINE
  8
6
  6
CONTINUOUS
 62
     7
  5
37
 10
915006.982
 20
7271709.217
 30
0.0
 11
915054.65
 21
7273240.224
 31
0.0
  0
LINE
  8
6
  6
CONTINUOUS
 62
     7
  5
38
 10
915098.407
 20
7273653.294
 30
0.0
 11
915674.099
 21
7273635.37
 31
0.0
  0
LINE
  8
6
  6
CONTINUOUS
 62
     7
  5
39
 10
915088.102
 20
7273643.611
 30
0.0
 11
915033.145
 21
7271878.465
 31
0.0
  0
LINE
  8
6
  6
CONTINUOUS
 62
     7
  5
3A
 10
915088.102
 20
7273643.611
 30
0.0
 11
915098.407
 21
7273653.294
 31
0.0
  0
LINE
  8
6
  6
CONTINUOUS
 62
     7
  5
3B
 10
915674.099
 20
7273635.37
 30
0.0
 11
915671.143
 21
7273540.416
 31
0.0
  0
LINE
  8
6
  6
CONTINUOUS
 62
     7
  5
3C
 10
915655.683
 20
7273525.89
 30
0.0
 11
915269.85
 21
7273537.903
 31
0.0
  0
LINE
  8
6
  6
CONTINUOUS
 62
     7
  5
3D
 10
915192.553
 20
7273465.273
 30
0.0
 11
915142.731
 21
7271865.048
 31
0.0
  0
LINE
  8
6
  6
CONTINUOUS
 62
     7
  5
3E
 10
915142.731
 20
7271865.048
 30
0.0
 11
915174.627
 21
7272889.533
 31
0.0
  0
ARC
  8
6
  6
CONTINUOUS
 62
     7
  5
3F
 10
915267.516363
 20
7273462.939353
 30
0.0
 40
75.0
 50
88.2167
 51
178.2167
210
0.0
220
0.0
230
1.0
  0
LINE
  8
6
  6
CONTINUOUS
 62
     7
  5
40
 10
915142.731
 20
7271865.048
 30
0.0
 11
915042.829
 21
7271868.159
 31
0.0
  0
LINE
  8
6
  6
CONTINUOUS
 62
     7
  5
41
 10
915033.145
 20
7271878.465
 30
0.0
 11
915042.829
 21
7271868.159
 31
0.0
  0
LINE
  8
6
  6
CONTINUOUS
 62
     7
  5
42
 10
915033.145
 20
7271878.465
 30
0.0
 11
915081.081
 21
7273418.1
 31
0.0
  0
LINE
  8
6
  6
CONTINUOUS
 62
     7
  5
43
 10
915033.145
 20
7271878.465
 30
0.0
 11
915053.863
 21
7272543.941
 31
0.0
  0
LINE
  8
6
  6
CONTINUOUS
 62
     7
  5
44
 10
915267.462
 20
7271720.414
 30
0.0
 11
915589.106
 21
7271710.401
 31
0.0
  0
LINE
  8
6
  6
CONTINUOUS
 62
     7
  5
45
 10
915614.872
 20
7271734.61
 30
0.0
 11
915617.828
 21
7271829.544
 31
0.0
  0
LINE
  8
6
  6
CONTINUOUS
 62
     7
  5
46
 10
915011.323
 20
7271848.621
 30
0.0
 11
915142.009
 21
7271844.551
 31
0.0
  0
LINE
  8
6
  6
CONTINUOUS
 62
     7
  5
47
 10
915142.009
 20
7271844.551
 30
0.0
 11
915138.396
 21
7271728.48
 31
0.0
  0
LINE
  8
6
  6
CONTINUOUS
 62
     7
  5
48
 10
915006.966
 20
7271708.692
 30
0.0
 11
915124.077
 21
7271713.962
 31
0.0
  0
LINE
  8
6
  6
CONTINUOUS
 62
     7
  5
49
 10
915214.931
 20
7271718.049
 30
0.0
 11
915267.462
 21
7271720.414
 31
0.0
  0
ARC
  8
6
  6
CONTINUOUS
 62
     7
  5
4A
 10
915123.402709
 20
7271728.947022
 30
0.0
 40
15.0
 50
272.577086
 51
358.2167
210
0.0
220
0.0
230
1.0
  0
LINE
  8
6
  6
CONTINUOUS
 62
     7
  5
4B
 10
915618.6
 20
7271850.144
 30
0.0
 11
915202.782
 21
7271863.092
 31
0.0
  0
LINE
  8
6
  6
CONTINUOUS
 62
     7
  5
4C
 10
915202.782
 20
7271863.092
 30
0.0
 11
915206.049
 21
7271968.04
 31
0.0
  0
LINE
  8
6
  6
CONTINUOUS
 62
     7
  5
4D
 10
915221.509
 20
7271982.566
 30
0.0
 11
915510.968
 21
7271973.554
 31
0.0
  0
LINE
  8
6
  6
CONTINUOUS
 62
     7
  5
4E
 10
915618.6
 20
7271850.144
 30
0.0
 11
915627.812
 21
7272146.001
 31
0.0
  0
LINE
  8
6
  6
CONTINUOUS
 62
     7
  5
4F
 10
915627.812
 20
7272146.001
 30
0.0
 11
915211.992
 21
7272158.948
 31
0.0
  0
LINE
  8
6
  6
CONTINUOUS
 62
     7
  5
50
 10
915211.992
 20
7272158.948
 30
0.0
 11
915208.726
 21
7272053.998
 31
0.0
  0
ARC
  8
6
  6
CONTINUOUS
 62
     7
  5
51
 10
915476.604903
 20
7271980.626713
 30
0.0
 40
50.0
 50
88.2167
 51
88.216703
210
0.0
220
0.0
230
1.0
  0
ARC
  8
6
  6
CONTINUOUS
 62
     7
  5
52
 10
915469.151433
 20
7272024.880094
 30
0.0
 40
50.0
 50
268.2167
 51
268.216703
210
0.0
220
0.0
230
1.0
  0
LINE
  8
6
  6
CONTINUOUS
 62
     7
  5
53
 10
915223.251
 20
7272038.54
 30
0.0
 11
915512.998
 21
7272029.519
 31
0.0
  0
ARC
  8
6
  6
CONTINUOUS
 62
     7
  5
54
 10
915553.089653
 20
7271999.64076
 30
0.0
 40
50.0
 50
211.425903
 51
143.305933
210
0.0
220
0.0
230
1.0
  0
LINE
  8
6
  6
CONTINUOUS
 62
     7
  5
55
 10
915628.434
 20
7272165.992
 30
0.0
 11
915212.615
 21
7272178.939
 31
0.0
  0
LINE
  8
6
  6
CONTINUOUS
 62
     7
  5
56
 10
915212.615
 20
7272178.939
 30
0.0
 11
915215.758
 21
7272279.889
 31
0.0
  0
LINE
  8
6
  6
CONTINUOUS
 62
     7
  5
57
 10
915231.218
 20
7272294.415
 30
0.0
 11
915520.678
 21
7272285.404
 31
0.0
  0
LINE
  8
6
  6
CONTINUOUS
 62
     7
  5
58
 10
915628.434
 20
7272165.992
 30
0.0
 11
915637.21
 21
7272447.856
 31
0.0
  0
LINE
  8
6
  6
CONTINUOUS
 62
     7
  5
59
 10
915637.21
 20
7272447.856
 30
0.0
 11
915221.39
 21
7272460.801
 31
0.0
  0
LINE
  8
6
  6
CONTINUOUS
 62
     7
  5
5A
 10
915232.961
 20
7272350.388
 30
0.0
 11
915522.421
 21
7272341.375
 31
0.0
  0
ARC
  8
6
  6
CONTINUOUS
 62
     7
  5
5B
 10
915562.802214
 20
7272311.595599
 30
0.0
 40
50.0
 50
211.425903
 51
143.453922
210
0.0
220
0.0
230
1.0
  0
LINE
  8
6
  6
CONTINUOUS
 62
     7
  5
5C
 10
915637.832
 20
7272467.845
 30
0.0
 11
915222.014
 21
7272480.791
 31
0.0
  0
LINE
  8
6
  6
CONTINUOUS
 62
     7
  5
5D
 10
915222.014
 20
7272480.791
 30
0.0
 11
915224.97
 21
7272575.746
 31
0.0
  0
LINE
  8
6
  6
CONTINUOUS
 62
     7
  5
5E
 10
915240.428
 20
7272590.271
 30
0.0
 11
915626.262
 21
7272578.259
 31
0.0
  0
LINE
  8
6
  6
CONTINUOUS
 62
     7
  5
5F
 10
915640.788
 20
7272562.8
 30
0.0
 11
915637.832
 21
7272467.845
 31
0.0
  0
LINE
  8
6
  6
CONTINUOUS
 62
     7
  5
60
 10
915628.005
 20
7272634.233
 30
0.0
 11
915242.172
 21
7272646.244
 31
0.0
  0
LINE
  8
6
  6
CONTINUOUS
 62
     7
  5
61
 10
915227.646
 20
7272661.704
 30
0.0
 11
915230.603
 21
7272756.659
 31
0.0
  0
LINE
  8
6
  6
CONTINUOUS
 62
     7
  5
62
 10
915230.603
 20
7272756.659
 30
0.0
 11
915646.421
 21
7272743.711
 31
0.0
  0
LINE
  8
6
  6
CONTINUOUS
 62
     7
  5
63
 10
915646.421
 20
7272743.711
 30
0.0
 11
915643.465
 21
7272648.758
 31
0.0
  0
LINE
  8
6
  6
CONTINUOUS
 62
     7
  5
64
 10
915647.043
 20
7272763.703
 30
0.0
 11
915231.225
 21
7272776.648
 31
0.0
  0
LINE
  8
6
  6
CONTINUOUS
 62
     7
  5
65
 10
915231.225
 20
7272776.648
 30
0.0
 11
915234.181
 21
7272871.603
 31
0.0
  0
LINE
  8
6
  6
CONTINUOUS
 62
     7
  5
66
 10
915249.641
 20
7272886.128
 30
0.0
 11
915539.101
 21
7272877.116
 31
0.0
  0
LINE
  8
6
  6
CONTINUOUS
 62
     7
  5
67
 10
915647.043
 20
7272763.703
 30
0.0
 11
915655.632
 21
7273039.568
 31
0.0
  0
LINE
  8
6
  6
CONTINUOUS
 62
     7
  5
68
 10
915655.632
 20
7273039.568
 30
0.0
 11
915239.814
 21
7273052.515
 31
0.0
  0
LINE
  8
6
  6
CONTINUOUS
 62
     7
  5
69
 10
915239.814
 20
7273052.515
 30
0.0
 11
915236.858
 21
7272957.56
 31
0.0
  0
LINE
  8
6
  6
CONTINUOUS
 62
     7
  5
6A
 10
915251.383
 20
7272942.101
 30
0.0
 11
915540.843
 21
7272933.089
 31
0.0
  0
ARC
  8
6
  6
CONTINUOUS
 62
     7
  5
6B
 10
915581.224109
 20
7272903.28289
 30
0.0
 40
50.0
 50
211.425903
 51
143.453922
210
0.0
220
0.0
230
1.0
  0
LINE
  8
6
  6
CONTINUOUS
 62
     7
  5
6C
 10
915656.255
 20
7273059.559
 30
0.0
 11
915240.435
 21
7273072.505
 31
0.0
  0
LINE
  8
6
  6
CONTINUOUS
 62
     7
  5
6D
 10
915240.435
 20
7273072.505
 30
0.0
 11
915243.392
 21
7273167.46
 31
0.0
  0
LINE
  8
6
  6
CONTINUOUS
 62
     7
  5
6E
 10
915258.852
 20
7273181.986
 30
0.0
 11
915548.312
 21
7273172.972
 31
0.0
  0
LINE
  8
6
  6
CONTINUOUS
 62
     7
  5
6F
 10
915656.255
 20
7273059.559
 30
0.0
 11
915664.844
 21
7273335.425
 31
0.0
  0
LINE
  8
6
  6
CONTINUOUS
 62
     7
  5
70
 10
915664.844
 20
7273335.425
 30
0.0
 11
915249.024
 21
7273348.371
 31
0.0
  0
LINE
  8
6
  6
CONTINUOUS
 62
     7
  5
71
 10
915249.024
 20
7273348.371
 30
0.0
 11
915246.068
 21
7273253.418
 31
0.0
  0
LINE
  8
6
  6
CONTINUOUS
 62
     7
  5
72
 10
915260.595
 20
7273237.958
 30
0.0
 11
915550.055
 21
7273228.946
 31
0.0
  0
ARC
  8
6
  6
CONTINUOUS
 62
     7
  5
73
 10
915590.435461
 20
7273199.139529
 30
0.0
 40
50.0
 50
211.425903
 51
143.453922
210
0.0
220
0.0
230
1.0
  0
LINE
  8
6
  6
CONTINUOUS
 62
     7
  5
74
 10
915665.466
 20
7273355.415
 30
0.0
 11
915249.648
 21
7273368.362
 31
0.0
  0
LINE
  8
6
  6
CONTINUOUS
 62
     7
  5
75
 10
915249.648
 20
7273368.362
 30
0.0
 11
915252.604
 21
7273463.315
 31
0.0
  0
LINE
  8
6
  6
CONTINUOUS
 62
     7
  5
76
 10
915268.062
 20
7273477.842
 30
0.0
 11
915653.897
 21
7273465.829
 31
0.0
  0
LINE
  8
6
  6
CONTINUOUS
 62
     7
  5
77
 10
915668.422
 20
7273450.369
 30
0.0
 11
915665.466
 21
7273355.415
 31
0.0
  0
ARC
  8
6
  6
CONTINUOUS
 62
     7
  5
78
 10
915656.150152
 20
7273540.883041
 30
0.0
 40
15.0
 50
268.2167
 51
358.2167
210
0.0
220
0.0
230
1.0
  0
ARC
  8
6
  6
CONTINUOUS
 62
     7
  5
79
 10
915653.429624
 20
7273450.83609
 30
0.0
 40
15.0
 50
358.2167
 51
88.2167
210
0.0
220
0.0
230
1.0
  0
ARC
  8
6
  6
CONTINUOUS
 62
     7
  5
7A
 10
915267.596584
 20
7273462.848813
 30
0.0
 40
15.0
 50
88.2167
 51
178.2167
210
0.0
220
0.0
230
1.0
  0
ARC
  8
6
  6
CONTINUOUS
 62
     7
  5
7B
 10
915261.061503
 20
7273252.950522
 30
0.0
 40
15.0
 50
178.2167
 51
268.2167
210
0.0
220
0.0
230
1.0
  0
ARC
  8
6
  6
CONTINUOUS
 62
     7
  5
7C
 10
915258.385232
 20
7273166.992174
 30
0.0
 40
15.0
 50
88.2167
 51
178.2167
210
0.0
220
0.0
230
1.0
  0
ARC
  8
6
  6
CONTINUOUS
 62
     7
  5
7D
 10
915251.850152
 20
7272957.093882
 30
0.0
 40
15.0
 50
178.2167
 51
268.2167
210
0.0
220
0.0
230
1.0
  0
ARC
  8
6
  6
CONTINUOUS
 62
     7
  5
7E
 10
915249.173881
 20
7272871.135535
 30
0.0
 40
15.0
 50
88.2167
 51
178.2167
210
0.0
220
0.0
230
1.0
  0
ARC
  8
6
  6
CONTINUOUS
 62
     7
  5
7F
 10
915242.6388
 20
7272661.237243
 30
0.0
 40
15.0
 50
178.2167
 51
268.2167
210
0.0
220
0.0
230
1.0
  0
ARC
  8
6
  6
CONTINUOUS
 62
     7
  5
80
 10
915628.47184
 20
7272649.22452
 30
0.0
 40
15.0
 50
268.2167
 51
358.2167
210
0.0
220
0.0
230
1.0
  0
ARC
  8
6
  6
CONTINUOUS
 62
     7
  5
81
 10
915239.962529
 20
7272575.278895
 30
0.0
 40
15.0
 50
88.2167
 51
178.2167
210
0.0
220
0.0
230
1.0
  0
ARC
  8
6
  6
CONTINUOUS
 62
     7
  5
82
 10
915625.795569
 20
7272563.266172
 30
0.0
 40
15.0
 50
358.2167
 51
88.2167
210
0.0
220
0.0
230
1.0
  0
ARC
  8
6
  6
CONTINUOUS
 62
     7
  5
83
 10
915230.751177
 20
7272279.422256
 30
0.0
 40
15.0
 50
88.2167
 51
178.2167
210
0.0
220
0.0
230
1.0
  0
ARC
  8
6
  6
CONTINUOUS
 62
     7
  5
84
 10
915223.718186
 20
7272053.531714
 30
0.0
 40
15.0
 50
178.2167
 51
268.2167
210
0.0
220
0.0
230
1.0
  0
ARC
  8
6
  6
CONTINUOUS
 62
     7
  5
85
 10
915221.041914
 20
7271967.573366
 30
0.0
 40
15.0
 50
88.2167
 51
178.2167
210
0.0
220
0.0
230
1.0
  0
ARC
  8
6
  6
CONTINUOUS
 62
     7
  5
86
 10
915589.88407
 20
7271735.387754
 30
0.0
 40
25.0
 50
268.2167
 51
358.2167
210
0.0
220
0.0
230
1.0
  0
LINE
  8
6
  6
CONTINUOUS
 62
     7
  5
87
 10
915006.982
 20
7271709.217
 30
0.0
 11
913939.38
 21
7271742.457
 31
0.0
  0
LINE
  8
6
  6
CONTINUOUS
 62
     7
  5
88
 10
913939.38
 20
7271742.457
 30
0.0
 11
914003.044
 21
7273787.267
 31
0.0
  0
LINE
  8
6
  6
CONTINUOUS
 62
     7
  5
89
 10
915607.82
 20
7269083.968
 30
0.0
 11
915609.108
 21
7269125.332
 31
0.0
  0
LINE
  8
6
  6
CONTINUOUS
 62
     7
  5
8A
 10
915593.054
 20
7269505.605
 30
0.0
 11
915586.83
 21
7269305.702
 31
0.0
  0
LINE
  8
6
  6
CONTINUOUS
 62
     7
  5
8B
 10
915586.83
 20
7269305.702
 30
0.0
 11
915609.108
 21
7269125.332
 31
0.0
  0
ARC
  8
6
  6
CONTINUOUS
 62
     7
  5
8C
 10
915577.834633
 20
7269084.902287
 30
0.0
 40
30.0
 50
264.933689
 51
358.2167
210
0.0
220
0.0
230
1.0
  0
LINE
  8
6
  6
CONTINUOUS
 62
     7
  5
8D
 10
915580.499
 20
7269813.155
 30
0.0
 11
915579.774
 21
7269789.867
 31
0.0
  0
ARC
  8
6
  6
CONTINUOUS
 62
     7
  5
8E
 10
916831.137283
 20
7269750.905522
 30
0.0
 40
1251.97
 50
178.2167
 51
183.902481
210
0.0
220
0.0
230
1.0
  0
LINE
  8
6
  6
CONTINUOUS
 62
     7
  5
8F
 10
915582.07
 20
7269665.699
 30
0.0
 11
915588.338
 21
7269574.315
 31
0.0
  0
LINE
  8
6
  6
CONTINUOUS
 62
     7
  5
90
 10
915582.33
 20
7269813.098
 30
0.0
 11
915040.76
 21
7269829.96
 31
0.0
  0
LINE
  8
6
  6
CONTINUOUS
 62
     7
  5
91
 10
915040.76
 20
7269829.96
 30
0.0
 11
915033.292
 21
7269590.075
 31
0.0
  0
LINE
  8
6
  6
CONTINUOUS
 62
     7
  5
92
 10
915033.816
 20
7269591.58
 30
0.0
 11
915588.355
 21
7269574.314
 31
0.0
  0
LINE
  8
6
  6
CONTINUOUS
 62
     7
  5
93
 10
911913.044
 20
7269175.109
 30
0.0
 11
911922.069
 21
7269464.968
 31
0.0
  0
LINE
  8
6
  6
CONTINUOUS
 62
     7
  5
94
 10
911921.446
 20
7269444.978
 30
0.0
 11
911416.991
 21
7269460.684
 31
0.0
  0
LINE
  8
6
  6
CONTINUOUS
 62
     7
  5
95
 10
911416.991
 20
7269460.684
 30
0.0
 11
911409.522
 21
7269220.8
 31
0.0
  0
LINE
  8
6
  6
CONTINUOUS
 62
     7
  5
96
 10
911424.048
 20
7269205.341
 30
0.0
 11
911913.511
 21
7269190.101
 31
0.0
  0
LINE
  8
6
  6
CONTINUOUS
 62
     7
  5
97
 10
911334.092
 20
7269208.142
 30
0.0
 11
910827.967
 21
7269223.9
 31
0.0
  0
LINE
  8
6
  6
CONTINUOUS
 62
     7
  5
98
 10
911349.551
 20
7269222.667
 30
0.0
 11
911357.02
 21
7269462.551
 31
0.0
  0
LINE
  8
6
  6
CONTINUOUS
 62
     7
  5
99
 10
911357.02
 20
7269462.551
 30
0.0
 11
910707.564
 21
7269482.772
 31
0.0
  0
LINE
  8
6
  6
CONTINUOUS
 62
     7
  5
9A
 10
910697.258
 20
7269473.089
 30
0.0
 11
910689.873
 21
7269235.881
 31
0.0
  0
LINE
  8
6
  6
CONTINUOUS
 62
     7
  5
9B
 10
912485.846
 20
7269366.126
 30
0.0
 11
912352.161
 21
7269370.288
 31
0.0
  0
LINE
  8
6
  6
CONTINUOUS
 62
     7
  5
9C
 10
912352.161
 20
7269370.288
 30
0.0
 11
912356.361
 21
7269505.223
 31
0.0
  0
LINE
  8
6
  6
CONTINUOUS
 62
     7
  5
9D
 10
912356.361
 20
7269505.223
 30
0.0
 11
912565.011
 21
7269498.727
 31
0.0
  0
LINE
  8
6
  6
CONTINUOUS
 62
     7
  5
9E
 10
912565.011
 20
7269498.727
 30
0.0
 11
912554.313
 21
7269155.144
 31
0.0
  0
LINE
  8
6
  6
CONTINUOUS
 62
     7
  5
9F
 10
912479.816
 20
7269172.47
 30
0.0
 11
912554.779
 21
7269170.137
 31
0.0
  0
LINE
  8
6
  6
CONTINUOUS
 62
     7
  5
A0
 10
912479.35
 20
7269157.477
 30
0.0
 11
912485.846
 21
7269366.126
 31
0.0
  0
LINE
  8
6
  6
CONTINUOUS
 62
     7
  5
A1
 10
912479.35
 20
7269157.477
 30
0.0
 11
911913.044
 21
7269175.109
 31
0.0
  0
LINE
  8
6
  6
CONTINUOUS
 62
     7
  5
A2
 10
910827.967
 20
7269223.9
 30
0.0
 11
910689.873
 21
7269235.881
 31
0.0
  0
LINE
  8
6
  6
CONTINUOUS
 62
     7
  5
A3
 10
910669.743
 20
7269236.532
 30
0.0
 11
910627.866
 21
7269241.135
 31
0.0
  0
LINE
  8
6
  6
CONTINUOUS
 62
     7
  5
A4
 10
910627.866
 20
7269241.135
 30
0.0
 11
910419.967
 21
7269247.608
 31
0.0
  0
LINE
  8
6
  6
CONTINUOUS
 62
     7
  5
A5
 10
910390.915
 20
7269278.527
 30
0.0
 11
910424.789
 21
7270366.5
 31
0.0
  0
LINE
  8
6
  6
CONTINUOUS
 62
     7
  5
A6
 10
910440.248
 20
7270381.025
 30
0.0
 11
910705.12
 21
7270372.779
 31
0.0
  0
LINE
  8
6
  6
CONTINUOUS
 62
     7
  5
A7
 10
910705.12
 20
7270372.779
 30
0.0
 11
910669.743
 21
7269236.532
 31
0.0
  0
LINE
  8
6
  6
CONTINUOUS
 62
     7
  5
A8
 10
910698.503
 20
7269513.068
 30
0.0
 11
910725.249
 21
7270372.152
 31
0.0
  0
LINE
  8
6
  6
CONTINUOUS
 62
     7
  5
A9
 10
910725.249
 20
7270372.152
 30
0.0
 11
910973.379
 21
7270364.426
 31
0.0
  0
LINE
  8
6
  6
CONTINUOUS
 62
     7
  5
AA
 10
911021.8
 20
7270312.895
 30
0.0
 11
911006.339
 21
7269816.325
 31
0.0
  0
LINE
  8
6
  6
CONTINUOUS
 62
     7
  5
AB
 10
910708.187
 20
7269502.762
 30
0.0
 11
911357.641
 21
7269482.542
 31
0.0
  0
LINE
  8
6
  6
CONTINUOUS
 62
     7
  5
AC
 10
911357.641
 20
7269482.542
 30
0.0
 11
911363.858
 21
7269682.196
 31
0.0
  0
LINE
  8
6
  6
CONTINUOUS
 62
     7
  5
AD
 10
911349.332
 20
7269697.654
 30
0.0
 11
911110.868
 21
7269705.08
 31
0.0
  0
ARC
  8
6
  6
CONTINUOUS
 62
     7
  5
AE
 10
910991.346279
 20
7269816.792409
 30
0.0
 40
15.0
 50
292.433994
 51
358.2167
210
0.0
220
0.0
230
1.0
  0
ARC
  8
6
  6
CONTINUOUS
 62
     7
  5
AF
 10
911034.313763
 20
7269737.828041
 30
0.0
 40
75.0
 50
118.664511
 51
326.557567
210
0.0
220
0.0
230
1.0
  0
ARC
  8
6
  6
CONTINUOUS
 62
     7
  5
B0
 10
911110.400913
 20
7269690.086129
 30
0.0
 40
15.0
 50
88.2167
 51
155.891831
210
0.0
220
0.0
230
1.0
  0
ARC
  8
6
  6
CONTINUOUS
 62
     7
  5
B1
 10
911348.865362
 20
7269682.661655
 30
0.0
 40
15.0
 50
358.2167
 51
88.2167
210
0.0
220
0.0
230
1.0
  0
ARC
  8
6
  6
CONTINUOUS
 62
     7
  5
B2
 10
911334.558203
 20
7269223.134325
 30
0.0
 40
15.0
 50
268.2167
 51
358.2167
210
0.0
220
0.0
230
1.0
  0
ARC
  8
6
  6
CONTINUOUS
 62
     7
  5
B3
 10
911424.514614
 20
7269220.333576
 30
0.0
 40
15.0
 50
178.2167
 51
268.2167
210
0.0
220
0.0
230
1.0
  0
ARC
  8
6
  6
CONTINUOUS
 62
     7
  5
B4
 10
910439.78119
 20
7270366.032813
 30
0.0
 40
15.0
 50
88.2167
 51
178.2167
210
0.0
220
0.0
230
1.0
  0
ARC
  8
6
  6
CONTINUOUS
 62
     7
  5
B5
 10
910420.900424
 20
7269277.593211
 30
0.0
 40
30.0
 50
178.2167
 51
268.2167
210
0.0
220
0.0
230
1.0
  0
ARC
  8
6
  6
CONTINUOUS
 62
     7
  5
B6
 10
910971.823675
 20
7270314.450971
 30
0.0
 40
50.0
 50
358.2167
 51
88.2167
210
0.0
220
0.0
230
1.0
  0
LINE
  8
6
  6
CONTINUOUS
 62
     7
  5
B7
 10
910697.258
 20
7269473.089
 30
0.0
 11
910707.564
 21
7269482.772
 31
0.0
  0
LINE
  8
6
  6
CONTINUOUS
 62
     7
  5
B8
 10
910708.187
 20
7269502.762
 30
0.0
 11
910698.503
 21
7269513.068
 31
0.0
  0
LINE
  8
6
  6
CONTINUOUS
 62
     7
  5
B9
 10
911417.613
 20
7269480.675
 30
0.0
 11
911922.069
 21
7269464.968
 31
0.0
  0
LINE
  8
6
  6
CONTINUOUS
 62
     7
  5
BA
 10
911922.069
 20
7269464.968
 30
0.0
 11
911928.752
 21
7269679.614
 31
0.0
  0
LINE
  8
6
  6
CONTINUOUS
 62
     7
  5
BB
 10
911928.752
 20
7269679.614
 30
0.0
 11
911439.288
 21
7269694.853
 31
0.0
  0
LINE
  8
6
  6
CONTINUOUS
 62
     7
  5
BC
 10
911423.829
 20
7269680.328
 30
0.0
 11
911417.613
 21
7269480.675
 31
0.0
  0
ARC
  8
6
  6
CONTINUOUS
 62
     7
  5
BD
 10
911438.821772
 20
7269679.860906
 30
0.0
 40
15.0
 50
88.2167
 51
178.2167
210
0.0
220
0.0
230
1.0
  0
LINE
  8
6
  6
CONTINUOUS
 62
     7
  5
BE
 10
911920.624
 20
7269739.896
 30
0.0
 11
911756.062
 21
7269745.02
 31
0.0
  0
LINE
  8
6
  6
CONTINUOUS
 62
     7
  5
BF
 10
911741.537
 20
7269760.48
 30
0.0
 11
911773.536
 21
7270788.231
 31
0.0
  0
LINE
  8
6
  6
CONTINUOUS
 62
     7
  5
C0
 10
911788.995
 20
7270802.757
 30
0.0
 11
911953.556
 21
7270797.634
 31
0.0
  0
LINE
  8
6
  6
CONTINUOUS
 62
     7
  5
C1
 10
911953.556
 20
7270797.634
 30
0.0
 11
911920.624
 21
7269739.896
 31
0.0
  0
LINE
  8
6
  6
CONTINUOUS
 62
     7
  5
C2
 10
911666.107
 20
7269747.821
 30
0.0
 11
911114.794
 21
7269764.985
 31
0.0
  0
LINE
  8
6
  6
CONTINUOUS
 62
     7
  5
C3
 10
911066.373
 20
7269816.517
 30
0.0
 11
911071.501
 21
7269981.187
 31
0.0
  0
LINE
  8
6
  6
CONTINUOUS
 62
     7
  5
C4
 10
911071.501
 20
7269981.187
 30
0.0
 11
911687.782
 21
7269962.001
 31
0.0
  0
LINE
  8
6
  6
CONTINUOUS
 62
     7
  5
C5
 10
911687.782
 20
7269962.001
 30
0.0
 11
911681.566
 21
7269762.348
 31
0.0
  0
ARC
  8
6
  6
CONTINUOUS
 62
     7
  5
C6
 10
911756.529929
 20
7269760.012829
 30
0.0
 40
15.0
 50
178.2167
 51
268.2167
210
0.0
220
0.0
230
1.0
  0
ARC
  8
6
  6
CONTINUOUS
 62
     7
  5
C7
 10
911666.573519
 20
7269762.813578
 30
0.0
 40
15.0
 50
268.2167
 51
358.2167
210
0.0
220
0.0
230
1.0
  0
LINE
  8
6
  6
CONTINUOUS
 62
     7
  5
C8
 10
911688.405
 20
7269981.99
 30
0.0
 11
911400.294
 21
7269990.96
 31
0.0
  0
LINE
  8
6
  6
CONTINUOUS
 62
     7
  5
C9
 10
911390.611
 20
7270001.268
 30
0.0
 11
911411.796
 21
7270681.726
 31
0.0
  0
LINE
  8
6
  6
CONTINUOUS
 62
     7
  5
CA
 10
911534.489
 20
7270810.681
 30
0.0
 11
911699.039
 21
7270805.558
 31
0.0
  0
LINE
  8
6
  6
CONTINUOUS
 62
     7
  5
CB
 10
911713.564
 20
7270790.1
 30
0.0
 11
911688.405
 21
7269981.99
 31
0.0
  0
LINE
  8
6
  6
CONTINUOUS
 62
     7
  5
CC
 10
911370.328
 20
7270002.637
 30
0.0
 11
911391.49
 21
7270682.308
 31
0.0
  0
LINE
  8
6
  6
CONTINUOUS
 62
     7
  5
CD
 10
911391.49
 20
7270682.308
 30
0.0
 11
910745.223
 21
7270702.429
 31
0.0
  0
LINE
  8
6
  6
CONTINUOUS
 62
     7
  5
CE
 10
910734.916
 20
7270692.745
 30
0.0
 11
910726.825
 21
7270432.871
 31
0.0
  0
LINE
  8
6
  6
CONTINUOUS
 62
     7
  5
CF
 10
910726.825
 20
7270432.871
 30
0.0
 11
910975.555
 21
7270425.127
 31
0.0
  0
LINE
  8
6
  6
CONTINUOUS
 62
     7
  5
D0
 10
911360.022
 20
7269992.953
 30
0.0
 11
911071.832
 21
7270001.927
 31
0.0
  0
LINE
  8
6
  6
CONTINUOUS
 62
     7
  5
D1
 10
911071.832
 20
7270001.927
 30
0.0
 11
911081.479
 21
7270311.776
 31
0.0
  0
LINE
  8
6
  6
CONTINUOUS
 62
     7
  5
D2
 10
911360.022
 20
7269992.953
 30
0.0
 11
911370.328
 21
7270002.637
 31
0.0
  0
LINE
  8
6
  6
CONTINUOUS
 62
     7
  5
D3
 10
911390.611
 20
7270001.268
 30
0.0
 11
911400.294
 21
7269990.96
 31
0.0
  0
ARC
  8
6
  6
CONTINUOUS
 62
     7
  5
D4
 10
910972.131534
 20
7270315.180744
 30
0.0
 40
110.0
 50
64.491039
 51
88.2167
210
0.0
220
0.0
230
1.0
  0
ARC
  8
6
  6
CONTINUOUS
 62
     7
  5
D5
 10
911025.962665
 20
7270427.995443
 30
0.0
 40
15.0
 50
244.491197
 51
309.311822
210
0.0
220
0.0
230
1.0
  0
ARC
  8
6
  6
CONTINUOUS
 62
     7
  5
D6
 10
910971.531825
 20
7270315.199415
 30
0.0
 40
110.0
 50
358.2167
 51
17.105186
210
0.0
220
0.0
230
1.0
  0
ARC
  8
6
  6
CONTINUOUS
 62
     7
  5
D7
 10
910971.531983
 20
7270315.199463
 30
0.0
 40
110.0
 50
17.105156
 51
22.030867
210
0.0
220
0.0
230
1.0
  0
ARC
  8
6
  6
CONTINUOUS
 62
     7
  5
D8
 10
911087.404984
 20
7270362.087787
 30
0.0
 40
15.0
 50
137.210225
 51
202.03085
210
0.0
220
0.0
230
1.0
  0
LINE
  8
6
  6
CONTINUOUS
 62
     7
  5
D9
 10
910706.835
 20
7270433.494
 30
0.0
 11
910441.963
 21
7270441.74
 31
0.0
  0
LINE
  8
6
  6
CONTINUOUS
 62
     7
  5
DA
 10
910427.437
 20
7270457.2
 30
0.0
 11
910435.373
 21
7270712.076
 31
0.0
  0
LINE
  8
6
  6
CONTINUOUS
 62
     7
  5
DB
 10
910435.373
 20
7270712.076
 30
0.0
 11
910705.242
 21
7270703.674
 31
0.0
  0
LINE
  8
6
  6
CONTINUOUS
 62
     7
  5
DC
 10
910714.926
 20
7270693.368
 30
0.0
 11
910706.835
 21
7270433.494
 31
0.0
  0
ARC
  8
6
  6
CONTINUOUS
 62
     7
  5
DD
 10
910442.430021
 20
7270456.733312
 30
0.0
 40
15.0
 50
178.2167
 51
268.2167
210
0.0
220
0.0
230
1.0
  0
LINE
  8
6
  6
CONTINUOUS
 62
     7
  5
DE
 10
910705.242
 20
7270703.674
 30
0.0
 11
910714.926
 21
7270693.368
 31
0.0
  0
LINE
  8
6
  6
CONTINUOUS
 62
     7
  5
DF
 10
910734.916
 20
7270692.745
 30
0.0
 11
910745.223
 21
7270702.429
 31
0.0
  0
LINE
  8
6
  6
CONTINUOUS
 62
     7
  5
E0
 10
911411.7
 20
7270681.729
 30
0.0
 11
911530.359
 21
7270678.034
 31
0.0
  0
LINE
  8
6
  6
CONTINUOUS
 62
     7
  5
E1
 10
911530.359
 20
7270678.034
 30
0.0
 11
911534.489
 21
7270810.681
 31
0.0
  0
LINE
  8
6
  6
CONTINUOUS
 62
     7
  5
E2
 10
911536.356
 20
7270870.652
 30
0.0
 11
911563.648
 21
7271747.227
 31
0.0
  0
LINE
  8
6
  6
CONTINUOUS
 62
     7
  5
E3
 10
911563.648
 20
7271747.227
 30
0.0
 11
911728.198
 21
7271742.104
 31
0.0
  0
LINE
  8
6
  6
CONTINUOUS
 62
     7
  5
E4
 10
911742.724
 20
7271726.645
 30
0.0
 11
911716.366
 21
7270880.055
 31
0.0
  0
LINE
  8
6
  6
CONTINUOUS
 62
     7
  5
E5
 10
911700.906
 20
7270865.529
 30
0.0
 11
911536.356
 21
7270870.652
 31
0.0
  0
LINE
  8
6
  6
CONTINUOUS
 62
     7
  5
E6
 10
911776.336
 20
7270878.188
 30
0.0
 11
911802.695
 21
7271724.778
 31
0.0
  0
LINE
  8
6
  6
CONTINUOUS
 62
     7
  5
E7
 10
911818.153
 20
7271739.304
 30
0.0
 11
911982.715
 21
7271734.181
 31
0.0
  0
LINE
  8
6
  6
CONTINUOUS
 62
     7
  5
E8
 10
911982.715
 20
7271734.181
 30
0.0
 11
911955.423
 21
7270857.606
 31
0.0
  0
LINE
  8
6
  6
CONTINUOUS
 62
     7
  5
E9
 10
911955.423
 20
7270857.606
 30
0.0
 11
911790.863
 21
7270862.729
 31
0.0
  0
ARC
  8
6
  6
CONTINUOUS
 62
     7
  5
EA
 10
911701.372823
 20
7270880.521979
 30
0.0
 40
15.0
 50
268.2167
 51
358.2167
210
0.0
220
0.0
230
1.0
  0
ARC
  8
6
  6
CONTINUOUS
 62
     7
  5
EB
 10
911791.329234
 20
7270877.72123
 30
0.0
 40
15.0
 50
178.2167
 51
268.2167
210
0.0
220
0.0
230
1.0
  0
ARC
  8
6
  6
CONTINUOUS
 62
     7
  5
EC
 10
911698.572074
 20
7270790.565569
 30
0.0
 40
15.0
 50
358.2167
 51
88.2167
210
0.0
220
0.0
230
1.0
  0
ARC
  8
6
  6
CONTINUOUS
 62
     7
  5
ED
 10
911788.528485
 20
7270787.76482
 30
0.0
 40
15.0
 50
88.2167
 51
178.2167
210
0.0
220
0.0
230
1.0
  0
ARC
  8
6
  6
CONTINUOUS
 62
     7
  5
EE
 10
911727.730982
 20
7271727.111755
 30
0.0
 40
15.0
 50
358.2167
 51
88.2167
210
0.0
220
0.0
230
1.0
  0
ARC
  8
6
  6
CONTINUOUS
 62
     7
  5
EF
 10
911817.687392
 20
7271724.311006
 30
0.0
 40
15.0
 50
88.2167
 51
178.2167
210
0.0
220
0.0
230
1.0
  0
LINE
  8
6
  6
CONTINUOUS
 62
     7
  5
F0
 10
911928.752
 20
7269679.614
 30
0.0
 11
911993.954
 21
7271773.849
 31
0.0
  0
LINE
  8
6
  6
CONTINUOUS
 62
     7
  5
F1
 10
911993.954
 20
7271773.849
 30
0.0
 11
911554.897
 21
7271787.519
 31
0.0
  0
LINE
  8
6
  6
CONTINUOUS
 62
     7
  5
F2
 10
911554.897
 20
7271787.519
 30
0.0
 11
911520.65
 21
7270687.552
 31
0.0
  0
LINE
  8
6
  6
CONTINUOUS
 62
     7
  5
F3
 10
911520.65
 20
7270687.552
 30
0.0
 11
910421.028
 21
7270721.788
 31
0.0
  0
LINE
  8
6
  6
CONTINUOUS
 62
     7
  5
F4
 10
910453.681
 20
7271289.997
 30
0.0
 11
910446.793
 21
7271068.755
 31
0.0
  0
LINE
  8
6
  6
CONTINUOUS
 62
     7
  5
F5
 10
910446.793
 20
7271068.755
 30
0.0
 11
910666.886
 21
7271061.902
 31
0.0
  0
LINE
  8
6
  6
CONTINUOUS
 62
     7
  5
F6
 10
910666.886
 20
7271061.902
 30
0.0
 11
910673.775
 21
7271283.146
 31
0.0
  0
LINE
  8
6
  6
CONTINUOUS
 62
     7
  5
F7
 10
910673.775
 20
7271283.146
 30
0.0
 11
910453.681
 21
7271289.997
 31
0.0
  0
LINE
  8
6
  6
CONTINUOUS
 62
     7
  5
F8
 10
910446.793
 20
7271068.755
 30
0.0
 11
910431.8
 21
7271069.221
 31
0.0
  0
LINE
  8
6
  6
CONTINUOUS
 62
     7
  5
F9
 10
910431.8
 20
7271069.221
 30
0.0
 11
910421.028
 21
7270721.788
 31
0.0
  0
LINE
  8
6
  6
CONTINUOUS
 62
     7
  5
FA
 10
910453.681
 20
7271289.997
 30
0.0
 11
910438.689
 21
7271290.465
 31
0.0
  0
LINE
  8
6
  6
CONTINUOUS
 62
     7
  5
FB
 10
910438.689
 20
7271290.465
 30
0.0
 11
910535.404
 21
7274396.835
 31
0.0
  0
LINE
  8
7
  6
CONTINUOUS
 62
     7
  5
FD
 10
915317.834
 20
7273646.462
 30
0.0
 11
915314.41
 21
7273536.475
 31
0.0
  0
LINE
  8
7
  6
CONTINUOUS
 62
     7
  5
FE
 10
915289.348
 20
7273647.349
 30
0.0
 11
915285.923
 21
7273537.362
 31
0.0
  0
LINE
  8
7
  6
CONTINUOUS
 62
     7
  5
FF
 10
915260.862
 20
7273648.236
 30
0.0
 11
915257.405
 21
7273537.256
 31
0.0
  0
LINE
  8
7
  6
CONTINUOUS
 62
     7
  5
100
 10
915093.255
 20
7273648.452
 30
0.0
 11
915216.184
 21
7273517.621
 31
0.0
  0
LINE
  8
7
  6
CONTINUOUS
 62
     7
  5
101
 10
915179.111
 20
7273650.781
 30
0.0
 11
915234.124
 21
7273530.097
 31
0.0
  0
LINE
  8
7
  6
CONTINUOUS
 62
     7
  5
102
 10
915085.805
 20
7273569.826
 30
0.0
 11
915203.163
 21
7273501.456
 31
0.0
  0
LINE
  8
7
  6
CONTINUOUS
 62
     7
  5
103
 10
915082.216
 20
7273454.544
 30
0.0
 11
915192.112
 21
7273451.123
 31
0.0
  0
LINE
  8
7
  6
CONTINUOUS
 62
     7
  5
104
 10
915081.329
 20
7273426.059
 30
0.0
 11
915191.224
 21
7273422.638
 31
0.0
  0
LINE
  8
7
  6
CONTINUOUS
 62
     7
  5
105
 10
915083.106
 20
7273483.158
 30
0.0
 11
915194.411
 21
7273479.693
 31
0.0
  0
LINE
  8
7
  6
CONTINUOUS
 62
     7
  5
106
 10
915079.586
 20
7273370.085
 30
0.0
 11
915189.483
 21
7273366.664
 31
0.0
  0
LINE
  8
7
  6
CONTINUOUS
 62
     7
  5
107
 10
915063.994
 20
7272869.278
 30
0.0
 11
915173.89
 21
7272865.857
 31
0.0
  0
LINE
  8
7
  6
CONTINUOUS
 62
     7
  5
108
 10
915062.282
 20
7272814.306
 30
0.0
 11
915172.178
 21
7272810.884
 31
0.0
  0
LINE
  8
7
  6
CONTINUOUS
 62
     7
  5
109
 10
915060.569
 20
7272759.331
 30
0.0
 11
915170.467
 21
7272755.91
 31
0.0
  0
LINE
  8
7
  6
CONTINUOUS
 62
     7
  5
10A
 10
915058.859
 20
7272704.358
 30
0.0
 11
915168.756
 21
7272700.936
 31
0.0
  0
LINE
  8
7
  6
CONTINUOUS
 62
     7
  5
10B
 10
915057.018
 20
7272645.263
 30
0.0
 11
915166.916
 21
7272641.841
 31
0.0
  0
LINE
  8
7
  6
CONTINUOUS
 62
     7
  5
10C
 10
915055.463
 20
7272595.287
 30
0.0
 11
915165.36
 21
7272591.865
 31
0.0
  0
LINE
  8
7
  6
CONTINUOUS
 62
     7
  5
10D
 10
915053.907
 20
7272545.311
 30
0.0
 11
915163.804
 21
7272541.889
 31
0.0
  0
LINE
  8
7
  6
CONTINUOUS
 62
     7
  5
10E
 10
915052.351
 20
7272495.335
 30
0.0
 11
915162.248
 21
7272491.914
 31
0.0
  0
LINE
  8
7
  6
CONTINUOUS
 62
     7
  5
10F
 10
915050.795
 20
7272445.36
 30
0.0
 11
915160.692
 21
7272441.938
 31
0.0
  0
LINE
  8
7
  6
CONTINUOUS
 62
     7
  5
110
 10
915049.083
 20
7272390.386
 30
0.0
 11
915158.98
 21
7272386.965
 31
0.0
  0
LINE
  8
7
  6
CONTINUOUS
 62
     7
  5
111
 10
915047.371
 20
7272335.414
 30
0.0
 11
915157.269
 21
7272331.992
 31
0.0
  0
LINE
  8
7
  6
CONTINUOUS
 62
     7
  5
112
 10
915045.66
 20
7272280.439
 30
0.0
 11
915155.557
 21
7272277.018
 31
0.0
  0
LINE
  8
7
  6
CONTINUOUS
 62
     7
  5
113
 10
915043.949
 20
7272225.466
 30
0.0
 11
915153.844
 21
7272222.044
 31
0.0
  0
LINE
  8
7
  6
CONTINUOUS
 62
     7
  5
114
 10
915042.393
 20
7272175.49
 30
0.0
 11
915152.29
 21
7272172.069
 31
0.0
  0
LINE
  8
7
  6
CONTINUOUS
 62
     7
  5
115
 10
915040.837
 20
7272125.514
 30
0.0
 11
915150.734
 21
7272122.093
 31
0.0
  0
LINE
  8
7
  6
CONTINUOUS
 62
     7
  5
116
 10
915039.281
 20
7272075.539
 30
0.0
 11
915149.178
 21
7272072.117
 31
0.0
  0
LINE
  8
7
  6
CONTINUOUS
 62
     7
  5
117
 10
915037.725
 20
7272025.563
 30
0.0
 11
915147.622
 21
7272022.141
 31
0.0
  0
LINE
  8
7
  6
CONTINUOUS
 62
     7
  5
118
 10
915036.169
 20
7271975.587
 30
0.0
 11
915146.066
 21
7271972.166
 31
0.0
  0
LINE
  8
7
  6
CONTINUOUS
 62
     7
  5
119
 10
915034.613
 20
7271925.611
 30
0.0
 11
915144.51
 21
7271922.19
 31
0.0
  0
LINE
  8
7
  6
CONTINUOUS
 62
     7
  5
11A
 10
915077.041
 20
7271846.575
 30
0.0
 11
915072.84
 21
7271711.656
 31
0.0
  0
LINE
  8
6
  6
CONTINUOUS
 62
     7
  5
11B
 10
915202.656
 20
7271842.47
 30
0.0
 11
915199.263
 21
7271733.501
 31
0.0
  0
ARC
  8
6
  6
CONTINUOUS
 62
     7
  5
11C
 10
915214.255915
 20
7271733.03462
 30
0.0
 40
15.0
 50
178.2167
 51
272.580461
210
0.0
220
0.0
230
1.0
  0
LINE
  8
6
  6
CONTINUOUS
 62
     7
  5
11D
 10
915617.828
 20
7271829.544
 30
0.0
 11
915202.656
 21
7271842.47
 31
0.0
  0
LINE
  8
7
  6
CONTINUOUS
 62
     7
  5
11E
 10
915267.625
 20
7271840.447
 30
0.0
 11
915263.896
 21
7271720.69
 31
0.0
  0
LINE
  8
7
  6
CONTINUOUS
 62
     7
  5
11F
 10
915323.264
 20
7271838.716
 30
0.0
 11
915319.535
 21
7271718.957
 31
0.0
  0
LINE
  8
7
  6
CONTINUOUS
 62
     7
  5
120
 10
915379.236
 20
7271836.972
 30
0.0
 11
915375.508
 21
7271717.214
 31
0.0
  0
LINE
  8
7
  6
CONTINUOUS
 62
     7
  5
121
 10
915435.209
 20
7271835.23
 30
0.0
 11
915431.481
 21
7271715.471
 31
0.0
  0
LINE
  8
7
  6
CONTINUOUS
 62
     7
  5
122
 10
915267.75
 20
7271861.068
 30
0.0
 11
915271.485
 21
7271981.01
 31
0.0
  0
LINE
  8
7
  6
CONTINUOUS
 62
     7
  5
123
 10
915325.115
 20
7271859.282
 30
0.0
 11
915328.85
 21
7271979.224
 31
0.0
  0
LINE
  8
7
  6
CONTINUOUS
 62
     7
  5
124
 10
915381.089
 20
7271857.54
 30
0.0
 11
915384.824
 21
7271977.481
 31
0.0
  0
LINE
  8
7
  6
CONTINUOUS
 62
     7
  5
125
 10
915437.062
 20
7271855.797
 30
0.0
 11
915440.797
 21
7271975.739
 31
0.0
  0
LINE
  8
7
  6
CONTINUOUS
 62
     7
  5
126
 10
915493.035
 20
7271854.055
 30
0.0
 11
915496.769
 21
7271973.996
 31
0.0
  0
LINE
  8
7
  6
CONTINUOUS
 62
     7
  5
127
 10
915550.027
 20
7271852.279
 30
0.0
 11
915553.059
 21
7271949.64
 31
0.0
  0
LINE
  8
7
  6
CONTINUOUS
 62
     7
  5
128
 10
915492.28
 20
7271833.452
 30
0.0
 11
915488.552
 21
7271713.694
 31
0.0
  0
LINE
  8
7
  6
CONTINUOUS
 62
     7
  5
129
 10
915549.273
 20
7271831.679
 30
0.0
 11
915545.544
 21
7271711.92
 31
0.0
  0
LINE
  8
7
  6
CONTINUOUS
 62
     7
  5
12A
 10
915623.205
 20
7271998.073
 30
0.0
 11
915603.081
 21
7271998.699
 31
0.0
  0
LINE
  8
7
  6
CONTINUOUS
 62
     7
  5
12B
 10
915276.962
 20
7272156.925
 30
0.0
 11
915273.226
 21
7272036.984
 31
0.0
  0
LINE
  8
7
  6
CONTINUOUS
 62
     7
  5
12C
 10
915333.101
 20
7272155.177
 30
0.0
 11
915329.367
 21
7272035.236
 31
0.0
  0
LINE
  8
7
  6
CONTINUOUS
 62
     7
  5
12D
 10
915389.074
 20
7272153.434
 30
0.0
 11
915385.34
 21
7272033.492
 31
0.0
  0
LINE
  8
7
  6
CONTINUOUS
 62
     7
  5
12E
 10
915445.047
 20
7272151.691
 30
0.0
 11
915441.313
 21
7272031.75
 31
0.0
  0
LINE
  8
7
  6
CONTINUOUS
 62
     7
  5
12F
 10
915501.02
 20
7272149.949
 30
0.0
 11
915497.286
 21
7272030.007
 31
0.0
  0
LINE
  8
7
  6
CONTINUOUS
 62
     7
  5
130
 10
915558.012
 20
7272148.175
 30
0.0
 11
915554.944
 21
7272049.606
 31
0.0
  0
LINE
  8
7
  6
CONTINUOUS
 62
     7
  5
131
 10
915277.584
 20
7272176.915
 30
0.0
 11
915281.194
 21
7272292.859
 31
0.0
  0
LINE
  8
7
  6
CONTINUOUS
 62
     7
  5
132
 10
915333.721
 20
7272175.167
 30
0.0
 11
915337.331
 21
7272291.111
 31
0.0
  0
LINE
  8
7
  6
CONTINUOUS
 62
     7
  5
133
 10
915389.693
 20
7272173.425
 30
0.0
 11
915393.304
 21
7272289.369
 31
0.0
  0
LINE
  8
7
  6
CONTINUOUS
 62
     7
  5
134
 10
915445.667
 20
7272171.682
 30
0.0
 11
915449.276
 21
7272287.626
 31
0.0
  0
LINE
  8
7
  6
CONTINUOUS
 62
     7
  5
135
 10
915501.639
 20
7272169.94
 30
0.0
 11
915505.249
 21
7272285.884
 31
0.0
  0
LINE
  8
7
  6
CONTINUOUS
 62
     7
  5
136
 10
915558.632
 20
7272168.165
 30
0.0
 11
915561.541
 21
7272261.612
 31
0.0
  0
LINE
  8
6
  6
CONTINUOUS
 62
     7
  5
137
 10
915221.39
 20
7272460.801
 30
0.0
 11
915218.434
 21
7272365.847
 31
0.0
  0
ARC
  8
6
  6
CONTINUOUS
 62
     7
  5
138
 10
915233.427448
 20
7272365.380604
 30
0.0
 40
15.0
 50
178.2167
 51
268.2167
210
0.0
220
0.0
230
1.0
  0
LINE
  8
7
  6
CONTINUOUS
 62
     7
  5
139
 10
915286.359
 20
7272458.778
 30
0.0
 11
915282.937
 21
7272348.833
 31
0.0
  0
LINE
  8
7
  6
CONTINUOUS
 62
     7
  5
13A
 10
915343.511
 20
7272456.999
 30
0.0
 11
915340.088
 21
7272347.052
 31
0.0
  0
LINE
  8
7
  6
CONTINUOUS
 62
     7
  5
13B
 10
915399.484
 20
7272455.256
 30
0.0
 11
915396.06
 21
7272345.31
 31
0.0
  0
LINE
  8
7
  6
CONTINUOUS
 62
     7
  5
13C
 10
915455.457
 20
7272453.514
 30
0.0
 11
915452.034
 21
7272343.567
 31
0.0
  0
LINE
  8
7
  6
CONTINUOUS
 62
     7
  5
13D
 10
915511.43
 20
7272451.771
 30
0.0
 11
915508.006
 21
7272341.824
 31
0.0
  0
LINE
  8
7
  6
CONTINUOUS
 62
     7
  5
13E
 10
915568.421
 20
7272449.996
 30
0.0
 11
915565.667
 21
7272361.514
 31
0.0
  0
LINE
  8
7
  6
CONTINUOUS
 62
     7
  5
13F
 10
915632.915
 20
7272309.922
 30
0.0
 11
915612.791
 21
7272310.548
 31
0.0
  0
LINE
  8
7
  6
CONTINUOUS
 62
     7
  5
140
 10
915286.982
 20
7272478.769
 30
0.0
 11
915290.404
 21
7272588.715
 31
0.0
  0
LINE
  8
7
  6
CONTINUOUS
 62
     7
  5
141
 10
915343.575
 20
7272477.007
 30
0.0
 11
915346.998
 21
7272586.953
 31
0.0
  0
LINE
  8
7
  6
CONTINUOUS
 62
     7
  5
142
 10
915399.548
 20
7272475.265
 30
0.0
 11
915402.971
 21
7272585.211
 31
0.0
  0
LINE
  8
7
  6
CONTINUOUS
 62
     7
  5
143
 10
915456.62
 20
7272473.487
 30
0.0
 11
915460.043
 21
7272583.434
 31
0.0
  0
LINE
  8
7
  6
CONTINUOUS
 62
     7
  5
144
 10
915511.493
 20
7272471.78
 30
0.0
 11
915514.916
 21
7272581.725
 31
0.0
  0
LINE
  8
7
  6
CONTINUOUS
 62
     7
  5
145
 10
915568.486
 20
7272470.004
 30
0.0
 11
915571.908
 21
7272579.952
 31
0.0
  0
LINE
  8
7
  6
CONTINUOUS
 62
     7
  5
146
 10
915295.571
 20
7272754.635
 30
0.0
 11
915292.148
 21
7272644.688
 31
0.0
  0
LINE
  8
7
  6
CONTINUOUS
 62
     7
  5
147
 10
915351.558
 20
7272752.893
 30
0.0
 11
915348.135
 21
7272642.945
 31
0.0
  0
LINE
  8
7
  6
CONTINUOUS
 62
     7
  5
148
 10
915408.63
 20
7272751.115
 30
0.0
 11
915405.207
 21
7272641.169
 31
0.0
  0
LINE
  8
7
  6
CONTINUOUS
 62
     7
  5
149
 10
915463.504
 20
7272749.408
 30
0.0
 11
915460.081
 21
7272639.46
 31
0.0
  0
LINE
  8
7
  6
CONTINUOUS
 62
     7
  5
14A
 10
915519.477
 20
7272747.664
 30
0.0
 11
915516.053
 21
7272637.718
 31
0.0
  0
LINE
  8
7
  6
CONTINUOUS
 62
     7
  5
14B
 10
915576.469
 20
7272745.89
 30
0.0
 11
915573.046
 21
7272635.943
 31
0.0
  0
LINE
  8
7
  6
CONTINUOUS
 62
     7
  5
14C
 10
915296.193
 20
7272774.625
 30
0.0
 11
915299.617
 21
7272884.572
 31
0.0
  0
LINE
  8
7
  6
CONTINUOUS
 62
     7
  5
14D
 10
915352.165
 20
7272772.883
 30
0.0
 11
915355.589
 21
7272882.83
 31
0.0
  0
LINE
  8
7
  6
CONTINUOUS
 62
     7
  5
14E
 10
915409.239
 20
7272771.106
 30
0.0
 11
915412.662
 21
7272881.052
 31
0.0
  0
LINE
  8
7
  6
CONTINUOUS
 62
     7
  5
14F
 10
915464.112
 20
7272769.397
 30
0.0
 11
915467.535
 21
7272879.345
 31
0.0
  0
LINE
  8
7
  6
CONTINUOUS
 62
     7
  5
150
 10
915520.085
 20
7272767.655
 30
0.0
 11
915523.508
 21
7272877.601
 31
0.0
  0
LINE
  8
7
  6
CONTINUOUS
 62
     7
  5
151
 10
915577.077
 20
7272765.88
 30
0.0
 11
915579.8
 21
7272853.318
 31
0.0
  0
LINE
  8
7
  6
CONTINUOUS
 62
     7
  5
152
 10
915304.782
 20
7273050.492
 30
0.0
 11
915301.359
 21
7272940.545
 31
0.0
  0
LINE
  8
7
  6
CONTINUOUS
 62
     7
  5
153
 10
915360.746
 20
7273048.75
 30
0.0
 11
915357.324
 21
7272938.802
 31
0.0
  0
LINE
  8
7
  6
CONTINUOUS
 62
     7
  5
154
 10
915417.82
 20
7273046.972
 30
0.0
 11
915414.396
 21
7272937.026
 31
0.0
  0
LINE
  8
7
  6
CONTINUOUS
 62
     7
  5
155
 10
915472.693
 20
7273045.265
 30
0.0
 11
915469.269
 21
7272935.317
 31
0.0
  0
LINE
  8
7
  6
CONTINUOUS
 62
     7
  5
156
 10
915528.666
 20
7273043.521
 30
0.0
 11
915525.243
 21
7272933.574
 31
0.0
  0
LINE
  8
7
  6
CONTINUOUS
 62
     7
  5
157
 10
915585.658
 20
7273041.747
 30
0.0
 11
915582.903
 21
7272953.24
 31
0.0
  0
LINE
  8
7
  6
CONTINUOUS
 62
     7
  5
158
 10
915651.338
 20
7272901.635
 30
0.0
 11
915631.214
 21
7272902.261
 31
0.0
  0
LINE
  8
7
  6
CONTINUOUS
 62
     7
  5
159
 10
915305.404
 20
7273070.482
 30
0.0
 11
915308.828
 21
7273180.429
 31
0.0
  0
LINE
  8
7
  6
CONTINUOUS
 62
     7
  5
15A
 10
915361.538
 20
7273068.734
 30
0.0
 11
915364.961
 21
7273178.682
 31
0.0
  0
LINE
  8
7
  6
CONTINUOUS
 62
     7
  5
15B
 10
915418.61
 20
7273066.958
 30
0.0
 11
915422.033
 21
7273176.904
 31
0.0
  0
LINE
  8
7
  6
CONTINUOUS
 62
     7
  5
15C
 10
915473.483
 20
7273065.249
 30
0.0
 11
915476.906
 21
7273175.197
 31
0.0
  0
LINE
  8
7
  6
CONTINUOUS
 62
     7
  5
15D
 10
915528.357
 20
7273063.54
 30
0.0
 11
915531.78
 21
7273173.487
 31
0.0
  0
LINE
  8
7
  6
CONTINUOUS
 62
     7
  5
15E
 10
915586.449
 20
7273061.732
 30
0.0
 11
915589.17
 21
7273149.155
 31
0.0
  0
LINE
  8
7
  6
CONTINUOUS
 62
     7
  5
15F
 10
915313.993
 20
7273346.348
 30
0.0
 11
915310.571
 21
7273236.402
 31
0.0
  0
LINE
  8
7
  6
CONTINUOUS
 62
     7
  5
160
 10
915369.979
 20
7273344.605
 30
0.0
 11
915366.555
 21
7273234.658
 31
0.0
  0
LINE
  8
7
  6
CONTINUOUS
 62
     7
  5
161
 10
915425.952
 20
7273342.863
 30
0.0
 11
915422.527
 21
7273232.916
 31
0.0
  0
LINE
  8
7
  6
CONTINUOUS
 62
     7
  5
162
 10
915481.924
 20
7273341.12
 30
0.0
 11
915478.501
 21
7273231.173
 31
0.0
  0
LINE
  8
7
  6
CONTINUOUS
 62
     7
  5
163
 10
915537.897
 20
7273339.377
 30
0.0
 11
915534.474
 21
7273229.43
 31
0.0
  0
LINE
  8
7
  6
CONTINUOUS
 62
     7
  5
164
 10
915594.889
 20
7273337.603
 30
0.0
 11
915592.134
 21
7273249.099
 31
0.0
  0
LINE
  8
7
  6
CONTINUOUS
 62
     7
  5
165
 10
915660.549
 20
7273197.492
 30
0.0
 11
915640.424
 21
7273198.118
 31
0.0
  0
LINE
  8
7
  6
CONTINUOUS
 62
     7
  5
166
 10
915314.616
 20
7273366.339
 30
0.0
 11
915318.038
 21
7273476.285
 31
0.0
  0
LINE
  8
7
  6
CONTINUOUS
 62
     7
  5
167
 10
915370.604
 20
7273364.596
 30
0.0
 11
915374.027
 21
7273474.542
 31
0.0
  0
LINE
  8
7
  6
CONTINUOUS
 62
     7
  5
168
 10
915426.576
 20
7273362.853
 30
0.0
 11
915430.0
 21
7273472.799
 31
0.0
  0
LINE
  8
7
  6
CONTINUOUS
 62
     7
  5
169
 10
915482.55
 20
7273361.111
 30
0.0
 11
915485.973
 21
7273471.057
 31
0.0
  0
LINE
  8
7
  6
CONTINUOUS
 62
     7
  5
16A
 10
915538.523
 20
7273359.367
 30
0.0
 11
915541.946
 21
7273469.314
 31
0.0
  0
LINE
  8
7
  6
CONTINUOUS
 62
     7
  5
16B
 10
915595.515
 20
7273357.594
 30
0.0
 11
915598.937
 21
7273467.54
 31
0.0
  0
LINE
  8
7
  6
CONTINUOUS
 62
     7
  5
16C
 10
911738.695
 20
7269195.544
 30
0.0
 11
911746.631
 21
7269450.422
 31
0.0
  0
LINE
  8
7
  6
CONTINUOUS
 62
     7
  5
16D
 10
911571.153
 20
7269200.761
 30
0.0
 11
911579.088
 21
7269455.637
 31
0.0
  0
LINE
  8
7
  6
CONTINUOUS
 62
     7
  5
16E
 10
911732.52
 20
7269470.87
 30
0.0
 11
911739.203
 21
7269685.516
 31
0.0
  0
LINE
  8
7
  6
CONTINUOUS
 62
     7
  5
16F
 10
911574.557
 20
7269475.788
 30
0.0
 11
911581.24
 21
7269690.434
 31
0.0
  0
LINE
  8
7
  6
CONTINUOUS
 62
     7
  5
170
 10
910862.389
 20
7269477.951
 30
0.0
 11
910854.454
 21
7269223.076
 31
0.0
  0
LINE
  8
7
  6
CONTINUOUS
 62
     7
  5
171
 10
911026.078
 20
7269472.856
 30
0.0
 11
911018.143
 21
7269217.978
 31
0.0
  0
LINE
  8
7
  6
CONTINUOUS
 62
     7
  5
172
 10
911190.898
 20
7269467.723
 30
0.0
 11
911182.963
 21
7269212.847
 31
0.0
  0
LINE
  8
7
  6
CONTINUOUS
 62
     7
  5
173
 10
911177.729
 20
7269488.143
 30
0.0
 11
911184.412
 21
7269702.789
 31
0.0
  0
LINE
  8
7
  6
CONTINUOUS
 62
     7
  5
174
 10
911002.193
 20
7269493.609
 30
0.0
 11
911007.615
 21
7269667.741
 31
0.0
  0
LINE
  8
7
  6
CONTINUOUS
 62
     7
  5
175
 10
910705.201
 20
7269728.214
 30
0.0
 11
910961.406
 21
7269720.237
 31
0.0
  0
LINE
  8
7
  6
CONTINUOUS
 62
     7
  5
176
 10
910710.18
 20
7269888.136
 30
0.0
 11
911008.286
 21
7269878.856
 31
0.0
  0
LINE
  8
7
  6
CONTINUOUS
 62
     7
  5
177
 10
910715.252
 20
7270051.017
 30
0.0
 11
911013.357
 21
7270041.735
 31
0.0
  0
LINE
  8
7
  6
CONTINUOUS
 62
     7
  5
178
 10
910720.231
 20
7270210.938
 30
0.0
 11
911018.336
 21
7270201.657
 31
0.0
  0
LINE
  8
7
  6
CONTINUOUS
 62
     7
  5
179
 10
910700.919
 20
7270237.844
 30
0.0
 11
910421.054
 21
7270246.557
 31
0.0
  0
LINE
  8
7
  6
CONTINUOUS
 62
     7
  5
17A
 10
910696.699
 20
7270102.33
 30
0.0
 11
910416.835
 21
7270111.043
 31
0.0
  0
LINE
  8
7
  6
CONTINUOUS
 62
     7
  5
17B
 10
910692.498
 20
7269967.396
 30
0.0
 11
910412.633
 21
7269976.109
 31
0.0
  0
LINE
  8
7
  6
CONTINUOUS
 62
     7
  5
17C
 10
910688.297
 20
7269832.46
 30
0.0
 11
910408.433
 21
7269841.174
 31
0.0
  0
LINE
  8
7
  6
CONTINUOUS
 62
     7
  5
17D
 10
910684.096
 20
7269697.526
 30
0.0
 11
910404.232
 21
7269706.239
 31
0.0
  0
LINE
  8
7
  6
CONTINUOUS
 62
     7
  5
17E
 10
910679.894
 20
7269562.591
 30
0.0
 11
910400.03
 21
7269571.306
 31
0.0
  0
LINE
  8
7
  6
CONTINUOUS
 62
     7
  5
17F
 10
910675.694
 20
7269427.657
 30
0.0
 11
910395.829
 21
7269436.37
 31
0.0
  0
LINE
  8
7
  6
CONTINUOUS
 62
     7
  5
180
 10
910431.172
 20
7270577.142
 30
0.0
 11
910711.035
 21
7270568.429
 31
0.0
  0
ARC
  8
6
  6
CONTINUOUS
 62
     7
  5
181
 10
911116.349844
 20
7269814.961482
 30
0.0
 40
50.0
 50
178.2167
 51
268.2167
210
0.0
220
0.0
230
1.0
  0
LINE
  8
7
  6
CONTINUOUS
 62
     7
  5
182
 10
911479.593
 20
7269968.482
 30
0.0
 11
911472.91
 21
7269753.836
 31
0.0
  0
LINE
  8
7
  6
CONTINUOUS
 62
     7
  5
183
 10
911279.037
 20
7269974.726
 30
0.0
 11
911272.354
 21
7269760.08
 31
0.0
  0
LINE
  8
7
  6
CONTINUOUS
 62
     7
  5
184
 10
911075.41
 20
7270116.871
 30
0.0
 11
911373.596
 21
7270107.588
 31
0.0
  0
LINE
  8
7
  6
CONTINUOUS
 62
     7
  5
185
 10
911079.007
 20
7270232.425
 30
0.0
 11
911377.194
 21
7270223.142
 31
0.0
  0
LINE
  8
7
  6
CONTINUOUS
 62
     7
  5
186
 10
911169.916
 20
7270498.254
 30
0.0
 11
911385.55
 21
7270491.541
 31
0.0
  0
LINE
  8
7
  6
CONTINUOUS
 62
     7
  5
187
 10
911076.605
 20
7270347.555
 30
0.0
 11
911380.772
 21
7270338.086
 31
0.0
  0
LINE
  8
7
  6
CONTINUOUS
 62
     7
  5
188
 10
910900.148
 20
7270697.606
 30
0.0
 11
910891.745
 21
7270427.737
 31
0.0
  0
LINE
  8
7
  6
CONTINUOUS
 62
     7
  5
189
 10
911092.975
 20
7270691.602
 30
0.0
 11
911086.606
 21
7270487.031
 31
0.0
  0
LINE
  8
7
  6
CONTINUOUS
 62
     7
  5
18A
 10
911926.535
 20
7269929.805
 30
0.0
 11
911746.983
 21
7269935.395
 31
0.0
  0
LINE
  8
7
  6
CONTINUOUS
 62
     7
  5
18B
 10
911932.433
 20
7270119.22
 30
0.0
 11
911752.881
 21
7270124.811
 31
0.0
  0
LINE
  8
7
  6
CONTINUOUS
 62
     7
  5
18C
 10
911938.345
 20
7270309.129
 30
0.0
 11
911758.793
 21
7270314.718
 31
0.0
  0
LINE
  8
7
  6
CONTINUOUS
 62
     7
  5
18D
 10
911944.258
 20
7270499.035
 30
0.0
 11
911764.706
 21
7270504.627
 31
0.0
  0
LINE
  8
7
  6
CONTINUOUS
 62
     7
  5
18E
 10
911949.386
 20
7270663.706
 30
0.0
 11
911769.833
 21
7270669.297
 31
0.0
  0
LINE
  8
7
  6
CONTINUOUS
 62
     7
  5
18F
 10
911691.984
 20
7270096.934
 30
0.0
 11
911393.878
 21
7270106.216
 31
0.0
  0
LINE
  8
7
  6
CONTINUOUS
 62
     7
  5
190
 10
911695.491
 20
7270209.585
 30
0.0
 11
911397.385
 21
7270218.866
 31
0.0
  0
LINE
  8
7
  6
CONTINUOUS
 62
     7
  5
191
 10
911699.07
 20
7270324.529
 30
0.0
 11
911400.964
 21
7270333.81
 31
0.0
  0
LINE
  8
7
  6
CONTINUOUS
 62
     7
  5
192
 10
911702.648
 20
7270439.473
 30
0.0
 11
911404.543
 21
7270448.755
 31
0.0
  0
LINE
  8
7
  6
CONTINUOUS
 62
     7
  5
193
 10
911706.227
 20
7270554.417
 30
0.0
 11
911408.122
 21
7270563.699
 31
0.0
  0
LINE
  8
7
  6
CONTINUOUS
 62
     7
  5
194
 10
911530.359
 20
7270678.034
 30
0.0
 11
911709.902
 21
7270672.445
 31
0.0
  0
LINE
  8
7
  6
CONTINUOUS
 62
     7
  5
195
 10
911960.044
 20
7271006.034
 30
0.0
 11
911780.491
 21
7271011.623
 31
0.0
  0
LINE
  8
7
  6
CONTINUOUS
 62
     7
  5
196
 10
911964.536
 20
7271150.308
 30
0.0
 11
911784.983
 21
7271155.898
 31
0.0
  0
LINE
  8
7
  6
CONTINUOUS
 62
     7
  5
197
 10
911969.048
 20
7271295.238
 30
0.0
 11
911789.495
 21
7271300.828
 31
0.0
  0
LINE
  8
7
  6
CONTINUOUS
 62
     7
  5
198
 10
911973.561
 20
7271440.167
 30
0.0
 11
911794.008
 21
7271445.759
 31
0.0
  0
LINE
  8
7
  6
CONTINUOUS
 62
     7
  5
199
 10
911978.073
 20
7271585.098
 30
0.0
 11
911798.52
 21
7271590.688
 31
0.0
  0
LINE
  8
7
  6
CONTINUOUS
 62
     7
  5
19A
 10
911540.976
 20
7271019.08
 30
0.0
 11
911720.52
 21
7271013.49
 31
0.0
  0
LINE
  8
7
  6
CONTINUOUS
 62
     7
  5
19B
 10
911545.42
 20
7271161.807
 30
0.0
 11
911724.964
 21
7271156.217
 31
0.0
  0
LINE
  8
7
  6
CONTINUOUS
 62
     7
  5
19C
 10
911549.933
 20
7271306.737
 30
0.0
 11
911729.476
 21
7271301.148
 31
0.0
  0
LINE
  8
7
  6
CONTINUOUS
 62
     7
  5
19D
 10
911554.445
 20
7271451.667
 30
0.0
 11
911733.988
 21
7271446.077
 31
0.0
  0
LINE
  8
7
  6
CONTINUOUS
 62
     7
  5
19E
 10
911558.958
 20
7271596.597
 30
0.0
 11
911738.501
 21
7271591.006
 31
0.0
  0
LINE
  8
6
  6
CONTINUOUS
 62
     7
  5
19F
 10
915179.016
 20
7269088.431
 30
0.0
 11
912972.927
 21
7269157.118
 31
0.0
  0
LINE
  8
6
  6
CONTINUOUS
 62
     7
  5
1A0
 10
915575.186
 20
7269055.02
 30
0.0
 11
915179.016
 21
7269088.431
 31
0.0
  0
LINE
  8
6
  6
CONTINUOUS
 62
     7
  5
1A1
 10
914018.649
 20
7274288.471
 30
0.0
 11
913178.525
 21
7274314.628
 31
0.0
  0
LINE
  8
6
  6
CONTINUOUS
 62
     7
  5
1A2
 10
913163.066
 20
7274300.102
 30
0.0
 11
913084.72
 21
7271783.721
 31
0.0
  0
LINE
  8
6
  6
CONTINUOUS
 62
     7
  5
1A3
 10
913099.252
 20
7271768.261
 30
0.0
 11
913939.38
 21
7271742.457
 31
0.0
  0
LINE
  8
6
  6
CONTINUOUS
 62
     7
  5
1A4
 10
913133.548
 20
7274316.029
 30
0.0
 11
913053.334
 21
7271739.677
 31
0.0
  0
ARC
  8
6
  6
CONTINUOUS
 62
     7
  5
1A5
 10
913099.71261
 20
7271783.254854
 30
0.0
 40
15.0
 50
178.2167
 51
268.240364
210
0.0
220
0.0
230
1.0
  0
LINE
  8
6
  6
CONTINUOUS
 62
     7
  5
1A6
 10
913053.334
 20
7271739.677
 30
0.0
 11
915591.576
 21
7271661.019
 31
0.0
  0
ARC
  8
6
  6
CONTINUOUS
 62
     7
  5
1A7
 10
913178.058885
 20
7274299.635317
 30
0.0
 40
15.0
 50
88.2167
 51
178.2167
210
0.0
220
0.0
230
1.0
  0
LINE
  8
6
  6
CONTINUOUS
 62
     7
  5
1A8
 10
913133.548
 20
7274316.029
 30
0.0
 11
910535.404
 21
7274396.835
 31
0.0
  0
LINE
  8
6
  6
CONTINUOUS
 62
     7
  5
1A9
 10
915674.099
 20
7273635.37
 30
0.0
 11
915691.365
 21
7274189.922
 31
0.0
  0
ARC
  8
6
  6
CONTINUOUS
 62
     7
  5
1AA
 10
915666.377024
 20
7274190.69951
 30
0.0
 40
25.0
 50
358.2167
 51
88.2167
210
0.0
220
0.0
230
1.0
  0
TEXT
  8
10
  6
CONTINUOUS
 62
   134
  5
1AD
 10
915210.56
 20
7273629.05
 30
0.0
 40
13.999
  1
92-A-1
 50
294.2167
  7
ROMANS
 11
915223.327096
 21
7273634.792234
 31
0.0
210
0.0
220
0.0
230
1.0
 73
     3
  0
TEXT
  8
10
  6
CONTINUOUS
 62
   134
  5
1AE
 10
915138.023
 20
7273624.924
 30
0.0
 40
13.999
  1
92-A-2
 50
313.2167
  7
ROMANS
 11
915148.225038
 21
7273634.509949
 31
0.0
210
0.0
220
0.0
230
1.0
 73
     3
  0
TEXT
  8
10
  6
CONTINUOUS
 62
   134
  5
1AF
 10
915119.066
 20
7273566.598
 30
0.0
 40
13.999
  1
93-A-1
 50
328.2167
  7
ROMANS
 11
915126.439386
 21
7273578.497797
 31
0.0
210
0.0
220
0.0
230
1.0
 73
     3
  0
TEXT
  8
10
  6
CONTINUOUS
 62
   134
  5
1B0
 10
915103.796
 20
7273494.893
 30
0.0
 40
13.999
  1
93-A-2
 50
358.2167
  7
ROMANS
 11
915104.231641
 21
7273508.88522
 31
0.0
210
0.0
220
0.0
230
1.0
 73
     3
  0
TEXT
  8
10
  6
CONTINUOUS
 62
   134
  5
1B1
 10
915099.014
 20
7273458.843
 30
0.0
 40
13.999
  1
94-A-1
 50
358.2167
  7
ROMANS
 11
915099.449641
 21
7273472.83522
 31
0.0
210
0.0
220
0.0
230
1.0
 73
     3
  0
TEXT
  8
10
  6
CONTINUOUS
 62
   134
  5
1B2
 10
915097.296
 20
7273430.092
 30
0.0
 40
13.999
  1
94-A-2
 50
358.2167
  7
ROMANS
 11
915097.731641
 21
7273444.08422
 31
0.0
210
0.0
220
0.0
230
1.0
 73
     3
  0
LINE
  8
7
  6
CONTINUOUS
 62
     7
  5
1B3
 10
915077.874
 20
7273315.112
 30
0.0
 11
915187.771
 21
7273311.69
 31
0.0
  0
LINE
  8
7
  6
CONTINUOUS
 62
     7
  5
1B4
 10
915076.132
 20
7273259.139
 30
0.0
 11
915186.028
 21
7273255.719
 31
0.0
  0
LINE
  8
7
  6
CONTINUOUS
 62
     7
  5
1B5
 10
915074.42
 20
7273204.166
 30
0.0
 11
915184.317
 21
7273200.744
 31
0.0
  0
LINE
  8
7
  6
CONTINUOUS
 62
     7
  5
1B6
 10
915072.676
 20
7273148.194
 30
0.0
 11
915182.574
 21
7273144.771
 31
0.0
  0
LINE
  8
7
  6
CONTINUOUS
 62
     7
  5
1B7
 10
915070.966
 20
7273093.22
 30
0.0
 11
915180.863
 21
7273089.799
 31
0.0
  0
LINE
  8
7
  6
CONTINUOUS
 62
     7
  5
1B8
 10
915069.254
 20
7273038.246
 30
0.0
 11
915179.151
 21
7273034.825
 31
0.0
  0
LINE
  8
7
  6
CONTINUOUS
 62
     7
  5
1B9
 10
915067.543
 20
7272983.274
 30
0.0
 11
915177.439
 21
7272979.851
 31
0.0
  0
LINE
  8
7
  6
CONTINUOUS
 62
     7
  5
1BA
 10
915065.8
 20
7272927.3
 30
0.0
 11
915175.696
 21
7272923.878
 31
0.0
  0
TEXT
  8
10
  6
CONTINUOUS
 62
   134
  5
1BB
 10
915109.185
 20
7273389.21
 30
0.0
 40
13.999
  1
95-A
 50
358.2167
  7
ROMANS
 11
915109.620641
 21
7273403.20222
 31
0.0
210
0.0
220
0.0
230
1.0
 73
     3
  0
TEXT
  8
10
  6
CONTINUOUS
 62
   134
  5
1BC
 10
915106.647
 20
7273334.133
 30
0.0
 40
13.999
  1
96-A
 50
358.2167
  7
ROMANS
 11
915107.082641
 21
7273348.12522
 31
0.0
210
0.0
220
0.0
230
1.0
 73
     3
  0
TEXT
  8
10
  6
CONTINUOUS
 62
   134
  5
1BD
 10
915104.88
 20
7273277.386
 30
0.0
 40
13.999
  1
97-A
 50
358.2167
  7
ROMANS
 11
915105.315641
 21
7273291.37822
 31
0.0
210
0.0
220
0.0
230
1.0
 73
     3
  0
TEXT
  8
10
  6
CONTINUOUS
 62
   134
  5
1BE
 10
915103.165
 20
7273222.283
 30
0.0
 40
13.999
  1
98-A
 50
358.2167
  7
ROMANS
 11
915103.600641
 21
7273236.27522
 31
0.0
210
0.0
220
0.0
230
1.0
 73
     3
  0
TEXT
  8
10
  6
CONTINUOUS
 62
   134
  5
1BF
 10
915100.679
 20
7273168.853
 30
0.0
 40
13.999
  1
99-A
 50
358.2167
  7
ROMANS
 11
915101.114641
 21
7273182.84522
 31
0.0
210
0.0
220
0.0
230
1.0
 73
     3
  0
TEXT
  8
10
  6
CONTINUOUS
 62
   134
  5
1C0
 10
915091.49
 20
7273111.512
 30
0.0
 40
13.999
  1
100-A
 50
358.2167
  7
ROMANS
 11
915091.925641
 21
7273125.50422
 31
0.0
210
0.0
220
0.0
230
1.0
 73
     3
  0
TEXT
  8
10
  6
CONTINUOUS
 62
   134
  5
1C1
 10
915089.749
 20
7273055.588
 30
0.0
 40
13.999
  1
101-A
 50
358.2167
  7
ROMANS
 11
915090.184641
 21
7273069.58022
 31
0.0
210
0.0
220
0.0
230
1.0
 73
     3
  0
TEXT
  8
10
  6
CONTINUOUS
 62
   134
  5
1C2
 10
915088.058
 20
7273001.307
 30
0.0
 40
13.999
  1
102-A
 50
358.2167
  7
ROMANS
 11
915088.493641
 21
7273015.29922
 31
0.0
210
0.0
220
0.0
230
1.0
 73
     3
  0
TEXT
  8
10
  6
CONTINUOUS
 62
   134
  5
1C3
 10
915086.318
 20
7272945.382
 30
0.0
 40
13.999
  1
103-A
 50
358.2167
  7
ROMANS
 11
915086.753641
 21
7272959.37422
 31
0.0
210
0.0
220
0.0
230
1.0
 73
     3
  0
TEXT
  8
10
  6
CONTINUOUS
 62
   134
  5
1C4
 10
915271.936
 20
7273411.904
 30
0.0
 40
13.999
  1
78
 50
358.2167
  7
ROMANS
 11
915272.371641
 21
7273425.89622
 31
0.0
210
0.0
220
0.0
230
1.0
 73
     3
  0
TEXT
  8
10
  6
CONTINUOUS
 62
   134
  5
1C5
 10
915332.751
 20
7273410.01
 30
0.0
 40
13.999
  1
79
 50
358.2167
  7
ROMANS
 11
915333.186641
 21
7273424.00222
 31
0.0
210
0.0
220
0.0
230
1.0
 73
     3
  0
TEXT
  8
10
  6
CONTINUOUS
 62
   134
  5
1C6
 10
915388.637
 20
7273408.271
 30
0.0
 40
13.999
  1
80
 50
358.2167
  7
ROMANS
 11
915389.072641
 21
7273422.26322
 31
0.0
210
0.0
220
0.0
230
1.0
 73
     3
  0
TEXT
  8
10
  6
CONTINUOUS
 62
   134
  5
1C7
 10
915445.343
 20
7273406.506
 30
0.0
 40
13.999
  1
81
 50
358.2167
  7
ROMANS
 11
915445.778641
 21
7273420.49822
 31
0.0
210
0.0
220
0.0
230
1.0
 73
     3
  0
TEXT
  8
10
  6
CONTINUOUS
 62
   134
  5
1C8
 10
915501.228
 20
7273404.765
 30
0.0
 40
13.999
  1
82
 50
358.2167
  7
ROMANS
 11
915501.663641
 21
7273418.75722
 31
0.0
210
0.0
220
0.0
230
1.0
 73
     3
  0
TEXT
  8
10
  6
CONTINUOUS
 62
   134
  5
1C9
 10
915557.087
 20
7273402.202
 30
0.0
 40
13.999
  1
83
 50
358.2167
  7
ROMANS
 11
915557.522641
 21
7273416.19422
 31
0.0
210
0.0
220
0.0
230
1.0
 73
     3
  0
TEXT
  8
10
  6
CONTINUOUS
 62
   134
  5
1CA
 10
915618.75
 20
7273401.106
 30
0.0
 40
13.999
  1
84
 50
358.2167
  7
ROMANS
 11
915619.185641
 21
7273415.09822
 31
0.0
210
0.0
220
0.0
230
1.0
 73
     3
  0
TEXT
  8
10
  6
CONTINUOUS
 62
   134
  5
1CB
 10
915267.942
 20
7273283.606
 30
0.0
 40
13.999
  1
77
 50
358.2167
  7
ROMANS
 11
915268.377641
 21
7273297.59822
 31
0.0
210
0.0
220
0.0
230
1.0
 73
     3
  0
TEXT
  8
10
  6
CONTINUOUS
 62
   134
  5
1CC
 10
915327.936
 20
7273281.738
 30
0.0
 40
13.999
  1
76
 50
358.2167
  7
ROMANS
 11
915328.371641
 21
7273295.73022
 31
0.0
210
0.0
220
0.0
230
1.0
 73
     3
  0
TEXT
  8
10
  6
CONTINUOUS
 62
   134
  5
1CD
 10
915384.642
 20
7273279.973
 30
0.0
 40
13.999
  1
75
 50
358.2167
  7
ROMANS
 11
915385.077641
 21
7273293.96522
 31
0.0
210
0.0
220
0.0
230
1.0
 73
     3
  0
TEXT
  8
10
  6
CONTINUOUS
 62
   134
  5
1CE
 10
915439.705
 20
7273278.258
 30
0.0
 40
13.999
  1
74
 50
358.2167
  7
ROMANS
 11
915440.140641
 21
7273292.25022
 31
0.0
210
0.0
220
0.0
230
1.0
 73
     3
  0
TEXT
  8
10
  6
CONTINUOUS
 62
   134
  5
1CF
 10
915496.41
 20
7273276.494
 30
0.0
 40
13.999
  1
73
 50
358.2167
  7
ROMANS
 11
915496.845641
 21
7273290.48622
 31
0.0
210
0.0
220
0.0
230
1.0
 73
     3
  0
TEXT
  8
10
  6
CONTINUOUS
 62
   134
  5
1D0
 10
915552.296
 20
7273274.753
 30
0.0
 40
13.999
  1
72
 50
358.2167
  7
ROMANS
 11
915552.731641
 21
7273288.74522
 31
0.0
210
0.0
220
0.0
230
1.0
 73
     3
  0
TEXT
  8
10
  6
CONTINUOUS
 62
   134
  5
1D1
 10
915611.887
 20
7273272.897
 30
0.0
 40
13.999
  1
71
 50
358.2167
  7
ROMANS
 11
915612.322641
 21
7273286.88922
 31
0.0
210
0.0
220
0.0
230
1.0
 73
     3
  0
TEXT
  8
10
  6
CONTINUOUS
 62
   134
  5
1D2
 10
915262.693
 20
7273115.009
 30
0.0
 40
13.999
  1
64
 50
358.2167
  7
ROMANS
 11
915263.128641
 21
7273129.00122
 31
0.0
210
0.0
220
0.0
230
1.0
 73
     3
  0
TEXT
  8
10
  6
CONTINUOUS
 62
   134
  5
1D3
 10
915323.508
 20
7273113.115
 30
0.0
 40
13.999
  1
65
 50
358.2167
  7
ROMANS
 11
915323.943641
 21
7273127.10722
 31
0.0
210
0.0
220
0.0
230
1.0
 73
     3
  0
TEXT
  8
10
  6
CONTINUOUS
 62
   134
  5
1D4
 10
915379.368
 20
7273110.554
 30
0.0
 40
13.999
  1
66
 50
358.2167
  7
ROMANS
 11
915379.803641
 21
7273124.54622
 31
0.0
210
0.0
220
0.0
230
1.0
 73
     3
  0
TEXT
  8
10
  6
CONTINUOUS
 62
   134
  5
1D5
 10
915435.278
 20
7273109.635
 30
0.0
 40
13.999
  1
67
 50
358.2167
  7
ROMANS
 11
915435.713641
 21
7273123.62722
 31
0.0
210
0.0
220
0.0
230
1.0
 73
     3
  0
TEXT
  8
10
  6
CONTINUOUS
 62
   134
  5
1D6
 10
915490.34
 20
7273107.921
 30
0.0
 40
13.999
  1
68
 50
358.2167
  7
ROMANS
 11
915490.775641
 21
7273121.91322
 31
0.0
210
0.0
220
0.0
230
1.0
 73
     3
  0
TEXT
  8
10
  6
CONTINUOUS
 62
   134
  5
1D7
 10
915546.225
 20
7273106.181
 30
0.0
 40
13.999
  1
69
 50
358.2167
  7
ROMANS
 11
915546.660641
 21
7273120.17322
 31
0.0
210
0.0
220
0.0
230
1.0
 73
     3
  0
TEXT
  8
10
  6
CONTINUOUS
 62
   134
  5
1D8
 10
915603.992
 20
7273104.382
 30
0.0
 40
13.999
  1
70
 50
358.2167
  7
ROMANS
 11
915604.427641
 21
7273118.37422
 31
0.0
210
0.0
220
0.0
230
1.0
 73
     3
  0
TEXT
  8
10
  6
CONTINUOUS
 62
   134
  5
1D9
 10
915258.715
 20
7272987.246
 30
0.0
 40
13.999
  1
63
 50
358.2167
  7
ROMANS
 11
915259.150641
 21
7273001.23822
 31
0.0
210
0.0
220
0.0
230
1.0
 73
     3
  0
TEXT
  8
10
  6
CONTINUOUS
 62
   134
  5
1DA
 10
915318.709
 20
7272985.378
 30
0.0
 40
13.999
  1
62
 50
358.2167
  7
ROMANS
 11
915319.144641
 21
7272999.37022
 31
0.0
210
0.0
220
0.0
230
1.0
 73
     3
  0
TEXT
  8
10
  6
CONTINUOUS
 62
   134
  5
1DB
 10
915375.415
 20
7272983.612
 30
0.0
 40
13.999
  1
61
 50
358.2167
  7
ROMANS
 11
915375.850641
 21
7272997.60422
 31
0.0
210
0.0
220
0.0
230
1.0
 73
     3
  0
TEXT
  8
10
  6
CONTINUOUS
 62
   134
  5
1DC
 10
915430.503
 20
7272982.719
 30
0.0
 40
13.999
  1
60
 50
358.2167
  7
ROMANS
 11
915430.938641
 21
7272996.71122
 31
0.0
210
0.0
220
0.0
230
1.0
 73
     3
  0
TEXT
  8
10
  6
CONTINUOUS
 62
   134
  5
1DD
 10
915484.719
 20
7272980.209
 30
0.0
 40
13.999
  1
59
 50
358.2167
  7
ROMANS
 11
915485.154641
 21
7272994.20122
 31
0.0
210
0.0
220
0.0
230
1.0
 73
     3
  0
TEXT
  8
10
  6
CONTINUOUS
 62
   134
  5
1DE
 10
915542.248
 20
7272978.419
 30
0.0
 40
13.999
  1
58
 50
358.2167
  7
ROMANS
 11
915542.683641
 21
7272992.41122
 31
0.0
210
0.0
220
0.0
230
1.0
 73
     3
  0
TEXT
  8
10
  6
CONTINUOUS
 62
   134
  5
1DF
 10
915603.885
 20
7272976.5
 30
0.0
 40
13.999
  1
57
 50
358.2167
  7
ROMANS
 11
915604.320641
 21
7272990.49222
 31
0.0
210
0.0
220
0.0
230
1.0
 73
     3
  0
TEXT
  8
10
  6
CONTINUOUS
 62
   134
  5
1E0
 10
915252.742
 20
7272821.813
 30
0.0
 40
13.999
  1
50
 50
358.2167
  7
ROMANS
 11
915253.177641
 21
7272835.80522
 31
0.0
210
0.0
220
0.0
230
1.0
 73
     3
  0
TEXT
  8
10
  6
CONTINUOUS
 62
   134
  5
1E1
 10
915313.541
 20
7272819.409
 30
0.0
 40
13.999
  1
51
 50
358.2167
  7
ROMANS
 11
915313.976641
 21
7272833.40122
 31
0.0
210
0.0
220
0.0
230
1.0
 73
     3
  0
TEXT
  8
10
  6
CONTINUOUS
 62
   134
  5
1E2
 10
915369.458
 20
7272818.69
 30
0.0
 40
13.999
  1
52
 50
358.2167
  7
ROMANS
 11
915369.893641
 21
7272832.68222
 31
0.0
210
0.0
220
0.0
230
1.0
 73
     3
  0
TEXT
  8
10
  6
CONTINUOUS
 62
   134
  5
1E3
 10
915425.325
 20
7272816.439
 30
0.0
 40
13.999
  1
53
 50
358.2167
  7
ROMANS
 11
915425.760641
 21
7272830.43122
 31
0.0
210
0.0
220
0.0
230
1.0
 73
     3
  0
TEXT
  8
10
  6
CONTINUOUS
 62
   134
  5
1E4
 10
915481.821
 20
7272813.405
 30
0.0
 40
13.999
  1
54
 50
358.2167
  7
ROMANS
 11
915482.256641
 21
7272827.39722
 31
0.0
210
0.0
220
0.0
230
1.0
 73
     3
  0
TEXT
  8
10
  6
CONTINUOUS
 62
   134
  5
1E5
 10
915539.677
 20
7272812.113
 30
0.0
 40
13.999
  1
55
 50
358.2167
  7
ROMANS
 11
915540.112641
 21
7272826.10522
 31
0.0
210
0.0
220
0.0
230
1.0
 73
     3
  0
TEXT
  8
10
  6
CONTINUOUS
 62
   134
  5
1E6
 10
915598.749
 20
7272811.551
 30
0.0
 40
13.999
  1
56
 50
358.2167
  7
ROMANS
 11
915599.184641
 21
7272825.54322
 31
0.0
210
0.0
220
0.0
230
1.0
 73
     3
  0
TEXT
  8
10
  6
CONTINUOUS
 62
   134
  5
1E7
 10
915248.918
 20
7272699.04
 30
0.0
 40
13.999
  1
49
 50
358.2167
  7
ROMANS
 11
915249.353641
 21
7272713.03222
 31
0.0
210
0.0
220
0.0
230
1.0
 73
     3
  0
TEXT
  8
10
  6
CONTINUOUS
 62
   134
  5
1E8
 10
915309.669
 20
7272696.895
 30
0.0
 40
13.999
  1
48
 50
358.2167
  7
ROMANS
 11
915310.104641
 21
7272710.88722
 31
0.0
210
0.0
220
0.0
230
1.0
 73
     3
  0
TEXT
  8
10
  6
CONTINUOUS
 62
   134
  5
1E9
 10
915365.626
 20
7272695.604
 30
0.0
 40
13.999
  1
47
 50
358.2167
  7
ROMANS
 11
915366.061641
 21
7272709.59622
 31
0.0
210
0.0
220
0.0
230
1.0
 73
     3
  0
TEXT
  8
10
  6
CONTINUOUS
 62
   134
  5
1EA
 10
915421.526
 20
7272694.374
 30
0.0
 40
13.999
  1
46
 50
358.2167
  7
ROMANS
 11
915421.961641
 21
7272708.36622
 31
0.0
210
0.0
220
0.0
230
1.0
 73
     3
  0
TEXT
  8
10
  6
CONTINUOUS
 62
   134
  5
1EB
 10
915475.783
 20
7272693.196
 30
0.0
 40
13.999
  1
45
 50
358.2167
  7
ROMANS
 11
915476.218641
 21
7272707.18822
 31
0.0
210
0.0
220
0.0
230
1.0
 73
     3
  0
TEXT
  8
10
  6
CONTINUOUS
 62
   134
  5
1EC
 10
915534.938
 20
7272690.843
 30
0.0
 40
13.999
  1
44
 50
358.2167
  7
ROMANS
 11
915535.373641
 21
7272704.83522
 31
0.0
210
0.0
220
0.0
230
1.0
 73
     3
  0
TEXT
  8
10
  6
CONTINUOUS
 62
   134
  5
1ED
 10
915594.079
 20
7272687.981
 30
0.0
 40
13.999
  1
43
 50
358.2167
  7
ROMANS
 11
915594.514641
 21
7272701.97322
 31
0.0
210
0.0
220
0.0
230
1.0
 73
     3
  0
TEXT
  8
10
  6
CONTINUOUS
 62
   134
  5
1EE
 10
915243.475
 20
7272524.887
 30
0.0
 40
13.999
  1
36
 50
358.2167
  7
ROMANS
 11
915243.910641
 21
7272538.87922
 31
0.0
210
0.0
220
0.0
230
1.0
 73
     3
  0
TEXT
  8
10
  6
CONTINUOUS
 62
   134
  5
1EF
 10
915304.291
 20
7272522.992
 30
0.0
 40
13.999
  1
37
 50
358.2167
  7
ROMANS
 11
915304.726641
 21
7272536.98422
 31
0.0
210
0.0
220
0.0
230
1.0
 73
     3
  0
TEXT
  8
10
  6
CONTINUOUS
 62
   134
  5
1F0
 10
915360.175
 20
7272521.254
 30
0.0
 40
13.999
  1
38
 50
358.2167
  7
ROMANS
 11
915360.610641
 21
7272535.24622
 31
0.0
210
0.0
220
0.0
230
1.0
 73
     3
  0
TEXT
  8
10
  6
CONTINUOUS
 62
   134
  5
1F1
 10
915416.881
 20
7272519.487
 30
0.0
 40
13.999
  1
39
 50
358.2167
  7
ROMANS
 11
915417.316641
 21
7272533.47922
 31
0.0
210
0.0
220
0.0
230
1.0
 73
     3
  0
TEXT
  8
10
  6
CONTINUOUS
 62
   134
  5
1F2
 10
915471.944
 20
7272517.773
 30
0.0
 40
13.999
  1
40
 50
358.2167
  7
ROMANS
 11
915472.379641
 21
7272531.76522
 31
0.0
210
0.0
220
0.0
230
1.0
 73
     3
  0
TEXT
  8
10
  6
CONTINUOUS
 62
   134
  5
1F3
 10
915529.497
 20
7272516.805
 30
0.0
 40
13.999
  1
41
 50
358.2167
  7
ROMANS
 11
915529.932641
 21
7272530.79722
 31
0.0
210
0.0
220
0.0
230
1.0
 73
     3
  0
TEXT
  8
10
  6
CONTINUOUS
 62
   134
  5
1F4
 10
915588.645
 20
7272514.139
 30
0.0
 40
13.999
  1
42
 50
358.2167
  7
ROMANS
 11
915589.080641
 21
7272528.13122
 31
0.0
210
0.0
220
0.0
230
1.0
 73
     3
  0
TEXT
  8
10
  6
CONTINUOUS
 62
   134
  5
1F5
 10
915239.458
 20
7272395.875
 30
0.0
 40
13.999
  1
35
 50
358.2167
  7
ROMANS
 11
915239.893641
 21
7272409.86722
 31
0.0
210
0.0
220
0.0
230
1.0
 73
     3
  0
TEXT
  8
10
  6
CONTINUOUS
 62
   134
  5
1F6
 10
915300.272
 20
7272393.927
 30
0.0
 40
13.999
  1
34
 50
358.2167
  7
ROMANS
 11
915300.707641
 21
7272407.91922
 31
0.0
210
0.0
220
0.0
230
1.0
 73
     3
  0
TEXT
  8
10
  6
CONTINUOUS
 62
   134
  5
1F7
 10
915356.977
 20
7272392.106
 30
0.0
 40
13.999
  1
33
 50
358.2167
  7
ROMANS
 11
915357.412641
 21
7272406.09822
 31
0.0
210
0.0
220
0.0
230
1.0
 73
     3
  0
TEXT
  8
10
  6
CONTINUOUS
 62
   134
  5
1F8
 10
915412.039
 20
7272390.392
 30
0.0
 40
13.999
  1
32
 50
358.2167
  7
ROMANS
 11
915412.474641
 21
7272404.38422
 31
0.0
210
0.0
220
0.0
230
1.0
 73
     3
  0
TEXT
  8
10
  6
CONTINUOUS
 62
   134
  5
1F9
 10
915471.238
 20
7272389.371
 30
0.0
 40
13.999
  1
31
 50
358.2167
  7
ROMANS
 11
915471.673641
 21
7272403.36322
 31
0.0
210
0.0
220
0.0
230
1.0
 73
     3
  0
TEXT
  8
10
  6
CONTINUOUS
 62
   134
  5
1FA
 10
915525.452
 20
7272386.861
 30
0.0
 40
13.999
  1
30
 50
358.2167
  7
ROMANS
 11
915525.887641
 21
7272400.85322
 31
0.0
210
0.0
220
0.0
230
1.0
 73
     3
  0
TEXT
  8
10
  6
CONTINUOUS
 62
   134
  5
1FB
 10
915586.668
 20
7272384.543
 30
0.0
 40
13.999
  1
29
 50
358.2167
  7
ROMANS
 11
915587.103641
 21
7272398.53522
 31
0.0
210
0.0
220
0.0
230
1.0
 73
     3
  0
TEXT
  8
10
  6
CONTINUOUS
 62
   134
  5
1FC
 10
915234.976
 20
7272225.498
 30
0.0
 40
13.999
  1
22
 50
358.2167
  7
ROMANS
 11
915235.411641
 21
7272239.49022
 31
0.0
210
0.0
220
0.0
230
1.0
 73
     3
  0
TEXT
  8
10
  6
CONTINUOUS
 62
   134
  5
1FD
 10
915294.97
 20
7272223.631
 30
0.0
 40
13.999
  1
23
 50
358.2167
  7
ROMANS
 11
915295.405641
 21
7272237.62322
 31
0.0
210
0.0
220
0.0
230
1.0
 73
     3
  0
TEXT
  8
10
  6
CONTINUOUS
 62
   134
  5
1FE
 10
915350.854
 20
7272221.891
 30
0.0
 40
13.999
  1
24
 50
358.2167
  7
ROMANS
 11
915351.289641
 21
7272235.88322
 31
0.0
210
0.0
220
0.0
230
1.0
 73
     3
  0
TEXT
  8
10
  6
CONTINUOUS
 62
   134
  5
1FF
 10
915406.738
 20
7272220.152
 30
0.0
 40
13.999
  1
25
 50
358.2167
  7
ROMANS
 11
915407.173641
 21
7272234.14422
 31
0.0
210
0.0
220
0.0
230
1.0
 73
     3
  0
TEXT
  8
10
  6
CONTINUOUS
 62
   134
  5
200
 10
915462.624
 20
7272218.411
 30
0.0
 40
13.999
  1
26
 50
358.2167
  7
ROMANS
 11
915463.059641
 21
7272232.40322
 31
0.0
210
0.0
220
0.0
230
1.0
 73
     3
  0
TEXT
  8
10
  6
CONTINUOUS
 62
   134
  5
201
 10
915518.509
 20
7272216.671
 30
0.0
 40
13.999
  1
27
 50
358.2167
  7
ROMANS
 11
915518.944641
 21
7272230.66322
 31
0.0
210
0.0
220
0.0
230
1.0
 73
     3
  0
TEXT
  8
10
  6
CONTINUOUS
 62
   134
  5
202
 10
915578.528
 20
7272215.625
 30
0.0
 40
13.999
  1
28
 50
358.2167
  7
ROMANS
 11
915578.963641
 21
7272229.61722
 31
0.0
210
0.0
220
0.0
230
1.0
 73
     3
  0
TEXT
  8
10
  6
CONTINUOUS
 62
   134
  5
203
 10
915230.72
 20
7272090.153
 30
0.0
 40
13.999
  1
21
 50
358.2167
  7
ROMANS
 11
915231.155641
 21
7272104.14522
 31
0.0
210
0.0
220
0.0
230
1.0
 73
     3
  0
TEXT
  8
10
  6
CONTINUOUS
 62
   134
  5
204
 10
915288.671
 20
7272088.758
 30
0.0
 40
13.999
  1
20
 50
358.2167
  7
ROMANS
 11
915289.106641
 21
7272102.75022
 31
0.0
210
0.0
220
0.0
230
1.0
 73
     3
  0
TEXT
  8
10
  6
CONTINUOUS
 62
   134
  5
205
 10
915346.598
 20
7272086.544
 30
0.0
 40
13.999
  1
19
 50
358.2167
  7
ROMANS
 11
915347.033641
 21
7272100.53622
 31
0.0
210
0.0
220
0.0
230
1.0
 73
     3
  0
TEXT
  8
10
  6
CONTINUOUS
 62
   134
  5
206
 10
915402.483
 20
7272084.805
 30
0.0
 40
13.999
  1
18
 50
358.2167
  7
ROMANS
 11
915402.918641
 21
7272098.79722
 31
0.0
210
0.0
220
0.0
230
1.0
 73
     3
  0
TEXT
  8
10
  6
CONTINUOUS
 62
   134
  5
207
 10
915458.368
 20
7272083.065
 30
0.0
 40
13.999
  1
17
 50
358.2167
  7
ROMANS
 11
915458.803641
 21
7272097.05722
 31
0.0
210
0.0
220
0.0
230
1.0
 73
     3
  0
TEXT
  8
10
  6
CONTINUOUS
 62
   134
  5
208
 10
915514.253
 20
7272081.325
 30
0.0
 40
13.999
  1
16
 50
358.2167
  7
ROMANS
 11
915514.688641
 21
7272095.31722
 31
0.0
210
0.0
220
0.0
230
1.0
 73
     3
  0
TEXT
  8
10
  6
CONTINUOUS
 62
   134
  5
209
 10
915572.161
 20
7272079.522
 30
0.0
 40
13.999
  1
15
 50
358.2167
  7
ROMANS
 11
915572.596641
 21
7272093.51422
 31
0.0
210
0.0
220
0.0
230
1.0
 73
     3
  0
TEXT
  8
10
  6
CONTINUOUS
 62
   134
  5
20A
 10
915234.203
 20
7271911.404
 30
0.0
 40
13.999
  1
8
 50
358.2167
  7
ROMANS
 11
915234.638641
 21
7271925.39622
 31
0.0
210
0.0
220
0.0
230
1.0
 73
     3
  0
TEXT
  8
10
  6
CONTINUOUS
 62
   134
  5
20B
 10
915293.35
 20
7271908.739
 30
0.0
 40
13.999
  1
9
 50
358.2167
  7
ROMANS
 11
915293.785641
 21
7271922.73122
 31
0.0
210
0.0
220
0.0
230
1.0
 73
     3
  0
TEXT
  8
10
  6
CONTINUOUS
 62
   134
  5
20C
 10
915341.839
 20
7271907.23
 30
0.0
 40
13.999
  1
10
 50
358.2167
  7
ROMANS
 11
915342.274641
 21
7271921.22222
 31
0.0
210
0.0
220
0.0
230
1.0
 73
     3
  0
TEXT
  8
10
  6
CONTINUOUS
 62
   134
  5
20D
 10
915400.188
 20
7271905.413
 30
0.0
 40
13.999
  1
11
 50
358.2167
  7
ROMANS
 11
915400.623641
 21
7271919.40522
 31
0.0
210
0.0
220
0.0
230
1.0
 73
     3
  0
TEXT
  8
10
  6
CONTINUOUS
 62
   134
  5
20E
 10
915453.608
 20
7271903.751
 30
0.0
 40
13.999
  1
12
 50
358.2167
  7
ROMANS
 11
915454.043641
 21
7271917.74322
 31
0.0
210
0.0
220
0.0
230
1.0
 73
     3
  0
TEXT
  8
10
  6
CONTINUOUS
 62
   134
  5
20F
 10
915509.492
 20
7271902.01
 30
0.0
 40
13.999
  1
13
 50
358.2167
  7
ROMANS
 11
915509.927641
 21
7271916.00222
 31
0.0
210
0.0
220
0.0
230
1.0
 73
     3
  0
TEXT
  8
10
  6
CONTINUOUS
 62
   134
  5
210
 10
915567.174
 20
7271900.215
 30
0.0
 40
13.999
  1
14
 50
358.2167
  7
ROMANS
 11
915567.609641
 21
7271914.20722
 31
0.0
210
0.0
220
0.0
230
1.0
 73
     3
  0
TEXT
  8
10
  6
CONTINUOUS
 62
   134
  5
211
 10
915229.291
 20
7271780.576
 30
0.0
 40
13.999
  1
7
 50
358.2167
  7
ROMANS
 11
915229.726641
 21
7271794.56822
 31
0.0
210
0.0
220
0.0
230
1.0
 73
     3
  0
TEXT
  8
10
  6
CONTINUOUS
 62
   134
  5
212
 10
915287.657
 20
7271779.268
 30
0.0
 40
13.999
  1
6
 50
358.2167
  7
ROMANS
 11
915288.092641
 21
7271793.26022
 31
0.0
210
0.0
220
0.0
230
1.0
 73
     3
  0
TEXT
  8
10
  6
CONTINUOUS
 62
   134
  5
213
 10
915345.17
 20
7271776.968
 30
0.0
 40
13.999
  1
5
 50
358.2167
  7
ROMANS
 11
915345.605641
 21
7271790.96022
 31
0.0
210
0.0
220
0.0
230
1.0
 73
     3
  0
TEXT
  8
10
  6
CONTINUOUS
 62
   134
  5
214
 10
915400.233
 20
7271775.255
 30
0.0
 40
13.999
  1
4
 50
358.2167
  7
ROMANS
 11
915400.668641
 21
7271789.24722
 31
0.0
210
0.0
220
0.0
230
1.0
 73
     3
  0
TEXT
  8
10
  6
CONTINUOUS
 62
   134
  5
215
 10
915456.938
 20
7271773.488
 30
0.0
 40
13.999
  1
3
 50
358.2167
  7
ROMANS
 11
915457.373641
 21
7271787.48022
 31
0.0
210
0.0
220
0.0
230
1.0
 73
     3
  0
TEXT
  8
10
  6
CONTINUOUS
 62
   134
  5
216
 10
915516.555
 20
7271771.377
 30
0.0
 40
13.999
  1
2
 50
358.2167
  7
ROMANS
 11
915516.990641
 21
7271785.36922
 31
0.0
210
0.0
220
0.0
230
1.0
 73
     3
  0
TEXT
  8
10
  6
CONTINUOUS
 62
   134
  5
217
 10
915573.649
 20
7271770.168
 30
0.0
 40
13.999
  1
1
 50
358.2167
  7
ROMANS
 11
915574.084641
 21
7271784.16022
 31
0.0
210
0.0
220
0.0
230
1.0
 73
     3
  0
TEXT
  8
10
  6
CONTINUOUS
 62
   134
  5
218
 10
914162.662
 20
7274021.815
 30
0.0
 40
13.999
  1
3
 50
358.2167
  7
ROMANS
 11
914163.097641
 21
7274035.80722
 31
0.0
210
0.0
220
0.0
230
1.0
 73
     3
  0
TEXT
  8
10
  6
CONTINUOUS
 62
   134
  5
219
 10
914482.527
 20
7274014.521
 30
0.0
 40
13.999
  1
4
 50
358.2167
  7
ROMANS
 11
914482.962641
 21
7274028.51322
 31
0.0
210
0.0
220
0.0
230
1.0
 73
     3
  0
TEXT
  8
10
  6
CONTINUOUS
 62
   134
  5
21A
 10
914831.329
 20
7274001.045
 30
0.0
 40
13.999
  1
5
 50
358.2167
  7
ROMANS
 11
914831.764641
 21
7274015.03722
 31
0.0
210
0.0
220
0.0
230
1.0
 73
     3
  0
TEXT
  8
10
  6
CONTINUOUS
 62
   134
  5
21B
 10
915402.311
 20
7273983.268
 30
0.0
 40
13.999
  1
6
 50
358.2167
  7
ROMANS
 11
915402.746641
 21
7273997.26022
 31
0.0
210
0.0
220
0.0
230
1.0
 73
     3
  0
TEXT
  8
10
  6
CONTINUOUS
 62
   134
  5
21C
 10
910560.137
 20
7271164.946
 30
0.0
 40
13.999
  1
1
 50
358.2167
  7
ROMANS
 11
910560.572641
 21
7271178.93822
 31
0.0
210
0.0
220
0.0
230
1.0
 73
     3
  0
TEXT
  8
10
  6
CONTINUOUS
 62
   134
  5
21D
 10
912461.477
 20
7269422.667
 30
0.0
 40
13.999
  1
1
 50
358.2167
  7
ROMANS
 11
912461.912641
 21
7269436.65922
 31
0.0
210
0.0
220
0.0
230
1.0
 73
     3
  0
TEXT
  8
10
  6
CONTINUOUS
 62
   134
  5
21E
 10
915313.96
 20
7269693.883
 30
0.0
 40
13.999
  1
A
 50
358.2167
  7
ROMANS
 11
915314.395641
 21
7269707.87522
 31
0.0
210
0.0
220
0.0
230
1.0
 73
     3
  0
TEXT
  8
10
  6
CONTINUOUS
 62
   134
  5
21F
 10
915100.612
 20
7272892.623
 30
0.0
 40
13.999
  1
105
 50
358.2167
  7
ROMANS
 11
915101.047641
 21
7272906.61522
 31
0.0
210
0.0
220
0.0
230
1.0
 73
     3
  0
TEXT
  8
10
  6
CONTINUOUS
 62
   134
  5
220
 10
915098.789
 20
7272834.056
 30
0.0
 40
13.999
  1
106
 50
358.2167
  7
ROMANS
 11
915099.224641
 21
7272848.04822
 31
0.0
210
0.0
220
0.0
230
1.0
 73
     3
  0
TEXT
  8
10
  6
CONTINUOUS
 62
   134
  5
221
 10
915097.05
 20
7272778.183
 30
0.0
 40
13.999
  1
107
 50
358.2167
  7
ROMANS
 11
915097.485641
 21
7272792.17522
 31
0.0
210
0.0
220
0.0
230
1.0
 73
     3
  0
TEXT
  8
10
  6
CONTINUOUS
 62
   134
  5
222
 10
915095.352
 20
7272723.657
 30
0.0
 40
13.999
  1
108
 50
358.2167
  7
ROMANS
 11
915095.787641
 21
7272737.64922
 31
0.0
210
0.0
220
0.0
230
1.0
 73
     3
  0
TEXT
  8
10
  6
CONTINUOUS
 62
   134
  5
223
 10
915093.591
 20
7272667.109
 30
0.0
 40
13.999
  1
109
 50
358.2167
  7
ROMANS
 11
915094.026641
 21
7272681.10122
 31
0.0
210
0.0
220
0.0
230
1.0
 73
     3
  0
TEXT
  8
10
  6
CONTINUOUS
 62
   134
  5
224
 10
915091.831
 20
7272610.562
 30
0.0
 40
13.999
  1
110
 50
358.2167
  7
ROMANS
 11
915092.266641
 21
7272624.55422
 31
0.0
210
0.0
220
0.0
230
1.0
 73
     3
  0
TEXT
  8
10
  6
CONTINUOUS
 62
   134
  5
225
 10
915092.281
 20
7272560.155
 30
0.0
 40
13.999
  1
111
 50
358.2167
  7
ROMANS
 11
915092.716641
 21
7272574.14722
 31
0.0
210
0.0
220
0.0
230
1.0
 73
     3
  0
TEXT
  8
10
  6
CONTINUOUS
 62
   134
  5
226
 10
915090.73
 20
7272510.34
 30
0.0
 40
13.999
  1
112
 50
358.2167
  7
ROMANS
 11
915091.165641
 21
7272524.33222
 31
0.0
210
0.0
220
0.0
230
1.0
 73
     3
  0
TEXT
  8
10
  6
CONTINUOUS
 62
   134
  5
227
 10
915089.096
 20
7272457.832
 30
0.0
 40
13.999
  1
113
 50
358.2167
  7
ROMANS
 11
915089.531641
 21
7272471.82422
 31
0.0
210
0.0
220
0.0
230
1.0
 73
     3
  0
TEXT
  8
10
  6
CONTINUOUS
 62
   134
  5
228
 10
915087.592
 20
7272409.551
 30
0.0
 40
13.999
  1
114
 50
358.2167
  7
ROMANS
 11
915088.027641
 21
7272423.54322
 31
0.0
210
0.0
220
0.0
230
1.0
 73
     3
  0
TEXT
  8
10
  6
CONTINUOUS
 62
   134
  5
229
 10
915085.208
 20
7272354.371
 30
0.0
 40
13.999
  1
115
 50
358.2167
  7
ROMANS
 11
915085.643641
 21
7272368.36322
 31
0.0
210
0.0
220
0.0
230
1.0
 73
     3
  0
TEXT
  8
10
  6
CONTINUOUS
 62
   134
  5
22A
 10
915083.447
 20
7272297.824
 30
0.0
 40
13.999
  1
116
 50
358.2167
  7
ROMANS
 11
915083.882641
 21
7272311.81622
 31
0.0
210
0.0
220
0.0
230
1.0
 73
     3
  0
TEXT
  8
10
  6
CONTINUOUS
 62
   134
  5
22B
 10
915081.722
 20
7272242.391
 30
0.0
 40
13.999
  1
117
 50
358.2167
  7
ROMANS
 11
915082.157641
 21
7272256.38322
 31
0.0
210
0.0
220
0.0
230
1.0
 73
     3
  0
TEXT
  8
10
  6
CONTINUOUS
 62
   134
  5
22C
 10
915080.108
 20
7272190.556
 30
0.0
 40
13.999
  1
118
 50
358.2167
  7
ROMANS
 11
915080.543641
 21
7272204.54822
 31
0.0
210
0.0
220
0.0
230
1.0
 73
     3
  0
TEXT
  8
10
  6
CONTINUOUS
 62
   134
  5
22D
 10
915078.578
 20
7272141.415
 30
0.0
 40
13.999
  1
119
 50
358.2167
  7
ROMANS
 11
915079.013641
 21
7272155.40722
 31
0.0
210
0.0
220
0.0
230
1.0
 73
     3
  0
TEXT
  8
10
  6
CONTINUOUS
 62
   134
  5
22E
 10
915077.069
 20
7272092.946
 30
0.0
 40
13.999
  1
120
 50
358.2167
  7
ROMANS
 11
915077.504641
 21
7272106.93822
 31
0.0
210
0.0
220
0.0
230
1.0
 73
     3
  0
TEXT
  8
10
  6
CONTINUOUS
 62
   134
  5
22F
 10
915075.434
 20
7272040.438
 30
0.0
 40
13.999
  1
121
 50
358.2167
  7
ROMANS
 11
915075.869641
 21
7272054.43022
 31
0.0
210
0.0
220
0.0
230
1.0
 73
     3
  0
TEXT
  8
10
  6
CONTINUOUS
 62
   134
  5
230
 10
915073.862
 20
7271989.95
 30
0.0
 40
13.999
  1
122
 50
358.2167
  7
ROMANS
 11
915074.297641
 21
7272003.94222
 31
0.0
210
0.0
220
0.0
230
1.0
 73
     3
  0
TEXT
  8
10
  6
CONTINUOUS
 62
   134
  5
231
 10
915072.353
 20
7271941.482
 30
0.0
 40
13.999
  1
123
 50
358.2167
  7
ROMANS
 11
915072.788641
 21
7271955.47422
 31
0.0
210
0.0
220
0.0
230
1.0
 73
     3
  0
TEXT
  8
10
  6
CONTINUOUS
 62
   134
  5
232
 10
915070.771
 20
7271890.666
 30
0.0
 40
13.999
  1
124
 50
358.2167
  7
ROMANS
 11
915071.206641
 21
7271904.65822
 31
0.0
210
0.0
220
0.0
230
1.0
 73
     3
  0
TEXT
  8
10
  6
CONTINUOUS
 62
   134
  5
233
 10
915088.652
 20
7271772.189
 30
0.0
 40
13.999
  1
125
 50
358.2167
  7
ROMANS
 11
915089.087641
 21
7271786.18122
 31
0.0
210
0.0
220
0.0
230
1.0
 73
     3
  0
TEXT
  8
10
  6
CONTINUOUS
 62
   134
  5
234
 10
915022.729
 20
7271774.242
 30
0.0
 40
13.999
  1
126
 50
358.2167
  7
ROMANS
 11
915023.164641
 21
7271788.23422
 31
0.0
210
0.0
220
0.0
230
1.0
 73
     3
  0
TEXT
  8
10
  6
CONTINUOUS
 62
   134
  5
235
 10
910554.211
 20
7270303.171
 30
0.0
 40
13.999
  1
25
 50
358.2167
  7
ROMANS
 11
910554.646641
 21
7270317.16322
 31
0.0
210
0.0
220
0.0
230
1.0
 73
     3
  0
TEXT
  8
10
  6
CONTINUOUS
 62
   134
  5
236
 10
910549.934
 20
7270165.787
 30
0.0
 40
13.999
  1
26
 50
358.2167
  7
ROMANS
 11
910550.369641
 21
7270179.77922
 31
0.0
210
0.0
220
0.0
230
1.0
 73
     3
  0
TEXT
  8
10
  6
CONTINUOUS
 62
   134
  5
237
 10
910541.379
 20
7269891.02
 30
0.0
 40
13.999
  1
28
 50
358.2167
  7
ROMANS
 11
910541.814641
 21
7269905.01222
 31
0.0
210
0.0
220
0.0
230
1.0
 73
     3
  0
TEXT
  8
10
  6
CONTINUOUS
 62
   134
  5
238
 10
910545.708
 20
7270030.057
 30
0.0
 40
13.999
  1
27
 50
358.2167
  7
ROMANS
 11
910546.143641
 21
7270044.04922
 31
0.0
210
0.0
220
0.0
230
1.0
 73
     3
  0
TEXT
  8
10
  6
CONTINUOUS
 62
   134
  5
239
 10
910537.411
 20
7269763.567
 30
0.0
 40
13.999
  1
29
 50
358.2167
  7
ROMANS
 11
910537.846641
 21
7269777.55922
 31
0.0
210
0.0
220
0.0
230
1.0
 73
     3
  0
TEXT
  8
10
  6
CONTINUOUS
 62
   134
  5
23A
 10
910533.082
 20
7269624.528
 30
0.0
 40
13.999
  1
30
 50
358.2167
  7
ROMANS
 11
910533.517641
 21
7269638.52022
 31
0.0
210
0.0
220
0.0
230
1.0
 73
     3
  0
TEXT
  8
10
  6
CONTINUOUS
 62
   134
  5
23B
 10
910528.752
 20
7269485.488
 30
0.0
 40
13.999
  1
31
 50
358.2167
  7
ROMANS
 11
910529.187641
 21
7269499.48022
 31
0.0
210
0.0
220
0.0
230
1.0
 73
     3
  0
TEXT
  8
10
  6
CONTINUOUS
 62
   134
  5
23C
 10
910523.909
 20
7269329.898
 30
0.0
 40
13.999
  1
32
 50
358.2167
  7
ROMANS
 11
910524.344641
 21
7269343.89022
 31
0.0
210
0.0
220
0.0
230
1.0
 73
     3
  0
TEXT
  8
10
  6
CONTINUOUS
 62
   134
  5
23D
 10
910764.462
 20
7269345.481
 30
0.0
 40
13.999
  1
33
 50
358.2167
  7
ROMANS
 11
910764.897641
 21
7269359.47322
 31
0.0
210
0.0
220
0.0
230
1.0
 73
     3
  0
TEXT
  8
10
  6
CONTINUOUS
 62
   134
  5
23E
 10
910928.171
 20
7269339.104
 30
0.0
 40
13.999
  1
34
 50
358.2167
  7
ROMANS
 11
910928.606641
 21
7269353.09622
 31
0.0
210
0.0
220
0.0
230
1.0
 73
     3
  0
TEXT
  8
10
  6
CONTINUOUS
 62
   134
  5
23F
 10
911090.306
 20
7269335.336
 30
0.0
 40
13.999
  1
35
 50
358.2167
  7
ROMANS
 11
911090.741641
 21
7269349.32822
 31
0.0
210
0.0
220
0.0
230
1.0
 73
     3
  0
TEXT
  8
10
  6
CONTINUOUS
 62
   134
  5
240
 10
911262.365
 20
7269331.262
 30
0.0
 40
13.999
  1
36
 50
358.2167
  7
ROMANS
 11
911262.800641
 21
7269345.25422
 31
0.0
210
0.0
220
0.0
230
1.0
 73
     3
  0
TEXT
  8
10
  6
CONTINUOUS
 62
   134
  5
241
 10
911487.314
 20
7269324.258
 30
0.0
 40
13.999
  1
37
 50
358.2167
  7
ROMANS
 11
911487.749641
 21
7269338.25022
 31
0.0
210
0.0
220
0.0
230
1.0
 73
     3
  0
TEXT
  8
10
  6
CONTINUOUS
 62
   134
  5
242
 10
911649.822
 20
7269320.479
 30
0.0
 40
13.999
  1
38
 50
358.2167
  7
ROMANS
 11
911650.257641
 21
7269334.47122
 31
0.0
210
0.0
220
0.0
230
1.0
 73
     3
  0
TEXT
  8
10
  6
CONTINUOUS
 62
   134
  5
243
 10
911793.177
 20
7269315.368
 30
0.0
 40
13.999
  1
39
 50
358.2167
  7
ROMANS
 11
911793.612641
 21
7269329.36022
 31
0.0
210
0.0
220
0.0
230
1.0
 73
     3
  0
TEXT
  8
10
  6
CONTINUOUS
 62
   134
  5
244
 10
911825.868
 20
7269562.738
 30
0.0
 40
13.999
  1
13
 50
358.2167
  7
ROMANS
 11
911826.303641
 21
7269576.73022
 31
0.0
210
0.0
220
0.0
230
1.0
 73
     3
  0
TEXT
  8
10
  6
CONTINUOUS
 62
   134
  5
245
 10
911640.615
 20
7269568.506
 30
0.0
 40
13.999
  1
14
 50
358.2167
  7
ROMANS
 11
911641.050641
 21
7269582.49822
 31
0.0
210
0.0
220
0.0
230
1.0
 73
     3
  0
TEXT
  8
10
  6
CONTINUOUS
 62
   134
  5
246
 10
911491.752
 20
7269573.141
 30
0.0
 40
13.999
  1
15
 50
358.2167
  7
ROMANS
 11
911492.187641
 21
7269587.13322
 31
0.0
210
0.0
220
0.0
230
1.0
 73
     3
  0
TEXT
  8
10
  6
CONTINUOUS
 62
   134
  5
247
 10
911255.225
 20
7269580.506
 30
0.0
 40
13.999
  1
16
 50
358.2167
  7
ROMANS
 11
911255.660641
 21
7269594.49822
 31
0.0
210
0.0
220
0.0
230
1.0
 73
     3
  0
TEXT
  8
10
  6
CONTINUOUS
 62
   134
  5
248
 10
911086.513
 20
7269585.759
 30
0.0
 40
13.999
  1
17
 50
358.2167
  7
ROMANS
 11
911086.948641
 21
7269599.75122
 31
0.0
210
0.0
220
0.0
230
1.0
 73
     3
  0
TEXT
  8
10
  6
CONTINUOUS
 62
   134
  5
249
 10
910843.371
 20
7269593.328
 30
0.0
 40
13.999
  1
18
 50
358.2167
  7
ROMANS
 11
910843.806641
 21
7269607.32022
 31
0.0
210
0.0
220
0.0
230
1.0
 73
     3
  0
TEXT
  8
10
  6
CONTINUOUS
 62
   134
  5
24A
 10
910849.864
 20
7269801.887
 30
0.0
 40
13.999
  1
19
 50
358.2167
  7
ROMANS
 11
910850.299641
 21
7269815.87922
 31
0.0
210
0.0
220
0.0
230
1.0
 73
     3
  0
TEXT
  8
10
  6
CONTINUOUS
 62
   134
  5
24B
 10
910854.605
 20
7269954.167
 30
0.0
 40
13.999
  1
20
 50
358.2167
  7
ROMANS
 11
910855.040641
 21
7269968.15922
 31
0.0
210
0.0
220
0.0
230
1.0
 73
     3
  0
TEXT
  8
10
  6
CONTINUOUS
 62
   134
  5
24C
 10
910859.501
 20
7270111.415
 30
0.0
 40
13.999
  1
21
 50
358.2167
  7
ROMANS
 11
910859.936641
 21
7270125.40722
 31
0.0
210
0.0
220
0.0
230
1.0
 73
     3
  0
TEXT
  8
10
  6
CONTINUOUS
 62
   134
  5
24D
 10
910864.654
 20
7270276.938
 30
0.0
 40
13.999
  1
22
 50
358.2167
  7
ROMANS
 11
910865.089641
 21
7270290.93022
 31
0.0
210
0.0
220
0.0
230
1.0
 73
     3
  0
TEXT
  8
10
  6
CONTINUOUS
 62
   134
  5
24E
 10
911161.28
 20
7269860.121
 30
0.0
 40
13.999
  1
47
 50
358.2167
  7
ROMANS
 11
911161.715641
 21
7269874.11322
 31
0.0
210
0.0
220
0.0
230
1.0
 73
     3
  0
TEXT
  8
10
  6
CONTINUOUS
 62
   134
  5
24F
 10
911368.036
 20
7269853.684
 30
0.0
 40
13.999
  1
48
 50
358.2167
  7
ROMANS
 11
911368.471641
 21
7269867.67622
 31
0.0
210
0.0
220
0.0
230
1.0
 73
     3
  0
TEXT
  8
10
  6
CONTINUOUS
 62
   134
  5
250
 10
911569.828
 20
7269847.401
 30
0.0
 40
13.999
  1
49
 50
358.2167
  7
ROMANS
 11
911570.263641
 21
7269861.39322
 31
0.0
210
0.0
220
0.0
230
1.0
 73
     3
  0
TEXT
  8
10
  6
CONTINUOUS
 62
   134
  5
251
 10
911829.511
 20
7269839.317
 30
0.0
 40
13.999
  1
12
 50
358.2167
  7
ROMANS
 11
911829.946641
 21
7269853.30922
 31
0.0
210
0.0
220
0.0
230
1.0
 73
     3
  0
TEXT
  8
10
  6
CONTINUOUS
 62
   134
  5
252
 10
911827.456
 20
7270013.347
 30
0.0
 40
13.999
  1
11
 50
358.2167
  7
ROMANS
 11
911827.891641
 21
7270027.33922
 31
0.0
210
0.0
220
0.0
230
1.0
 73
     3
  0
TEXT
  8
10
  6
CONTINUOUS
 62
   134
  5
253
 10
911835.516
 20
7270203.632
 30
0.0
 40
13.999
  1
10
 50
358.2167
  7
ROMANS
 11
911835.951641
 21
7270217.62422
 31
0.0
210
0.0
220
0.0
230
1.0
 73
     3
  0
TEXT
  8
10
  6
CONTINUOUS
 62
   134
  5
254
 10
911846.93
 20
7270398.782
 30
0.0
 40
13.999
  1
9
 50
358.2167
  7
ROMANS
 11
911847.365641
 21
7270412.77422
 31
0.0
210
0.0
220
0.0
230
1.0
 73
     3
  0
TEXT
  8
10
  6
CONTINUOUS
 62
   134
  5
255
 10
911852.323
 20
7270572.012
 30
0.0
 40
13.999
  1
8
 50
358.2167
  7
ROMANS
 11
911852.758641
 21
7270586.00422
 31
0.0
210
0.0
220
0.0
230
1.0
 73
     3
  0
TEXT
  8
10
  6
CONTINUOUS
 62
   134
  5
256
 10
911857.013
 20
7270722.637
 30
0.0
 40
13.999
  1
7
 50
358.2167
  7
ROMANS
 11
911857.448641
 21
7270736.62922
 31
0.0
210
0.0
220
0.0
230
1.0
 73
     3
  0
TEXT
  8
10
  6
CONTINUOUS
 62
   134
  5
257
 10
911613.895
 20
7270730.207
 30
0.0
 40
13.999
  1
56
 50
358.2167
  7
ROMANS
 11
911614.330641
 21
7270744.19922
 31
0.0
210
0.0
220
0.0
230
1.0
 73
     3
  0
TEXT
  8
10
  6
CONTINUOUS
 62
   134
  5
258
 10
911620.248
 20
7270934.26
 30
0.0
 40
13.999
  1
57
 50
358.2167
  7
ROMANS
 11
911620.683641
 21
7270948.25222
 31
0.0
210
0.0
220
0.0
230
1.0
 73
     3
  0
TEXT
  8
10
  6
CONTINUOUS
 62
   134
  5
259
 10
911624.731
 20
7271078.265
 30
0.0
 40
13.999
  1
58
 50
358.2167
  7
ROMANS
 11
911625.166641
 21
7271092.25722
 31
0.0
210
0.0
220
0.0
230
1.0
 73
     3
  0
TEXT
  8
10
  6
CONTINUOUS
 62
   134
  5
25A
 10
911629.267
 20
7271223.926
 30
0.0
 40
13.999
  1
59
 50
358.2167
  7
ROMANS
 11
911629.702641
 21
7271237.91822
 31
0.0
210
0.0
220
0.0
230
1.0
 73
     3
  0
TEXT
  8
10
  6
CONTINUOUS
 62
   134
  5
25B
 10
911633.853
 20
7271371.241
 30
0.0
 40
13.999
  1
60
 50
358.2167
  7
ROMANS
 11
911634.288641
 21
7271385.23322
 31
0.0
210
0.0
220
0.0
230
1.0
 73
     3
  0
TEXT
  8
10
  6
CONTINUOUS
 62
   134
  5
25C
 10
911638.336
 20
7271515.245
 30
0.0
 40
13.999
  1
61
 50
358.2167
  7
ROMANS
 11
911638.771641
 21
7271529.23722
 31
0.0
210
0.0
220
0.0
230
1.0
 73
     3
  0
TEXT
  8
10
  6
CONTINUOUS
 62
   134
  5
25D
 10
911642.82
 20
7271659.249
 30
0.0
 40
13.999
  1
62
 50
358.2167
  7
ROMANS
 11
911643.255641
 21
7271673.24122
 31
0.0
210
0.0
220
0.0
230
1.0
 73
     3
  0
TEXT
  8
10
  6
CONTINUOUS
 62
   134
  5
25E
 10
911889.272
 20
7271651.576
 30
0.0
 40
13.999
  1
1
 50
358.2167
  7
ROMANS
 11
911889.707641
 21
7271665.56822
 31
0.0
210
0.0
220
0.0
230
1.0
 73
     3
  0
TEXT
  8
10
  6
CONTINUOUS
 62
   134
  5
25F
 10
911884.788
 20
7271507.573
 30
0.0
 40
13.999
  1
2
 50
358.2167
  7
ROMANS
 11
911885.223641
 21
7271521.56522
 31
0.0
210
0.0
220
0.0
230
1.0
 73
     3
  0
TEXT
  8
10
  6
CONTINUOUS
 62
   134
  5
260
 10
911880.253
 20
7271361.911
 30
0.0
 40
13.999
  1
3
 50
358.2167
  7
ROMANS
 11
911880.688641
 21
7271375.90322
 31
0.0
210
0.0
220
0.0
230
1.0
 73
     3
  0
TEXT
  8
10
  6
CONTINUOUS
 62
   134
  5
261
 10
911875.717
 20
7271216.252
 30
0.0
 40
13.999
  1
4
 50
358.2167
  7
ROMANS
 11
911876.152641
 21
7271230.24422
 31
0.0
210
0.0
220
0.0
230
1.0
 73
     3
  0
TEXT
  8
10
  6
CONTINUOUS
 62
   134
  5
262
 10
911871.132
 20
7271068.936
 30
0.0
 40
13.999
  1
5
 50
358.2167
  7
ROMANS
 11
911871.567641
 21
7271082.92822
 31
0.0
210
0.0
220
0.0
230
1.0
 73
     3
  0
TEXT
  8
10
  6
CONTINUOUS
 62
   134
  5
263
 10
911866.699
 20
7270926.588
 30
0.0
 40
13.999
  1
6
 50
358.2167
  7
ROMANS
 11
911867.134641
 21
7270940.58022
 31
0.0
210
0.0
220
0.0
230
1.0
 73
     3
  0
TEXT
  8
10
  6
CONTINUOUS
 62
   134
  5
264
 10
911553.726
 20
7270605.666
 30
0.0
 40
13.999
  1
55
 50
358.2167
  7
ROMANS
 11
911554.161641
 21
7270619.65822
 31
0.0
210
0.0
220
0.0
230
1.0
 73
     3
  0
TEXT
  8
10
  6
CONTINUOUS
 62
   134
  5
265
 10
911550.119
 20
7270489.8
 30
0.0
 40
13.999
  1
54
 50
358.2167
  7
ROMANS
 11
911550.554641
 21
7270503.79222
 31
0.0
210
0.0
220
0.0
230
1.0
 73
     3
  0
TEXT
  8
10
  6
CONTINUOUS
 62
   134
  5
266
 10
911546.666
 20
7270378.9
 30
0.0
 40
13.999
  1
53
 50
358.2167
  7
ROMANS
 11
911547.101641
 21
7270392.89222
 31
0.0
210
0.0
220
0.0
230
1.0
 73
     3
  0
TEXT
  8
10
  6
CONTINUOUS
 62
   134
  5
267
 10
911543.161
 20
7270266.346
 30
0.0
 40
13.999
  1
52
 50
358.2167
  7
ROMANS
 11
911543.596641
 21
7270280.33822
 31
0.0
210
0.0
220
0.0
230
1.0
 73
     3
  0
TEXT
  8
10
  6
CONTINUOUS
 62
   134
  5
268
 10
911539.399
 20
7270145.513
 30
0.0
 40
13.999
  1
51
 50
358.2167
  7
ROMANS
 11
911539.834641
 21
7270159.50522
 31
0.0
210
0.0
220
0.0
230
1.0
 73
     3
  0
TEXT
  8
10
  6
CONTINUOUS
 62
   134
  5
269
 10
911535.74
 20
7270027.992
 30
0.0
 40
13.999
  1
50
 50
358.2167
  7
ROMANS
 11
911536.175641
 21
7270041.98422
 31
0.0
210
0.0
220
0.0
230
1.0
 73
     3
  0
TEXT
  8
10
  6
CONTINUOUS
 62
   134
  5
26A
 10
911213.721
 20
7270046.027
 30
0.0
 40
13.999
  1
46
 50
358.2167
  7
ROMANS
 11
911214.156641
 21
7270060.01922
 31
0.0
210
0.0
220
0.0
230
1.0
 73
     3
  0
TEXT
  8
10
  6
CONTINUOUS
 62
   134
  5
26B
 10
911213.452
 20
7270157.318
 30
0.0
 40
13.999
  1
45
 50
358.2167
  7
ROMANS
 11
911213.887641
 21
7270171.31022
 31
0.0
210
0.0
220
0.0
230
1.0
 73
     3
  0
TEXT
  8
10
  6
CONTINUOUS
 62
   134
  5
26C
 10
911217.162
 20
7270276.495
 30
0.0
 40
13.999
  1
44
 50
358.2167
  7
ROMANS
 11
911217.597641
 21
7270290.48722
 31
0.0
210
0.0
220
0.0
230
1.0
 73
     3
  0
TEXT
  8
10
  6
CONTINUOUS
 62
   134
  5
26D
 10
911262.831
 20
7270405.962
 30
0.0
 40
13.999
  1
43
 50
358.2167
  7
ROMANS
 11
911263.266641
 21
7270419.95422
 31
0.0
210
0.0
220
0.0
230
1.0
 73
     3
  0
TEXT
  8
10
  6
CONTINUOUS
 62
   134
  5
26E
 10
911238.377
 20
7270580.692
 30
0.0
 40
13.999
  1
42
 50
358.2167
  7
ROMANS
 11
911238.812641
 21
7270594.68422
 31
0.0
210
0.0
220
0.0
230
1.0
 73
     3
  0
TEXT
  8
10
  6
CONTINUOUS
 62
   134
  5
26F
 10
910984.176
 20
7270552.154
 30
0.0
 40
13.999
  1
41
 50
358.2167
  7
ROMANS
 11
910984.611641
 21
7270566.14622
 31
0.0
210
0.0
220
0.0
230
1.0
 73
     3
  0
TEXT
  8
10
  6
CONTINUOUS
 62
   134
  5
270
 10
910802.232
 20
7270557.82
 30
0.0
 40
13.999
  1
40
 50
358.2167
  7
ROMANS
 11
910802.667641
 21
7270571.81222
 31
0.0
210
0.0
220
0.0
230
1.0
 73
     3
  0
TEXT
  8
10
  6
CONTINUOUS
 62
   134
  5
271
 10
910562.753
 20
7270629.892
 30
0.0
 40
13.999
  1
23
 50
358.2167
  7
ROMANS
 11
910563.188641
 21
7270643.88422
 31
0.0
210
0.0
220
0.0
230
1.0
 73
     3
  0
TEXT
  8
10
  6
CONTINUOUS
 62
   134
  5
272
 10
910558.682
 20
7270499.129
 30
0.0
 40
13.999
  1
24
 50
358.2167
  7
ROMANS
 11
910559.117641
 21
7270513.12122
 31
0.0
210
0.0
220
0.0
230
1.0
 73
     3
  0
TEXT
  8
10
  6
CONTINUOUS
 62
   134
  5
273
 10
915301.772
 20
7273565.407
 30
0.0
 40
13.999
  1
91-A
 50
88.2167
  7
ROMANS
 11
915287.77978
 21
7273565.842641
 31
0.0
210
0.0
220
0.0
230
1.0
 73
     3
  0
TEXT
  8
10
  6
CONTINUOUS
 62
   134
  5
274
 10
915282.311
 20
7273566.022
 30
0.0
 40
13.999
  1
91-B
 50
88.2167
  7
ROMANS
 11
915268.31878
 21
7273566.457641
 31
0.0
210
0.0
220
0.0
230
1.0
 73
     3
  0
LINE
  8
6
  6
CONTINUOUS
 62
     7
  5
275
 10
915593.054
 20
7269505.605
 30
0.0
 11
915588.338
 21
7269574.315
 31
0.0
  0
LINE
  8
6
  6
CONTINUOUS
 62
     7
  5
276
 10
912554.313
 20
7269155.144
 30
0.0
 11
912972.461
 21
7269142.124
 31
0.0
  0
TEXT
  8
10
  6
CONTINUOUS
 62
   134
  5
277
 10
913526.788
 20
7272899.586
 30
0.0
 40
13.999
  1
1
 50
358.2167
  7
ROMANS
 11
913527.223641
 21
7272913.57822
 31
0.0
210
0.0
220
0.0
230
1.0
 73
     3
  0
TEXT
  8
10
  6
CONTINUOUS
 62
   134
  5
278
 10
914526.151
 20
7272868.471
 30
0.0
 40
13.999
  1
2
 50
358.2167
  7
ROMANS
 11
914526.586641
 21
7272882.46322
 31
0.0
210
0.0
220
0.0
230
1.0
 73
     3
  0
TEXT
  8
10
  6
CONTINUOUS
 62
   134
  5
279
 10
911699.677
 20
7273121.391
 30
0.0
 40
13.999
  1
UNSUBDIVIDED
 50
358.2167
  7
ROMANS
 11
911700.112641
 21
7273135.38322
 31
0.0
210
0.0
220
0.0
230
1.0
 73
     3
  0
TEXT
  8
10
  6
CONTINUOUS
 62
   134
  5
27A
 10
914369.448
 20
7270435.981
 30
0.0
 40
13.999
  1
UNSUBDIVIDED
 50
358.2167
  7
ROMANS
 11
914369.883641
 21
7270449.97322
 31
0.0
210
0.0
220
0.0
230
1.0
 73
     3
  0
TEXT
  8
10
  6
CONTINUOUS
 62
   134
  5
27B
 10
911027.808
 20
7271194.073
 30
0.0
 40
13.999
  1
UNSUBDIVIDED
 50
358.2167
  7
ROMANS
 11
911028.243641
 21
7271208.06522
 31
0.0
210
0.0
220
0.0
230
1.0
 73
     3
  0
TEXT
  8
10
  6
CONTINUOUS
 62
   134
  5
27C
 10
912395.849
 20
7270469.596
 30
0.0
 40
13.999
  1
UNSUBDIVIDED
 50
358.2167
  7
ROMANS
 11
912396.284641
 21
7270483.58822
 31
0.0
210
0.0
220
0.0
230
1.0
 73
     3
  0
LINE
  8
6
  6
CONTINUOUS
 62
     7
  5
27D
 10
911035.466
 20
7270416.39
 30
0.0
 11
911077.151
 21
7270455.558
 31
0.0
  0
ARC
  8
6
  6
CONTINUOUS
 62
     7
  5
27E
 10
911131.876229
 20
7270465.804531
 30
0.0
 40
50.0
 50
267.237075
 51
179.396217
210
0.0
220
0.0
230
1.0
  0
LINE
  8
6
  6
CONTINUOUS
 62
     7
  5
27F
 10
911076.397
 20
7270372.277
 30
0.0
 11
911118.471
 21
7270411.811
 31
0.0
  0
ARC
  8
6
  6
CONTINUOUS
 62
     7
  5
280
 10
911128.743004
 20
7270400.880091
 30
0.0
 40
15.0
 50
87.237075
 51
133.2167
210
0.0
220
0.0
230
1.0
  0
ARC
  8
6
  6
CONTINUOUS
 62
     7
  5
281
 10
911066.879838
 20
7270466.48949
 30
0.0
 40
15.0
 50
313.2167
 51
359.396217
210
0.0
220
0.0
230
1.0
  0
TEXT
  8
11
  6
CONTINUOUS
 62
     7
  5
283
 10
915327.059
 20
7274212.469
 30
0.0
 40
8.0
  1
684.36'
 50
358.2167
  7
ROMANS
210
0.0
220
0.0
230
1.0
  0
TEXT
  8
11
  6
CONTINUOUS
 62
     7
  5
284
 10
914824.341
 20
7274229.233
 30
0.0
 40
8.0
  1
275'
 50
358.2167
  7
ROMANS
210
0.0
220
0.0
230
1.0
  0
TEXT
  8
11
  6
CONTINUOUS
 62
     7
  5
285
 10
914667.908
 20
7274234.103
 30
0.0
 40
8.0
  1
56'
 50
358.2167
  7
ROMANS
210
0.0
220
0.0
230
1.0
  0
TEXT
  8
11
  6
CONTINUOUS
 62
     7
  5
286
 10
914565.804
 20
7274236.17
 30
0.0
 40
8.0
  1
121.40'
 50
358.2167
  7
ROMANS
210
0.0
220
0.0
230
1.0
  0
TEXT
  8
11
  6
CONTINUOUS
 62
     7
  5
287
 10
914365.797
 20
7274263.59
 30
0.0
 40
8.0
  1
88.59'
 50
358.2167
  7
ROMANS
210
0.0
220
0.0
230
1.0
  0
TEXT
  8
11
  6
CONTINUOUS
 62
     7
  5
288
 10
914171.29
 20
7274269.746
 30
0.0
 40
8.0
  1
320'
 50
358.2167
  7
ROMANS
210
0.0
220
0.0
230
1.0
  0
TEXT
  8
11
  6
CONTINUOUS
 62
     7
  5
289
 10
913559.092
 20
7274288.859
 30
0.0
 40
8.0
  1
840.53'
 50
358.2167
  7
ROMANS
210
0.0
220
0.0
230
1.0
  0
TEXT
  8
11
  6
CONTINUOUS
 62
     7
  5
28A
 10
914469.909
 20
7273777.155
 30
0.0
 40
8.0
  1
310'
 50
358.2167
  7
ROMANS
210
0.0
220
0.0
230
1.0
  0
TEXT
  8
11
  6
CONTINUOUS
 62
     7
  5
28B
 10
914992.168
 20
7273759.783
 30
0.0
 40
8.0
  1
93.62'
 50
358.2167
  7
ROMANS
210
0.0
220
0.0
230
1.0
  0
TEXT
  8
11
  6
CONTINUOUS
 62
     7
  5
28C
 10
915033.344
 20
7272757.756
 30
0.0
 40
8.0
  1
2035.8'
 50
88.2167
  7
ROMANS
210
0.0
220
0.0
230
1.0
  0
TEXT
  8
11
  6
CONTINUOUS
 62
     7
  5
28D
 10
915721.046
 20
7274134.205
 30
0.0
 40
8.0
  1
80'
 50
358.2167
  7
ROMANS
210
0.0
220
0.0
230
1.0
  0
TEXT
  8
11
  6
CONTINUOUS
 62
     7
  5
28E
 10
914985.262
 20
7273995.504
 30
0.0
 40
8.0
  1
480'
 50
88.2167
  7
ROMANS
210
0.0
220
0.0
230
1.0
  0
TEXT
  8
11
  6
CONTINUOUS
 62
     7
  5
28F
 10
914342.098
 20
7274014.723
 30
0.0
 40
8.0
  1
500'
 50
88.2167
  7
ROMANS
210
0.0
220
0.0
230
1.0
  0
TEXT
  8
11
  6
CONTINUOUS
 62
     7
  5
290
 10
914023.113
 20
7273998.882
 30
0.0
 40
8.0
  1
500'
 50
88.2167
  7
ROMANS
210
0.0
220
0.0
230
1.0
  0
TEXT
  8
11
  6
CONTINUOUS
 62
     7
  5
291
 10
914305.812
 20
7273767.941
 30
0.0
 40
8.0
  1
630'
 50
358.2167
  7
ROMANS
210
0.0
220
0.0
230
1.0
  0
TEXT
  8
11
  6
CONTINUOUS
 62
     7
  5
292
 10
911852.463
 20
7274341.402
 30
0.0
 40
8.0
  1
2599.40'
 50
358.2167
  7
ROMANS
210
0.0
220
0.0
230
1.0
  0
TEXT
  8
11
  6
CONTINUOUS
 62
     7
  5
293
 10
914472.26
 20
7271731.741
 30
0.0
 40
8.0
  1
1064.62'
 50
358.2167
  7
ROMANS
210
0.0
220
0.0
230
1.0
  0
TEXT
  8
11
  6
CONTINUOUS
 62
     7
  5
294
 10
914361.032
 20
7271682.413
 30
0.0
 40
8.0
  1
2635.89'
 50
358.2167
  7
ROMANS
210
0.0
220
0.0
230
1.0
  0
TEXT
  8
11
  6
CONTINUOUS
 62
     7
  5
295
 10
913248.432
 20
7271739.906
 30
0.0
 40
8.0
  1
30'
 50
88.2167
  7
ROMANS
210
0.0
220
0.0
230
1.0
  0
TEXT
  8
11
  6
CONTINUOUS
 62
     7
  5
296
 10
915547.976
 20
7271676.388
 30
0.0
 40
8.0
  1
50'
 50
88.2167
  7
ROMANS
210
0.0
220
0.0
230
1.0
  0
TEXT
  8
11
  6
CONTINUOUS
 62
     7
  5
297
 10
914195.679
 20
7269125.957
 30
0.0
 40
7.999
  1
2213.31'
 50
358.2167
  7
ROMANS
210
0.0
220
0.0
230
1.0
  0
TEXT
  8
11
  6
CONTINUOUS
 62
     7
  5
298
 10
915116.004
 20
7269055.995
 30
0.0
 40
8.0
  1
55'
 50
88.2167
  7
ROMANS
210
0.0
220
0.0
230
1.0
  0
TEXT
  8
11
  6
CONTINUOUS
 62
     7
  5
299
 10
912823.896
 20
7269117.794
 30
0.0
 40
8.0
  1
40'
 50
88.2167
  7
ROMANS
210
0.0
220
0.0
230
1.0
  0
TEXT
  8
11
  6
CONTINUOUS
 62
     7
  5
29A
 10
915674.64
 20
7273862.437
 30
0.0
 40
8.0
  1
554.82'
 50
88.2167
  7
ROMANS
210
0.0
220
0.0
230
1.0
  0
TEXT
  8
11
  6
CONTINUOUS
 62
     7
  5
29B
 10
910440.366
 20
7270864.641
 30
0.0
 40
8.0
  1
347.60'
 50
88.2167
  7
ROMANS
210
0.0
220
0.0
230
1.0
  0
TEXT
  8
11
  6
CONTINUOUS
 62
     7
  5
29C
 10
910415.73
 20
7271169.445
 30
0.0
 40
8.0
  1
55'
 50
358.2167
  7
ROMANS
210
0.0
220
0.0
230
1.0
  0
TEXT
  8
11
  6
CONTINUOUS
 62
     7
  5
29D
 10
910396.751
 20
7270822.055
 30
0.0
 40
8.0
  1
40'
 50
358.2167
  7
ROMANS
210
0.0
220
0.0
230
1.0
  0
TEXT
  8
11
  6
CONTINUOUS
 62
     7
  5
29E
 10
911525.698
 20
7271167.397
 30
0.0
 40
8.0
  1
1190.50'
 50
88.2167
  7
ROMANS
210
0.0
220
0.0
230
1.0
  0
TEXT
  8
11
  6
CONTINUOUS
 62
     7
  5
29F
 10
911975.873
 20
7270470.222
 30
0.0
 40
8.0
  1
2598.81'
 50
88.2167
  7
ROMANS
210
0.0
220
0.0
230
1.0
  0
TEXT
  8
11
  6
CONTINUOUS
 62
     7
  5
2A0
 10
910952.798
 20
7270712.865
 30
0.0
 40
8.0
  1
1100.20'
 50
358.2167
  7
ROMANS
210
0.0
220
0.0
230
1.0
  0
TEXT
  8
11
  6
CONTINUOUS
 62
     7
  5
2A1
 10
912161.803
 20
7269169.952
 30
0.0
 40
8.0
  1
566.58'
 50
358.2167
  7
ROMANS
210
0.0
220
0.0
230
1.0
  0
TEXT
  8
11
  6
CONTINUOUS
 62
     7
  5
2A2
 10
912753.943
 20
7269150.383
 30
0.0
 40
8.0
  1
418.36'
 50
358.2167
  7
ROMANS
210
0.0
220
0.0
230
1.0
  0
TEXT
  8
11
  6
CONTINUOUS
 62
     7
  5
2A3
 10
913350.259
 20
7269107.872
 30
0.0
 40
8.0
  1
55'
 50
88.2167
  7
ROMANS
210
0.0
220
0.0
230
1.0
  0
TEXT
  8
11
  6
CONTINUOUS
 62
     7
  5
2A4
 10
911676.509
 20
7269158.585
 30
0.0
 40
8.0
  1
55'
 50
88.2167
  7
ROMANS
210
0.0
220
0.0
230
1.0
  0
TEXT
  8
11
  6
CONTINUOUS
 62
     7
  5
2A5
 10
910482.876
 20
7269205.384
 30
0.0
 40
8.0
  1
66'
 50
88.2167
  7
ROMANS
210
0.0
220
0.0
230
1.0
  0
TEXT
  8
11
  6
CONTINUOUS
 62
     7
  5
2A6
 10
910357.724
 20
7269354.65
 30
0.0
 40
8.0
  1
55'
 50
358.2167
  7
ROMANS
210
0.0
220
0.0
230
1.0
  0
TEXT
  8
11
  6
CONTINUOUS
 62
     7
  5
2A7
 10
910502.82
 20
7274204.621
 30
0.0
 40
8.0
  1
40'
 50
358.2167
  7
ROMANS
210
0.0
220
0.0
230
1.0
  0
TEXT
  8
11
  6
CONTINUOUS
 62
     7
  5
2A8
 10
910763.055
 20
7274414.177
 30
0.0
 40
8.0
  1
65'
 50
88.2167
  7
ROMANS
210
0.0
220
0.0
230
1.0
  0
TEXT
  8
11
  6
CONTINUOUS
 62
     7
  5
2A9
 10
915072.141
 20
7273635.549
 30
0.0
 40
8.0
  1
14.14'
 50
43.2167
  7
ROMANS
210
0.0
220
0.0
230
1.0
  0
TEXT
  8
11
  6
CONTINUOUS
 62
     7
  5
2AA
 10
910506.661
 20
7272888.643
 30
0.0
 40
8.0
  1
3107.88'
 50
88.2167
  7
ROMANS
210
0.0
220
0.0
230
1.0
  0
TEXT
  8
11
  6
CONTINUOUS
 62
     7
  5
2AB
 10
913082.807
 20
7273053.845
 30
0.0
 40
8.0
  1
2577.60'
 50
88.2167
  7
ROMANS
210
0.0
220
0.0
230
1.0
  0
TEXT
  8
11
  6
CONTINUOUS
 62
     7
  5
2AC
 10
913140.607
 20
7272889.276
 30
0.0
 40
8.0
  1
2517.60'
 50
88.2167
  7
ROMANS
210
0.0
220
0.0
230
1.0
  0
TEXT
  8
11
  6
CONTINUOUS
 62
     7
  5
2AD
 10
913967.665
 20
7272860.839
 30
0.0
 40
8.0
  1
2547.60'
 50
88.2167
  7
ROMANS
210
0.0
220
0.0
230
1.0
  0
TEXT
  8
11
  6
CONTINUOUS
 62
     7
  5
2AE
 10
915597.604
 20
7269815.943
 30
0.0
 40
8.0
  1
50'
 50
358.2167
  7
ROMANS
210
0.0
220
0.0
230
1.0
  0
TEXT
  8
11
  6
CONTINUOUS
 62
     7
  5
2AF
 10
915586.018
 20
7269397.519
 30
0.0
 40
8.0
  1
200'
 50
88.2167
  7
ROMANS
210
0.0
220
0.0
230
1.0
  0
TEXT
  8
11
  6
CONTINUOUS
 62
     7
  5
2B0
 10
915602.477
 20
7269083.149
 30
0.0
 40
8.0
  1
43.22'
 50
88.2167
  7
ROMANS
210
0.0
220
0.0
230
1.0
  0
TEXT
  8
11
  6
CONTINUOUS
 62
     7
  5
2B1
 10
915577.089
 20
7269768.697
 30
0.0
 40
8.0
  1
23.30'
 50
88.2167
  7
ROMANS
210
0.0
220
0.0
230
1.0
  0
TEXT
  8
11
  6
CONTINUOUS
 62
     7
  5
2B2
 10
915592.68
 20
7269682.701
 30
0.0
 40
8.0
  1
R=1251.97'
 50
88.2167
  7
ROMANS
210
0.0
220
0.0
230
1.0
  0
TEXT
  8
11
  6
CONTINUOUS
 62
     7
  5
2B3
 10
915603.675
 20
7269682.358
 30
0.0
 40
8.0
  1
CH=124.24'
 50
88.2167
  7
ROMANS
210
0.0
220
0.0
230
1.0
  0
TEXT
  8
11
  6
CONTINUOUS
 62
     7
  5
2B4
 10
915580.844
 20
7269597.842
 30
0.0
 40
8.0
  1
92.68'
 50
93.2167
  7
ROMANS
210
0.0
220
0.0
230
1.0
  0
TEXT
  8
11
  6
CONTINUOUS
 62
     7
  5
2B5
 10
915287.313
 20
7269586.852
 30
0.0
 40
8.0
  1
555.42'
 50
358.2167
  7
ROMANS
210
0.0
220
0.0
230
1.0
  0
TEXT
  8
11
  6
CONTINUOUS
 62
     7
  5
2B6
 10
915052.655
 20
7269699.398
 30
0.0
 40
8.0
  1
240'
 50
88.2167
  7
ROMANS
210
0.0
220
0.0
230
1.0
  0
TEXT
  8
11
  6
CONTINUOUS
 62
     7
  5
2B7
 10
915290.366
 20
7269809.751
 30
0.0
 40
8.0
  1
540'
 50
358.2167
  7
ROMANS
210
0.0
220
0.0
230
1.0
  0
TEXT
  8
11
  6
CONTINUOUS
 62
     7
  5
2B8
 10
915161.107
 20
7271774.567
 30
0.0
 40
8.0
  1
60'
 50
355.2167
  7
ROMANS
210
0.0
220
0.0
230
1.0
  0
TEXT
  8
11
  6
CONTINUOUS
 62
     7
  5
2B9
 10
914912.382
 20
7271687.309
 30
0.0
 40
8.0
  1
30'
 50
88.2167
  7
ROMANS
210
0.0
220
0.0
230
1.0
  0
TEXT
  8
11
  6
CONTINUOUS
 62
     7
  5
2BA
 10
915082.147
 20
7271716.0
 30
0.0
 40
8.0
  1
51.29'
 50
2.2167
  7
ROMANS
210
0.0
220
0.0
230
1.0
  0
TEXT
  8
11
  6
CONTINUOUS
 62
     7
  5
2BB
 10
915215.718
 20
7271720.741
 30
0.0
 40
8.0
  1
49.01'
 50
2.2167
  7
ROMANS
210
0.0
220
0.0
230
1.0
  0
TEXT
  8
11
  6
CONTINUOUS
 62
     7
  5
2BC
 10
915271.155
 20
7271723.446
 30
0.0
 40
8.0
  1
51.80'
 50
358.2167
  7
ROMANS
210
0.0
220
0.0
230
1.0
  0
TEXT
  8
11
  6
CONTINUOUS
 62
     7
  5
2BD
 10
915340.343
 20
7271721.293
 30
0.0
 40
8.0
  1
56'
 50
358.2167
  7
ROMANS
210
0.0
220
0.0
230
1.0
  0
TEXT
  8
11
  6
CONTINUOUS
 62
     7
  5
2BE
 10
915453.325
 20
7271717.776
 30
0.0
 40
8.0
  1
56'
 50
358.2167
  7
ROMANS
210
0.0
220
0.0
230
1.0
  0
TEXT
  8
11
  6
CONTINUOUS
 62
     7
  5
2BF
 10
915497.123
 20
7271716.411
 30
0.0
 40
8.0
  1
57.02'
 50
358.2167
  7
ROMANS
210
0.0
220
0.0
230
1.0
  0
TEXT
  8
11
  6
CONTINUOUS
 62
     7
  5
2C0
 10
915549.785
 20
7271714.136
 30
0.0
 40
8.0
  1
44.98'
 50
358.2167
  7
ROMANS
210
0.0
220
0.0
230
1.0
  0
TEXT
  8
11
  6
CONTINUOUS
 62
     7
  5
2C1
 10
915038.739
 20
7271871.839
 30
0.0
 40
8.0
  1
14.14'
 50
43.2167
  7
ROMANS
210
0.0
220
0.0
230
1.0
  0
TEXT
  8
11
  6
CONTINUOUS
 62
     7
  5
2C2
 10
915071.226
 20
7271869.795
 30
0.0
 40
8.0
  1
100.73'
 50
358.2167
  7
ROMANS
210
0.0
220
0.0
230
1.0
  0
TEXT
  8
11
  6
CONTINUOUS
 62
     7
  5
2C3
 10
915141.93
 20
7271885.426
 30
0.0
 40
8.0
  1
65'
 50
88.2167
  7
ROMANS
210
0.0
220
0.0
230
1.0
  0
TEXT
  8
11
  6
CONTINUOUS
 62
     7
  5
2C4
 10
915045.75
 20
7271898.252
 30
0.0
 40
8.0
  1
55'
 50
88.2167
  7
ROMANS
210
0.0
220
0.0
230
1.0
  0
TEXT
  8
11
  6
CONTINUOUS
 62
     7
  5
2C5
 10
915226.958
 20
7271865.601
 30
0.0
 40
8.0
  1
65'
 50
358.2167
  7
ROMANS
210
0.0
220
0.0
230
1.0
  0
TEXT
  8
11
  6
CONTINUOUS
 62
     7
  5
2C6
 10
915289.737
 20
7271967.843
 30
0.0
 40
8.0
  1
56'
 50
358.2167
  7
ROMANS
210
0.0
220
0.0
230
1.0
  0
TEXT
  8
11
  6
CONTINUOUS
 62
     7
  5
2C7
 10
915460.497
 20
7271962.527
 30
0.0
 40
8.0
  1
56'
 50
358.2167
  7
ROMANS
210
0.0
220
0.0
230
1.0
  0
TEXT
  8
11
  6
CONTINUOUS
 62
     7
  5
2C8
 10
915501.132
 20
7271858.375
 30
0.0
 40
8.0
  1
57.02'
 50
358.2167
  7
ROMANS
210
0.0
220
0.0
230
1.0
  0
TEXT
  8
11
  6
CONTINUOUS
 62
     7
  5
2C9
 10
915571.791
 20
7271856.175
 30
0.0
 40
8.0
  1
70'
 50
358.2167
  7
ROMANS
210
0.0
220
0.0
230
1.0
  0
TEXT
  8
11
  6
CONTINUOUS
 62
     7
  5
2CA
 10
915237.415
 20
7271970.127
 30
0.0
 40
8.0
  1
50'
 50
358.2167
  7
ROMANS
210
0.0
220
0.0
230
1.0
  0
TEXT
  8
11
  6
CONTINUOUS
 62
     7
  5
2CB
 10
915239.638
 20
7272041.487
 30
0.0
 40
8.0
  1
50'
 50
358.2167
  7
ROMANS
210
0.0
220
0.0
230
1.0
  0
TEXT
  8
11
  6
CONTINUOUS
 62
     7
  5
2CC
 10
915293.942
 20
7272039.796
 30
0.0
 40
8.0
  1
56'
 50
358.2167
  7
ROMANS
210
0.0
220
0.0
230
1.0
  0
TEXT
  8
11
  6
CONTINUOUS
 62
     7
  5
2CD
 10
915461.431
 20
7272034.583
 30
0.0
 40
8.0
  1
56'
 50
358.2167
  7
ROMANS
210
0.0
220
0.0
230
1.0
  0
TEXT
  8
11
  6
CONTINUOUS
 62
     7
  5
2CE
 10
915509.14
 20
7272136.639
 30
0.0
 40
8.0
  1
57.02'
 50
358.2167
  7
ROMANS
210
0.0
220
0.0
230
1.0
  0
TEXT
  8
11
  6
CONTINUOUS
 62
     7
  5
2CF
 10
915510.298
 20
7272173.852
 30
0.0
 40
8.0
  1
57.02'
 50
358.2167
  7
ROMANS
210
0.0
220
0.0
230
1.0
  0
TEXT
  8
11
  6
CONTINUOUS
 62
     7
  5
2D0
 10
915582.923
 20
7272171.591
 30
0.0
 40
8.0
  1
70'
 50
358.2167
  7
ROMANS
210
0.0
220
0.0
230
1.0
  0
TEXT
  8
11
  6
CONTINUOUS
 62
     7
  5
2D1
 10
915581.782
 20
7272134.928
 30
0.0
 40
8.0
  1
70'
 50
358.2167
  7
ROMANS
210
0.0
220
0.0
230
1.0
  0
TEXT
  8
11
  6
CONTINUOUS
 62
     7
  5
2D2
 10
915238.972
 20
7272146.256
 30
0.0
 40
8.0
  1
65'
 50
358.2167
  7
ROMANS
210
0.0
220
0.0
230
1.0
  0
TEXT
  8
11
  6
CONTINUOUS
 62
     7
  5
2D3
 10
915243.227
 20
7272282.877
 30
0.0
 40
8.0
  1
50'
 50
358.2167
  7
ROMANS
210
0.0
220
0.0
230
1.0
  0
TEXT
  8
11
  6
CONTINUOUS
 62
     7
  5
2D4
 10
915301.449
 20
7272281.064
 30
0.0
 40
8.0
  1
56'
 50
358.2167
  7
ROMANS
210
0.0
220
0.0
230
1.0
  0
TEXT
  8
11
  6
CONTINUOUS
 62
     7
  5
2D5
 10
915468.938
 20
7272275.849
 30
0.0
 40
8.0
  1
56'
 50
358.2167
  7
ROMANS
210
0.0
220
0.0
230
1.0
  0
TEXT
  8
11
  6
CONTINUOUS
 62
     7
  5
2D6
 10
915304.951
 20
7272349.764
 30
0.0
 40
8.0
  1
56'
 50
358.2167
  7
ROMANS
210
0.0
220
0.0
230
1.0
  0
TEXT
  8
11
  6
CONTINUOUS
 62
     7
  5
2D7
 10
915415.384
 20
7272277.428
 30
0.0
 40
8.0
  1
56'
 50
358.2167
  7
ROMANS
210
0.0
220
0.0
230
1.0
  0
TEXT
  8
11
  6
CONTINUOUS
 62
     7
  5
2D8
 10
915244.707
 20
7272351.641
 30
0.0
 40
8.0
  1
50'
 50
358.2167
  7
ROMANS
210
0.0
220
0.0
230
1.0
  0
TEXT
  8
11
  6
CONTINUOUS
 62
     7
  5
2D9
 10
915519.9
 20
7272438.974
 30
0.0
 40
8.0
  1
57.02'
 50
358.2167
  7
ROMANS
210
0.0
220
0.0
230
1.0
  0
TEXT
  8
11
  6
CONTINUOUS
 62
     7
  5
2DA
 10
915590.558
 20
7272436.775
 30
0.0
 40
8.0
  1
70'
 50
358.2167
  7
ROMANS
210
0.0
220
0.0
230
1.0
  0
TEXT
  8
11
  6
CONTINUOUS
 62
     7
  5
2DB
 10
915591.66
 20
7272472.128
 30
0.0
 40
8.0
  1
70'
 50
358.2167
  7
ROMANS
210
0.0
220
0.0
230
1.0
  0
TEXT
  8
11
  6
CONTINUOUS
 62
     7
  5
2DC
 10
915256.027
 20
7272577.27
 30
0.0
 40
8.0
  1
50'
 50
358.2167
  7
ROMANS
210
0.0
220
0.0
230
1.0
  0
TEXT
  8
11
  6
CONTINUOUS
 62
     7
  5
2DD
 10
915309.351
 20
7272575.609
 30
0.0
 40
8.0
  1
56'
 50
358.2167
  7
ROMANS
210
0.0
220
0.0
230
1.0
  0
TEXT
  8
11
  6
CONTINUOUS
 62
     7
  5
2DE
 10
915480.111
 20
7272570.294
 30
0.0
 40
8.0
  1
56'
 50
358.2167
  7
ROMANS
210
0.0
220
0.0
230
1.0
  0
TEXT
  8
11
  6
CONTINUOUS
 62
     7
  5
2DF
 10
915521.984
 20
7272568.99
 30
0.0
 40
8.0
  1
57.02'
 50
358.2167
  7
ROMANS
210
0.0
220
0.0
230
1.0
  0
TEXT
  8
11
  6
CONTINUOUS
 62
     7
  5
2E0
 10
915590.026
 20
7272566.871
 30
0.0
 40
8.0
  1
55'
 50
358.2167
  7
ROMANS
210
0.0
220
0.0
230
1.0
  0
TEXT
  8
11
  6
CONTINUOUS
 62
     7
  5
2E1
 10
915248.197
 20
7272483.476
 30
0.0
 40
8.0
  1
65'
 50
358.2167
  7
ROMANS
210
0.0
220
0.0
230
1.0
  0
TEXT
  8
11
  6
CONTINUOUS
 62
     7
  5
2E2
 10
915255.317
 20
7272649.051
 30
0.0
 40
8.0
  1
50'
 50
358.2167
  7
ROMANS
210
0.0
220
0.0
230
1.0
  0
TEXT
  8
11
  6
CONTINUOUS
 62
     7
  5
2E3
 10
915310.274
 20
7272647.34
 30
0.0
 40
8.0
  1
56'
 50
358.2167
  7
ROMANS
210
0.0
220
0.0
230
1.0
  0
TEXT
  8
11
  6
CONTINUOUS
 62
     7
  5
2E4
 10
915482.342
 20
7272641.982
 30
0.0
 40
8.0
  1
56'
 50
358.2167
  7
ROMANS
210
0.0
220
0.0
230
1.0
  0
TEXT
  8
11
  6
CONTINUOUS
 62
     7
  5
2E5
 10
915523.561
 20
7272640.7
 30
0.0
 40
8.0
  1
57.02'
 50
358.2167
  7
ROMANS
210
0.0
220
0.0
230
1.0
  0
TEXT
  8
11
  6
CONTINUOUS
 62
     7
  5
2E6
 10
915592.258
 20
7272638.56
 30
0.0
 40
8.0
  1
55'
 50
358.2167
  7
ROMANS
210
0.0
220
0.0
230
1.0
  0
TEXT
  8
11
  6
CONTINUOUS
 62
     7
  5
2E7
 10
915595.213
 20
7272733.49
 30
0.0
 40
8.0
  1
70'
 50
358.2167
  7
ROMANS
210
0.0
220
0.0
230
1.0
  0
TEXT
  8
11
  6
CONTINUOUS
 62
     7
  5
2E8
 10
915253.692
 20
7272744.123
 30
0.0
 40
8.0
  1
65'
 50
358.2167
  7
ROMANS
210
0.0
220
0.0
230
1.0
  0
TEXT
  8
11
  6
CONTINUOUS
 62
     7
  5
2E9
 10
915253.474
 20
7272779.04
 30
0.0
 40
8.0
  1
65'
 50
358.2167
  7
ROMANS
210
0.0
220
0.0
230
1.0
  0
TEXT
  8
11
  6
CONTINUOUS
 62
     7
  5
2EA
 10
915527.606
 20
7272770.506
 30
0.0
 40
8.0
  1
57.02'
 50
358.2167
  7
ROMANS
210
0.0
220
0.0
230
1.0
  0
TEXT
  8
11
  6
CONTINUOUS
 62
     7
  5
2EB
 10
915596.303
 20
7272768.366
 30
0.0
 40
8.0
  1
70'
 50
358.2167
  7
ROMANS
210
0.0
220
0.0
230
1.0
  0
TEXT
  8
11
  6
CONTINUOUS
 62
     7
  5
2EC
 10
915486.072
 20
7272866.82
 30
0.0
 40
8.0
  1
56'
 50
358.2167
  7
ROMANS
210
0.0
220
0.0
230
1.0
  0
TEXT
  8
11
  6
CONTINUOUS
 62
     7
  5
2ED
 10
915319.238
 20
7272872.014
 30
0.0
 40
8.0
  1
56'
 50
358.2167
  7
ROMANS
210
0.0
220
0.0
230
1.0
  0
TEXT
  8
11
  6
CONTINUOUS
 62
     7
  5
2EE
 10
915261.01
 20
7272873.827
 30
0.0
 40
8.0
  1
50'
 50
358.2167
  7
ROMANS
210
0.0
220
0.0
230
1.0
  0
TEXT
  8
11
  6
CONTINUOUS
 62
     7
  5
2EF
 10
915263.211
 20
7272944.533
 30
0.0
 40
8.0
  1
50'
 50
358.2167
  7
ROMANS
210
0.0
220
0.0
230
1.0
  0
TEXT
  8
11
  6
CONTINUOUS
 62
     7
  5
2F0
 10
915320.785
 20
7272942.74
 30
0.0
 40
8.0
  1
56'
 50
358.2167
  7
ROMANS
210
0.0
220
0.0
230
1.0
  0
TEXT
  8
11
  6
CONTINUOUS
 62
     7
  5
2F1
 10
915488.929
 20
7272937.505
 30
0.0
 40
8.0
  1
56'
 50
358.2167
  7
ROMANS
210
0.0
220
0.0
230
1.0
  0
TEXT
  8
11
  6
CONTINUOUS
 62
     7
  5
2F2
 10
915535.064
 20
7273031.091
 30
0.0
 40
8.0
  1
57.02'
 50
358.2167
  7
ROMANS
210
0.0
220
0.0
230
1.0
  0
TEXT
  8
11
  6
CONTINUOUS
 62
     7
  5
2F3
 10
915603.761
 20
7273028.953
 30
0.0
 40
8.0
  1
70'
 50
358.2167
  7
ROMANS
210
0.0
220
0.0
230
1.0
  0
TEXT
  8
11
  6
CONTINUOUS
 62
     7
  5
2F4
 10
915262.241
 20
7273039.585
 30
0.0
 40
8.0
  1
65'
 50
358.2167
  7
ROMANS
210
0.0
220
0.0
230
1.0
  0
TEXT
  8
11
  6
CONTINUOUS
 62
     7
  5
2F5
 10
915263.342
 20
7273074.938
 30
0.0
 40
8.0
  1
65'
 50
358.2167
  7
ROMANS
210
0.0
220
0.0
230
1.0
  0
TEXT
  8
11
  6
CONTINUOUS
 62
     7
  5
2F6
 10
915536.16
 20
7273066.444
 30
0.0
 40
8.0
  1
57.02'
 50
358.2167
  7
ROMANS
210
0.0
220
0.0
230
1.0
  0
TEXT
  8
11
  6
CONTINUOUS
 62
     7
  5
2F7
 10
915605.511
 20
7273064.285
 30
0.0
 40
8.0
  1
70'
 50
358.2167
  7
ROMANS
210
0.0
220
0.0
230
1.0
  0
TEXT
  8
11
  6
CONTINUOUS
 62
     7
  5
2F8
 10
915495.948
 20
7273163.128
 30
0.0
 40
8.0
  1
56'
 50
358.2167
  7
ROMANS
210
0.0
220
0.0
230
1.0
  0
TEXT
  8
11
  6
CONTINUOUS
 62
     7
  5
2F9
 10
915327.806
 20
7273168.363
 30
0.0
 40
8.0
  1
56'
 50
358.2167
  7
ROMANS
210
0.0
220
0.0
230
1.0
  0
TEXT
  8
11
  6
CONTINUOUS
 62
     7
  5
2FA
 10
915270.884
 20
7273170.134
 30
0.0
 40
8.0
  1
50'
 50
358.2167
  7
ROMANS
210
0.0
220
0.0
230
1.0
  0
TEXT
  8
11
  6
CONTINUOUS
 62
     7
  5
2FB
 10
915273.087
 20
7273240.841
 30
0.0
 40
8.0
  1
50'
 50
358.2167
  7
ROMANS
210
0.0
220
0.0
230
1.0
  0
TEXT
  8
11
  6
CONTINUOUS
 62
     7
  5
2FC
 10
915330.661
 20
7273239.048
 30
0.0
 40
8.0
  1
56'
 50
358.2167
  7
ROMANS
210
0.0
220
0.0
230
1.0
  0
TEXT
  8
11
  6
CONTINUOUS
 62
     7
  5
2FD
 10
915498.15
 20
7273233.833
 30
0.0
 40
8.0
  1
56'
 50
358.2167
  7
ROMANS
210
0.0
220
0.0
230
1.0
  0
TEXT
  8
11
  6
CONTINUOUS
 62
     7
  5
2FE
 10
915612.308
 20
7273324.645
 30
0.0
 40
8.0
  1
70'
 50
358.2167
  7
ROMANS
210
0.0
220
0.0
230
1.0
  0
TEXT
  8
11
  6
CONTINUOUS
 62
     7
  5
2FF
 10
915545.574
 20
7273326.723
 30
0.0
 40
8.0
  1
57.02'
 50
358.2167
  7
ROMANS
210
0.0
220
0.0
230
1.0
  0
TEXT
  8
11
  6
CONTINUOUS
 62
     7
  5
300
 10
915272.097
 20
7273335.238
 30
0.0
 40
8.0
  1
65'
 50
358.2167
  7
ROMANS
210
0.0
220
0.0
230
1.0
  0
TEXT
  8
11
  6
CONTINUOUS
 62
     7
  5
301
 10
915273.207
 20
7273370.886
 30
0.0
 40
8.0
  1
65'
 50
358.2167
  7
ROMANS
210
0.0
220
0.0
230
1.0
  0
TEXT
  8
11
  6
CONTINUOUS
 62
     7
  5
302
 10
915610.776
 20
7273360.376
 30
0.0
 40
8.0
  1
70'
 50
358.2167
  7
ROMANS
210
0.0
220
0.0
230
1.0
  0
TEXT
  8
11
  6
CONTINUOUS
 62
     7
  5
303
 10
915613.712
 20
7273454.652
 30
0.0
 40
8.0
  1
55'
 50
358.2167
  7
ROMANS
210
0.0
220
0.0
230
1.0
  0
TEXT
  8
11
  6
CONTINUOUS
 62
     7
  5
304
 10
915548.941
 20
7273456.668
 30
0.0
 40
8.0
  1
57.02'
 50
358.2167
  7
ROMANS
210
0.0
220
0.0
230
1.0
  0
TEXT
  8
11
  6
CONTINUOUS
 62
     7
  5
305
 10
915504.452
 20
7273458.053
 30
0.0
 40
8.0
  1
56'
 50
358.2167
  7
ROMANS
210
0.0
220
0.0
230
1.0
  0
TEXT
  8
11
  6
CONTINUOUS
 62
     7
  5
306
 10
915336.963
 20
7273463.268
 30
0.0
 40
8.0
  1
56'
 50
358.2167
  7
ROMANS
210
0.0
220
0.0
230
1.0
  0
TEXT
  8
11
  6
CONTINUOUS
 62
     7
  5
307
 10
915282.006
 20
7273464.979
 30
0.0
 40
8.0
  1
50'
 50
358.2167
  7
ROMANS
210
0.0
220
0.0
230
1.0
  0
TEXT
  8
11
  6
CONTINUOUS
 62
     7
  5
308
 10
915262.6
 20
7273541.252
 30
0.0
 40
4.0
  1
17.52'
 50
358.2167
  7
ROMANS
210
0.0
220
0.0
230
1.0
  0
TEXT
  8
11
  6
CONTINUOUS
 62
     7
  5
309
 10
915200.573
 20
7273638.161
 30
0.0
 40
8.0
  1
81.79'
 50
358.2167
  7
ROMANS
210
0.0
220
0.0
230
1.0
  0
TEXT
  8
11
  6
CONTINUOUS
 62
     7
  5
30A
 10
915118.422
 20
7273640.719
 30
0.0
 40
7.999
  1
82.18'
 50
358.2167
  7
ROMANS
210
0.0
220
0.0
230
1.0
  0
TEXT
  8
11
  6
CONTINUOUS
 62
     7
  5
30B
 10
915095.804
 20
7273583.846
 30
0.0
 40
8.0
  1
73.82'
 50
88.2167
  7
ROMANS
210
0.0
220
0.0
230
1.0
  0
TEXT
  8
11
  6
CONTINUOUS
 62
     7
  5
30C
 10
915092.684
 20
7273503.514
 30
0.0
 40
8.0
  1
86.71'
 50
88.2167
  7
ROMANS
210
0.0
220
0.0
230
1.0
  0
TEXT
  8
11
  6
CONTINUOUS
 62
     7
  5
30D
 10
915090.052
 20
7273456.322
 30
0.0
 40
4.999
  1
28.50'
 50
88.2167
  7
ROMANS
210
0.0
220
0.0
230
1.0
  0
TEXT
  8
11
  6
CONTINUOUS
 62
     7
  5
30E
 10
915188.806
 20
7273423.879
 30
0.0
 40
4.999
  1
28.50'
 50
88.2167
  7
ROMANS
210
0.0
220
0.0
230
1.0
  0
TEXT
  8
11
  6
CONTINUOUS
 62
     7
  5
30F
 10
915190.485
 20
7273451.392
 30
0.0
 40
4.999
  1
12.50'
 50
88.2167
  7
ROMANS
210
0.0
220
0.0
230
1.0
  0
TEXT
  8
11
  6
CONTINUOUS
 62
     7
  5
310
 10
915187.196
 20
7273387.046
 30
0.0
 40
8.0
  1
56'
 50
88.2167
  7
ROMANS
210
0.0
220
0.0
230
1.0
  0
TEXT
  8
11
  6
CONTINUOUS
 62
     7
  5
311
 10
915183.714
 20
7273275.173
 30
0.0
 40
8.0
  1
56'
 50
88.2167
  7
ROMANS
210
0.0
220
0.0
230
1.0
  0
TEXT
  8
11
  6
CONTINUOUS
 62
     7
  5
312
 10
915180.25
 20
7273163.917
 30
0.0
 40
8.0
  1
56'
 50
88.2167
  7
ROMANS
210
0.0
220
0.0
230
1.0
  0
TEXT
  8
11
  6
CONTINUOUS
 62
     7
  5
313
 10
915176.786
 20
7273052.662
 30
0.0
 40
8.0
  1
56'
 50
88.2167
  7
ROMANS
210
0.0
220
0.0
230
1.0
  0
TEXT
  8
11
  6
CONTINUOUS
 62
     7
  5
314
 10
915172.809
 20
7272944.699
 30
0.0
 40
8.0
  1
56'
 50
88.2167
  7
ROMANS
210
0.0
220
0.0
230
1.0
  0
TEXT
  8
11
  6
CONTINUOUS
 62
     7
  5
315
 10
915174.54
 20
7273000.327
 30
0.0
 40
8.0
  1
55'
 50
88.2167
  7
ROMANS
210
0.0
220
0.0
230
1.0
  0
TEXT
  8
11
  6
CONTINUOUS
 62
     7
  5
316
 10
915177.928
 20
7273109.111
 30
0.0
 40
8.0
  1
55'
 50
88.2167
  7
ROMANS
210
0.0
220
0.0
230
1.0
  0
TEXT
  8
11
  6
CONTINUOUS
 62
     7
  5
317
 10
915181.392
 20
7273220.367
 30
0.0
 40
8.0
  1
55'
 50
88.2167
  7
ROMANS
210
0.0
220
0.0
230
1.0
  0
TEXT
  8
11
  6
CONTINUOUS
 62
     7
  5
318
 10
915184.873
 20
7273332.165
 30
0.0
 40
8.0
  1
55'
 50
88.2167
  7
ROMANS
210
0.0
220
0.0
230
1.0
  0
TEXT
  8
11
  6
CONTINUOUS
 62
     7
  5
319
 10
915171.019
 20
7272887.728
 30
0.0
 40
8.0
  1
55'
 50
88.2167
  7
ROMANS
210
0.0
220
0.0
230
1.0
  0
TEXT
  8
11
  6
CONTINUOUS
 62
     7
  5
31A
 10
915164.092
 20
7272665.217
 30
0.0
 40
8.0
  1
55'
 50
88.2167
  7
ROMANS
210
0.0
220
0.0
230
1.0
  0
TEXT
  8
11
  6
CONTINUOUS
 62
     7
  5
31B
 10
915162.283
 20
7272607.118
 30
0.0
 40
8.0
  1
50'
 50
88.2167
  7
ROMANS
210
0.0
220
0.0
230
1.0
  0
TEXT
  8
11
  6
CONTINUOUS
 62
     7
  5
31C
 10
915157.679
 20
7272459.25
 30
0.0
 40
8.0
  1
50'
 50
88.2167
  7
ROMANS
210
0.0
220
0.0
230
1.0
  0
TEXT
  8
11
  6
CONTINUOUS
 62
     7
  5
31D
 10
915156.023
 20
7272406.094
 30
0.0
 40
8.0
  1
55'
 50
88.2167
  7
ROMANS
210
0.0
220
0.0
230
1.0
  0
TEXT
  8
11
  6
CONTINUOUS
 62
     7
  5
31E
 10
915150.79
 20
7272237.975
 30
0.0
 40
8.0
  1
55'
 50
88.2167
  7
ROMANS
210
0.0
220
0.0
230
1.0
  0
TEXT
  8
11
  6
CONTINUOUS
 62
     7
  5
31F
 10
915149.193
 20
7272186.674
 30
0.0
 40
8.0
  1
50'
 50
88.2167
  7
ROMANS
210
0.0
220
0.0
230
1.0
  0
TEXT
  8
11
  6
CONTINUOUS
 62
     7
  5
320
 10
915141.51
 20
7271939.917
 30
0.0
 40
8.0
  1
50'
 50
88.2167
  7
ROMANS
210
0.0
220
0.0
230
1.0
  0
TEXT
  8
11
  6
CONTINUOUS
 62
     7
  5
321
 10
915137.126
 20
7271758.779
 30
0.0
 40
8.0
  1
115.63'
 50
88.2167
  7
ROMANS
210
0.0
220
0.0
230
1.0
  0
TEXT
  8
11
  6
CONTINUOUS
 62
     7
  5
322
 10
915071.653
 20
7271760.817
 30
0.0
 40
8.0
  1
134.47'
 50
88.2167
  7
ROMANS
210
0.0
220
0.0
230
1.0
  0
TEXT
  8
11
  6
CONTINUOUS
 62
     7
  5
323
 10
915020.727
 20
7271762.402
 30
0.0
 40
8.0
  1
139.47'
 50
88.2167
  7
ROMANS
210
0.0
220
0.0
230
1.0
  0
TEXT
  8
11
  6
CONTINUOUS
 62
     7
  5
324
 10
915021.682
 20
7271836.035
 30
0.0
 40
8.0
  1
65.75'
 50
358.2167
  7
ROMANS
210
0.0
220
0.0
230
1.0
  0
TEXT
  8
11
  6
CONTINUOUS
 62
     7
  5
325
 10
915101.155
 20
7271833.561
 30
0.0
 40
8.0
  1
65'
 50
358.2167
  7
ROMANS
210
0.0
220
0.0
230
1.0
  0
TEXT
  8
11
  6
CONTINUOUS
 62
     7
  5
326
 10
911625.757
 20
7271731.414
 30
0.0
 40
8.0
  1
164.63'
 50
358.2167
  7
ROMANS
210
0.0
220
0.0
230
1.0
  0
TEXT
  8
11
  6
CONTINUOUS
 62
     7
  5
327
 10
911865.887
 20
7271723.939
 30
0.0
 40
8.0
  1
164.64'
 50
358.2167
  7
ROMANS
210
0.0
220
0.0
230
1.0
  0
TEXT
  8
11
  6
CONTINUOUS
 62
     7
  5
328
 10
911861.86
 20
7271594.55
 30
0.0
 40
8.0
  1
179.64'
 50
358.2167
  7
ROMANS
210
0.0
220
0.0
230
1.0
  0
TEXT
  8
11
  6
CONTINUOUS
 62
     7
  5
329
 10
911624.367
 20
7271601.944
 30
0.0
 40
8.0
  1
179.63'
 50
358.2167
  7
ROMANS
210
0.0
220
0.0
230
1.0
  0
TEXT
  8
11
  6
CONTINUOUS
 62
     7
  5
32A
 10
911605.705
 20
7271002.534
 30
0.0
 40
8.0
  1
179.63'
 50
358.2167
  7
ROMANS
210
0.0
220
0.0
230
1.0
  0
TEXT
  8
11
  6
CONTINUOUS
 62
     7
  5
32B
 10
911601.676
 20
7270873.146
 30
0.0
 40
8.0
  1
164.63'
 50
358.2167
  7
ROMANS
210
0.0
220
0.0
230
1.0
  0
TEXT
  8
11
  6
CONTINUOUS
 62
     7
  5
32C
 10
911841.808
 20
7270865.67
 30
0.0
 40
8.0
  1
164.64'
 50
358.2167
  7
ROMANS
210
0.0
220
0.0
230
1.0
  0
TEXT
  8
11
  6
CONTINUOUS
 62
     7
  5
32D
 10
911845.836
 20
7270995.058
 30
0.0
 40
8.0
  1
179.64'
 50
358.2167
  7
ROMANS
210
0.0
220
0.0
230
1.0
  0
TEXT
  8
11
  6
CONTINUOUS
 62
     7
  5
32E
 10
911572.947
 20
7271644.587
 30
0.0
 40
8.0
  1
148.50'
 50
88.2167
  7
ROMANS
210
0.0
220
0.0
230
1.0
  0
TEXT
  8
11
  6
CONTINUOUS
 62
     7
  5
32F
 10
911975.366
 20
7271632.059
 30
0.0
 40
8.0
  1
148.50'
 50
88.2167
  7
ROMANS
210
0.0
220
0.0
230
1.0
  0
TEXT
  8
11
  6
CONTINUOUS
 62
     7
  5
330
 10
911735.233
 20
7271639.535
 30
0.0
 40
8.0
  1
133.50'
 50
88.2167
  7
ROMANS
210
0.0
220
0.0
230
1.0
  0
TEXT
  8
11
  6
CONTINUOUS
 62
     7
  5
331
 10
911814.398
 20
7271637.07
 30
0.0
 40
8.0
  1
133.50'
 50
88.2167
  7
ROMANS
210
0.0
220
0.0
230
1.0
  0
TEXT
  8
11
  6
CONTINUOUS
 62
     7
  5
332
 10
911810.287
 20
7271505.042
 30
0.0
 40
8.0
  1
145'
 50
88.2167
  7
ROMANS
210
0.0
220
0.0
230
1.0
  0
TEXT
  8
11
  6
CONTINUOUS
 62
     7
  5
333
 10
911731.123
 20
7271507.507
 30
0.0
 40
8.0
  1
145'
 50
88.2167
  7
ROMANS
210
0.0
220
0.0
230
1.0
  0
TEXT
  8
11
  6
CONTINUOUS
 62
     7
  5
334
 10
911717.352
 20
7271065.21
 30
0.0
 40
8.0
  1
145'
 50
88.2167
  7
ROMANS
210
0.0
220
0.0
230
1.0
  0
TEXT
  8
11
  6
CONTINUOUS
 62
     7
  5
335
 10
911796.517
 20
7271062.746
 30
0.0
 40
8.0
  1
145'
 50
88.2167
  7
ROMANS
210
0.0
220
0.0
230
1.0
  0
TEXT
  8
11
  6
CONTINUOUS
 62
     7
  5
336
 10
911595.478
 20
7270796.546
 30
0.0
 40
8.0
  1
164.63'
 50
358.2167
  7
ROMANS
210
0.0
220
0.0
230
1.0
  0
TEXT
  8
11
  6
CONTINUOUS
 62
     7
  5
337
 10
911591.902
 20
7270681.681
 30
0.0
 40
8.0
  1
179.63'
 50
358.2167
  7
ROMANS
210
0.0
220
0.0
230
1.0
  0
TEXT
  8
11
  6
CONTINUOUS
 62
     7
  5
338
 10
911838.631
 20
7270673.999
 30
0.0
 40
8.0
  1
179.64'
 50
358.2167
  7
ROMANS
210
0.0
220
0.0
230
1.0
  0
TEXT
  8
11
  6
CONTINUOUS
 62
     7
  5
339
 10
911842.208
 20
7270788.865
 30
0.0
 40
8.0
  1
164.64'
 50
358.2167
  7
ROMANS
210
0.0
220
0.0
230
1.0
  0
TEXT
  8
11
  6
CONTINUOUS
 62
     7
  5
33A
 10
911815.169
 20
7269920.409
 30
0.0
 40
8.0
  1
179.64'
 50
358.2167
  7
ROMANS
210
0.0
220
0.0
230
1.0
  0
TEXT
  8
11
  6
CONTINUOUS
 62
     7
  5
33B
 10
911809.784
 20
7269747.451
 30
0.0
 40
8.0
  1
164.64'
 50
358.2167
  7
ROMANS
210
0.0
220
0.0
230
1.0
  0
TEXT
  8
11
  6
CONTINUOUS
 62
     7
  5
33C
 10
911702.597
 20
7270714.048
 30
0.0
 40
8.0
  1
118.50'
 50
88.2167
  7
ROMANS
210
0.0
220
0.0
230
1.0
  0
TEXT
  8
11
  6
CONTINUOUS
 62
     7
  5
33D
 10
911787.039
 20
7270711.419
 30
0.0
 40
8.0
  1
118.50'
 50
88.2167
  7
ROMANS
210
0.0
220
0.0
230
1.0
  0
TEXT
  8
11
  6
CONTINUOUS
 62
     7
  5
33E
 10
911945.367
 20
7270706.49
 30
0.0
 40
8.0
  1
133.50'
 50
88.2167
  7
ROMANS
210
0.0
220
0.0
230
1.0
  0
TEXT
  8
11
  6
CONTINUOUS
 62
     7
  5
33F
 10
911545.588
 20
7270718.936
 30
0.0
 40
8.0
  1
133.50'
 50
88.2167
  7
ROMANS
210
0.0
220
0.0
230
1.0
  0
TEXT
  8
11
  6
CONTINUOUS
 62
     7
  5
340
 10
911758.398
 20
7269834.22
 30
0.0
 40
8.0
  1
175'
 50
88.2167
  7
ROMANS
210
0.0
220
0.0
230
1.0
  0
TEXT
  8
11
  6
CONTINUOUS
 62
     7
  5
341
 10
911918.046
 20
7269829.249
 30
0.0
 40
8.0
  1
190'
 50
88.2167
  7
ROMANS
210
0.0
220
0.0
230
1.0
  0
TEXT
  8
11
  6
CONTINUOUS
 62
     7
  5
342
 10
911762.793
 20
7270017.781
 30
0.0
 40
8.0
  1
190'
 50
88.2167
  7
ROMANS
210
0.0
220
0.0
230
1.0
  0
TEXT
  8
11
  6
CONTINUOUS
 62
     7
  5
343
 10
911774.528
 20
7270394.688
 30
0.0
 40
8.0
  1
190'
 50
88.2167
  7
ROMANS
210
0.0
220
0.0
230
1.0
  0
TEXT
  8
11
  6
CONTINUOUS
 62
     7
  5
344
 10
911779.666
 20
7270559.723
 30
0.0
 40
8.0
  1
164.75'
 50
88.2167
  7
ROMANS
210
0.0
220
0.0
230
1.0
  0
TEXT
  8
11
  6
CONTINUOUS
 62
     7
  5
345
 10
911543.754
 20
7270664.789
 30
0.0
 40
8.0
  1
288.25'
 50
358.2167
  7
ROMANS
210
0.0
220
0.0
230
1.0
  0
TEXT
  8
11
  6
CONTINUOUS
 62
     7
  5
346
 10
911540.096
 20
7270547.284
 30
0.0
 40
8.0
  1
298.25'
 50
358.2167
  7
ROMANS
210
0.0
220
0.0
230
1.0
  0
TEXT
  8
11
  6
CONTINUOUS
 62
     7
  5
347
 10
911525.832
 20
7270089.146
 30
0.0
 40
8.0
  1
298.25'
 50
358.2167
  7
ROMANS
210
0.0
220
0.0
230
1.0
  0
TEXT
  8
11
  6
CONTINUOUS
 62
     7
  5
348
 10
911522.831
 20
7269992.764
 30
0.0
 40
8.0
  1
288.25'
 50
358.2167
  7
ROMANS
210
0.0
220
0.0
230
1.0
  0
TEXT
  8
11
  6
CONTINUOUS
 62
     7
  5
349
 10
911405.895
 20
7270000.07
 30
0.0
 40
8.0
  1
14.14'
 50
43.2167
  7
ROMANS
210
0.0
220
0.0
230
1.0
  0
TEXT
  8
11
  6
CONTINUOUS
 62
     7
  5
34A
 10
911324.201
 20
7270030.366
 30
0.0
 40
8.0
  1
14.14'
 50
313.2167
  7
ROMANS
210
0.0
220
0.0
230
1.0
  0
TEXT
  8
11
  6
CONTINUOUS
 62
     7
  5
34B
 10
911702.994
 20
7270601.757
 30
0.0
 40
8.0
  1
115'
 50
88.2167
  7
ROMANS
210
0.0
220
0.0
230
1.0
  0
TEXT
  8
11
  6
CONTINUOUS
 62
     7
  5
34C
 10
911685.031
 20
7270024.793
 30
0.0
 40
8.0
  1
115'
 50
88.2167
  7
ROMANS
210
0.0
220
0.0
230
1.0
  0
TEXT
  8
11
  6
CONTINUOUS
 62
     7
  5
34D
 10
911405.522
 20
7270040.103
 30
0.0
 40
8.0
  1
105'
 50
88.2167
  7
ROMANS
210
0.0
220
0.0
230
1.0
  0
TEXT
  8
11
  6
CONTINUOUS
 62
     7
  5
34E
 10
911197.288
 20
7270004.277
 30
0.0
 40
8.0
  1
288.33'
 50
358.2167
  7
ROMANS
210
0.0
220
0.0
230
1.0
  0
TEXT
  8
11
  6
CONTINUOUS
 62
     7
  5
34F
 10
911202.886
 20
7270099.255
 30
0.0
 40
8.0
  1
298.33'
 50
358.2167
  7
ROMANS
210
0.0
220
0.0
230
1.0
  0
TEXT
  8
11
  6
CONTINUOUS
 62
     7
  5
350
 10
911206.544
 20
7270216.761
 30
0.0
 40
8.0
  1
298.33'
 50
358.2167
  7
ROMANS
210
0.0
220
0.0
230
1.0
  0
TEXT
  8
11
  6
CONTINUOUS
 62
     7
  5
351
 10
911210.08
 20
7270330.305
 30
0.0
 40
8.0
  1
314.05'
 50
358.2167
  7
ROMANS
210
0.0
220
0.0
230
1.0
  0
TEXT
  8
11
  6
CONTINUOUS
 62
     7
  5
352
 10
911255.709
 20
7270480.866
 30
0.0
 40
7.999
  1
219.80'
 50
358.2167
  7
ROMANS
210
0.0
220
0.0
230
1.0
  0
TEXT
  8
11
  6
CONTINUOUS
 62
     7
  5
353
 10
911240.6
 20
7270674.284
 30
0.0
 40
8.0
  1
290'
 50
358.2167
  7
ROMANS
210
0.0
220
0.0
230
1.0
  0
TEXT
  8
11
  6
CONTINUOUS
 62
     7
  5
354
 10
911379.931
 20
7270565.616
 30
0.0
 40
8.0
  1
181.47'
 50
88.2167
  7
ROMANS
210
0.0
220
0.0
230
1.0
  0
TEXT
  8
11
  6
CONTINUOUS
 62
     7
  5
355
 10
911374.381
 20
7270387.379
 30
0.0
 40
8.0
  1
153.53'
 50
88.2167
  7
ROMANS
210
0.0
220
0.0
230
1.0
  0
TEXT
  8
11
  6
CONTINUOUS
 62
     7
  5
356
 10
911370.517
 20
7270263.271
 30
0.0
 40
8.0
  1
115'
 50
88.2167
  7
ROMANS
210
0.0
220
0.0
230
1.0
  0
TEXT
  8
11
  6
CONTINUOUS
 62
     7
  5
357
 10
911363.611
 20
7270041.464
 30
0.0
 40
8.0
  1
105'
 50
88.2167
  7
ROMANS
210
0.0
220
0.0
230
1.0
  0
TEXT
  8
11
  6
CONTINUOUS
 62
     7
  5
358
 10
911087.855
 20
7270050.049
 30
0.0
 40
8.0
  1
115'
 50
88.2167
  7
ROMANS
210
0.0
220
0.0
230
1.0
  0
TEXT
  8
11
  6
CONTINUOUS
 62
     7
  5
359
 10
911091.226
 20
7270158.312
 30
0.0
 40
8.0
  1
115'
 50
88.2167
  7
ROMANS
210
0.0
220
0.0
230
1.0
  0
TEXT
  8
11
  6
CONTINUOUS
 62
     7
  5
35A
 10
911094.596
 20
7270266.575
 30
0.0
 40
8.0
  1
80'
 50
88.2167
  7
ROMANS
210
0.0
220
0.0
230
1.0
  0
TEXT
  8
11
  6
CONTINUOUS
 62
     7
  5
35B
 10
911104.256
 20
7270576.843
 30
0.0
 40
8.0
  1
204.71'
 50
88.2167
  7
ROMANS
210
0.0
220
0.0
230
1.0
  0
TEXT
  8
11
  6
CONTINUOUS
 62
     7
  5
35C
 10
911149.799
 20
7269963.688
 30
0.0
 40
8.0
  1
208.29'
 50
358.2167
  7
ROMANS
210
0.0
220
0.0
230
1.0
  0
TEXT
  8
11
  6
CONTINUOUS
 62
     7
  5
35D
 10
911556.178
 20
7269951.036
 30
0.0
 40
8.0
  1
208.29'
 50
358.2167
  7
ROMANS
210
0.0
220
0.0
230
1.0
  0
TEXT
  8
11
  6
CONTINUOUS
 62
     7
  5
35E
 10
911360.14
 20
7269762.869
 30
0.0
 40
8.0
  1
200'
 50
358.2167
  7
ROMANS
210
0.0
220
0.0
230
1.0
  0
TEXT
  8
11
  6
CONTINUOUS
 62
     7
  5
35F
 10
911159.59
 20
7269769.113
 30
0.0
 40
8.0
  1
158.29'
 50
358.2167
  7
ROMANS
210
0.0
220
0.0
230
1.0
  0
TEXT
  8
11
  6
CONTINUOUS
 62
     7
  5
360
 10
911547.495
 20
7269757.035
 30
0.0
 40
8.0
  1
193.29'
 50
358.2167
  7
ROMANS
210
0.0
220
0.0
230
1.0
  0
TEXT
  8
11
  6
CONTINUOUS
 62
     7
  5
361
 10
911081.984
 20
7269861.47
 30
0.0
 40
8.0
  1
164.75'
 50
88.2167
  7
ROMANS
210
0.0
220
0.0
230
1.0
  0
TEXT
  8
11
  6
CONTINUOUS
 62
     7
  5
362
 10
911270.659
 20
7269855.595
 30
0.0
 40
8.0
  1
214.75'
 50
88.2167
  7
ROMANS
210
0.0
220
0.0
230
1.0
  0
TEXT
  8
11
  6
CONTINUOUS
 62
     7
  5
363
 10
911469.89
 20
7269849.393
 30
0.0
 40
8.0
  1
214.75'
 50
88.2167
  7
ROMANS
210
0.0
220
0.0
230
1.0
  0
TEXT
  8
11
  6
CONTINUOUS
 62
     7
  5
364
 10
911677.036
 20
7269842.943
 30
0.0
 40
8.0
  1
199.75'
 50
88.2167
  7
ROMANS
210
0.0
220
0.0
230
1.0
  0
TEXT
  8
11
  6
CONTINUOUS
 62
     7
  5
365
 10
911806.206
 20
7269668.857
 30
0.0
 40
8.0
  1
189.64'
 50
358.2167
  7
ROMANS
210
0.0
220
0.0
230
1.0
  0
TEXT
  8
11
  6
CONTINUOUS
 62
     7
  5
366
 10
911651.835
 20
7269673.663
 30
0.0
 40
8.0
  1
157'
 50
358.2167
  7
ROMANS
210
0.0
220
0.0
230
1.0
  0
TEXT
  8
11
  6
CONTINUOUS
 62
     7
  5
367
 10
911485.973
 20
7269679.075
 30
0.0
 40
8.0
  1
143.06'
 50
358.2167
  7
ROMANS
210
0.0
220
0.0
230
1.0
  0
TEXT
  8
11
  6
CONTINUOUS
 62
     7
  5
368
 10
911475.589
 20
7269484.88
 30
0.0
 40
8.0
  1
158.06'
 50
358.2167
  7
ROMANS
210
0.0
220
0.0
230
1.0
  0
TEXT
  8
11
  6
CONTINUOUS
 62
     7
  5
369
 10
911434.35
 20
7269557.603
 30
0.0
 40
8.0
  1
199.75'
 50
88.2167
  7
ROMANS
210
0.0
220
0.0
230
1.0
  0
TEXT
  8
11
  6
CONTINUOUS
 62
     7
  5
36A
 10
911568.93
 20
7269553.413
 30
0.0
 40
8.0
  1
214.75'
 50
88.2167
  7
ROMANS
210
0.0
220
0.0
230
1.0
  0
TEXT
  8
11
  6
CONTINUOUS
 62
     7
  5
36B
 10
911921.212
 20
7269542.444
 30
0.0
 40
8.0
  1
214.75'
 50
88.2167
  7
ROMANS
210
0.0
220
0.0
230
1.0
  0
TEXT
  8
11
  6
CONTINUOUS
 62
     7
  5
36C
 10
911428.394
 20
7269323.872
 30
0.0
 40
8.0
  1
240'
 50
88.2167
  7
ROMANS
210
0.0
220
0.0
230
1.0
  0
TEXT
  8
11
  6
CONTINUOUS
 62
     7
  5
36D
 10
911590.681
 20
7269318.818
 30
0.0
 40
8.0
  1
255'
 50
88.2167
  7
ROMANS
210
0.0
220
0.0
230
1.0
  0
TEXT
  8
11
  6
CONTINUOUS
 62
     7
  5
36E
 10
911913.419
 20
7269308.77
 30
0.0
 40
8.0
  1
255'
 50
88.2167
  7
ROMANS
210
0.0
220
0.0
230
1.0
  0
TEXT
  8
11
  6
CONTINUOUS
 62
     7
  5
36F
 10
911473.595
 20
7269208.735
 30
0.0
 40
8.0
  1
149.90'
 50
358.2167
  7
ROMANS
210
0.0
220
0.0
230
1.0
  0
TEXT
  8
11
  6
CONTINUOUS
 62
     7
  5
370
 10
911355.561
 20
7269561.436
 30
0.0
 40
8.0
  1
199.75'
 50
88.2167
  7
ROMANS
210
0.0
220
0.0
230
1.0
  0
TEXT
  8
11
  6
CONTINUOUS
 62
     7
  5
371
 10
911348.162
 20
7269323.783
 30
0.0
 40
8.0
  1
240'
 50
88.2167
  7
ROMANS
210
0.0
220
0.0
230
1.0
  0
TEXT
  8
11
  6
CONTINUOUS
 62
     7
  5
372
 10
911200.389
 20
7269328.384
 30
0.0
 40
8.0
  1
255'
 50
88.2167
  7
ROMANS
210
0.0
220
0.0
230
1.0
  0
TEXT
  8
11
  6
CONTINUOUS
 62
     7
  5
373
 10
910870.537
 20
7269338.654
 30
0.0
 40
8.0
  1
255'
 50
88.2167
  7
ROMANS
210
0.0
220
0.0
230
1.0
  0
TEXT
  8
11
  6
CONTINUOUS
 62
     7
  5
374
 10
910709.363
 20
7269337.064
 30
0.0
 40
8.0
  1
237.44'
 50
88.2167
  7
ROMANS
210
0.0
220
0.0
230
1.0
  0
TEXT
  8
11
  6
CONTINUOUS
 62
     7
  5
375
 10
911228.657
 20
7269215.097
 30
0.0
 40
8.0
  1
150.07'
 50
358.2167
  7
ROMANS
210
0.0
220
0.0
230
1.0
  0
TEXT
  8
11
  6
CONTINUOUS
 62
     7
  5
376
 10
910625.363
 20
7269247.114
 30
0.0
 40
8.0
  1
42.06'
 50
354.2167
  7
ROMANS
210
0.0
220
0.0
230
1.0
  0
TEXT
  8
11
  6
CONTINUOUS
 62
     7
  5
377
 10
911173.483
 20
7269567.105
 30
0.0
 40
8.0
  1
214.75'
 50
88.2167
  7
ROMANS
210
0.0
220
0.0
230
1.0
  0
TEXT
  8
11
  6
CONTINUOUS
 62
     7
  5
378
 10
910997.466
 20
7269555.405
 30
0.0
 40
8.0
  1
175.37'
 50
88.2167
  7
ROMANS
210
0.0
220
0.0
230
1.0
  0
TEXT
  8
11
  6
CONTINUOUS
 62
     7
  5
379
 10
910714.699
 20
7269593.282
 30
0.0
 40
8.0
  1
215.25'
 50
88.2167
  7
ROMANS
210
0.0
220
0.0
230
1.0
  0
TEXT
  8
11
  6
CONTINUOUS
 62
     7
  5
37A
 10
910708.436
 20
7269509.844
 30
0.0
 40
8.0
  1
14.14'
 50
43.2167
  7
ROMANS
210
0.0
220
0.0
230
1.0
  0
TEXT
  8
11
  6
CONTINUOUS
 62
     7
  5
37B
 10
910705.13
 20
7269470.302
 30
0.0
 40
8.0
  1
14.14'
 50
313.2167
  7
ROMANS
210
0.0
220
0.0
230
1.0
  0
TEXT
  8
11
  6
CONTINUOUS
 62
     7
  5
37C
 10
911473.453
 20
7269448.001
 30
0.0
 40
8.0
  1
164.90'
 50
358.2167
  7
ROMANS
210
0.0
220
0.0
230
1.0
  0
TEXT
  8
11
  6
CONTINUOUS
 62
     7
  5
37D
 10
911256.902
 20
7269491.747
 30
0.0
 40
8.0
  1
180'
 50
358.2167
  7
ROMANS
210
0.0
220
0.0
230
1.0
  0
TEXT
  8
11
  6
CONTINUOUS
 62
     7
  5
37E
 10
911257.749
 20
7269688.634
 30
0.0
 40
8.0
  1
165'
 50
358.2167
  7
ROMANS
210
0.0
220
0.0
230
1.0
  0
TEXT
  8
11
  6
CONTINUOUS
 62
     7
  5
37F
 10
911123.169
 20
7269692.823
 30
0.0
 40
8.0
  1
73.58'
 50
358.2167
  7
ROMANS
210
0.0
220
0.0
230
1.0
  0
TEXT
  8
11
  6
CONTINUOUS
 62
     7
  5
380
 10
911080.06
 20
7269495.93
 30
0.0
 40
8.0
  1
180'
 50
358.2167
  7
ROMANS
210
0.0
220
0.0
230
1.0
  0
TEXT
  8
11
  6
CONTINUOUS
 62
     7
  5
381
 10
910830.692
 20
7269503.694
 30
0.0
 40
8.0
  1
289.77'
 50
358.2167
  7
ROMANS
210
0.0
220
0.0
230
1.0
  0
TEXT
  8
11
  6
CONTINUOUS
 62
     7
  5
382
 10
910823.951
 20
7269711.39
 30
0.0
 40
8.0
  1
255.83'
 50
358.2167
  7
ROMANS
210
0.0
220
0.0
230
1.0
  0
TEXT
  8
11
  6
CONTINUOUS
 62
     7
  5
383
 10
910835.564
 20
7269872.26
 30
0.0
 40
8.0
  1
298.25'
 50
358.2167
  7
ROMANS
210
0.0
220
0.0
230
1.0
  0
TEXT
  8
11
  6
CONTINUOUS
 62
     7
  5
384
 10
910845.584
 20
7270194.101
 30
0.0
 40
8.0
  1
298.25'
 50
358.2167
  7
ROMANS
210
0.0
220
0.0
230
1.0
  0
TEXT
  8
11
  6
CONTINUOUS
 62
     7
  5
385
 10
910832.123
 20
7270355.749
 30
0.0
 40
8.0
  1
248.25'
 50
358.2167
  7
ROMANS
210
0.0
220
0.0
230
1.0
  0
TEXT
  8
11
  6
CONTINUOUS
 62
     7
  5
386
 10
911000.644
 20
7269827.237
 30
0.0
 40
8.0
  1
62.56'
 50
88.2167
  7
ROMANS
210
0.0
220
0.0
230
1.0
  0
TEXT
  8
11
  6
CONTINUOUS
 62
     7
  5
387
 10
910720.933
 20
7269793.656
 30
0.0
 40
8.0
  1
160'
 50
88.2167
  7
ROMANS
210
0.0
220
0.0
230
1.0
  0
TEXT
  8
11
  6
CONTINUOUS
 62
     7
  5
388
 10
911010.499
 20
7270107.103
 30
0.0
 40
8.0
  1
160'
 50
88.2167
  7
ROMANS
210
0.0
220
0.0
230
1.0
  0
TEXT
  8
11
  6
CONTINUOUS
 62
     7
  5
389
 10
910735.607
 20
7270264.998
 30
0.0
 40
8.0
  1
164.25'
 50
88.2167
  7
ROMANS
210
0.0
220
0.0
230
1.0
  0
TEXT
  8
11
  6
CONTINUOUS
 62
     7
  5
38A
 10
910910.481
 20
7269225.164
 30
0.0
 40
8.0
  1
164.90'
 50
358.2167
  7
ROMANS
210
0.0
220
0.0
230
1.0
  0
TEXT
  8
11
  6
CONTINUOUS
 62
     7
  5
38B
 10
911076.727
 20
7269219.989
 30
0.0
 40
8.0
  1
164.90'
 50
358.2167
  7
ROMANS
210
0.0
220
0.0
230
1.0
  0
TEXT
  8
11
  6
CONTINUOUS
 62
     7
  5
38C
 10
911375.223
 20
7269263.753
 30
0.0
 40
8.0
  1
60'
 50
358.2167
  7
ROMANS
210
0.0
220
0.0
230
1.0
  0
TEXT
  8
11
  6
CONTINUOUS
 62
     7
  5
38D
 10
911258.512
 20
7269721.458
 30
0.0
 40
8.0
  1
60'
 50
88.2167
  7
ROMANS
210
0.0
220
0.0
230
1.0
  0
TEXT
  8
11
  6
CONTINUOUS
 62
     7
  5
38E
 10
911849.852
 20
7269700.831
 30
0.0
 40
8.0
  1
60'
 50
88.2167
  7
ROMANS
210
0.0
220
0.0
230
1.0
  0
TEXT
  8
11
  6
CONTINUOUS
 62
     7
  5
38F
 10
911030.617
 20
7269860.01
 30
0.0
 40
8.0
  1
60'
 50
358.2167
  7
ROMANS
210
0.0
220
0.0
230
1.0
  0
TEXT
  8
11
  6
CONTINUOUS
 62
     7
  5
390
 10
910513.694
 20
7270399.011
 30
0.0
 40
8.0
  1
60'
 50
88.2167
  7
ROMANS
210
0.0
220
0.0
230
1.0
  0
TEXT
  8
11
  6
CONTINUOUS
 62
     7
  5
391
 10
910498.911
 20
7269247.752
 30
0.0
 40
8.0
  1
208'
 50
358.2167
  7
ROMANS
210
0.0
220
0.0
230
1.0
  0
TEXT
  8
11
  6
CONTINUOUS
 62
     7
  5
392
 10
910524.825
 20
7269417.889
 30
0.0
 40
8.0
  1
280'
 50
358.2167
  7
ROMANS
210
0.0
220
0.0
230
1.0
  0
TEXT
  8
11
  6
CONTINUOUS
 62
     7
  5
393
 10
910550.127
 20
7270230.554
 30
0.0
 40
8.0
  1
280'
 50
358.2167
  7
ROMANS
210
0.0
220
0.0
230
1.0
  0
TEXT
  8
11
  6
CONTINUOUS
 62
     7
  5
394
 10
910555.721
 20
7270362.947
 30
0.0
 40
8.0
  1
265'
 50
358.2167
  7
ROMANS
210
0.0
220
0.0
230
1.0
  0
TEXT
  8
11
  6
CONTINUOUS
 62
     7
  5
395
 10
910698.546
 20
7270294.296
 30
0.0
 40
8.0
  1
135'
 50
88.2167
  7
ROMANS
210
0.0
220
0.0
230
1.0
  0
TEXT
  8
11
  6
CONTINUOUS
 62
     7
  5
396
 10
910436.665
 20
7270302.449
 30
0.0
 40
8.0
  1
120'
 50
88.2167
  7
ROMANS
210
0.0
220
0.0
230
1.0
  0
TEXT
  8
11
  6
CONTINUOUS
 62
     7
  5
397
 10
910414.168
 20
7269485.275
 30
0.0
 40
8.0
  1
135'
 50
88.2167
  7
ROMANS
210
0.0
220
0.0
230
1.0
  0
TEXT
  8
11
  6
CONTINUOUS
 62
     7
  5
398
 10
910406.169
 20
7269322.207
 30
0.0
 40
8.0
  1
158.50'
 50
88.2167
  7
ROMANS
210
0.0
220
0.0
230
1.0
  0
TEXT
  8
11
  6
CONTINUOUS
 62
     7
  5
399
 10
910666.487
 20
7269311.155
 30
0.0
 40
8.0
  1
190.80'
 50
88.2167
  7
ROMANS
210
0.0
220
0.0
230
1.0
  0
TEXT
  8
11
  6
CONTINUOUS
 62
     7
  5
39A
 10
911015.218
 20
7270245.832
 30
0.0
 40
8.0
  1
114.25'
 50
88.2167
  7
ROMANS
210
0.0
220
0.0
230
1.0
  0
TEXT
  8
11
  6
CONTINUOUS
 62
     7
  5
39B
 10
910398.822
 20
7270570.711
 30
0.0
 40
8.0
  1
55'
 50
358.2167
  7
ROMANS
210
0.0
220
0.0
230
1.0
  0
TEXT
  8
11
  6
CONTINUOUS
 62
     7
  5
39C
 10
911005.737
 20
7269940.887
 30
0.0
 40
8.0
  1
160'
 50
88.2167
  7
ROMANS
210
0.0
220
0.0
230
1.0
  0
TEXT
  8
11
  6
CONTINUOUS
 62
     7
  5
39D
 10
910436.762
 20
7270160.492
 30
0.0
 40
8.0
  1
135'
 50
88.2167
  7
ROMANS
210
0.0
220
0.0
230
1.0
  0
TEXT
  8
11
  6
CONTINUOUS
 62
     7
  5
39E
 10
910555.359
 20
7270443.573
 30
0.0
 40
8.0
  1
265'
 50
358.2167
  7
ROMANS
210
0.0
220
0.0
230
1.0
  0
TEXT
  8
11
  6
CONTINUOUS
 62
     7
  5
39F
 10
910558.98
 20
7270559.879
 30
0.0
 40
8.0
  1
280'
 50
358.2167
  7
ROMANS
210
0.0
220
0.0
230
1.0
  0
TEXT
  8
11
  6
CONTINUOUS
 62
     7
  5
3A0
 10
910563.152
 20
7270693.851
 30
0.0
 40
8.0
  1
270'
 50
358.2167
  7
ROMANS
210
0.0
220
0.0
230
1.0
  0
TEXT
  8
11
  6
CONTINUOUS
 62
     7
  5
3A1
 10
910446.809
 20
7270625.902
 30
0.0
 40
8.0
  1
135'
 50
88.2167
  7
ROMANS
210
0.0
220
0.0
230
1.0
  0
TEXT
  8
11
  6
CONTINUOUS
 62
     7
  5
3A2
 10
910442.775
 20
7270496.346
 30
0.0
 40
8.0
  1
120'
 50
88.2167
  7
ROMANS
210
0.0
220
0.0
230
1.0
  0
TEXT
  8
11
  6
CONTINUOUS
 62
     7
  5
3A3
 10
910703.185
 20
7270488.239
 30
0.0
 40
8.0
  1
135'
 50
88.2167
  7
ROMANS
210
0.0
220
0.0
230
1.0
  0
TEXT
  8
11
  6
CONTINUOUS
 62
     7
  5
3A4
 10
910707.31
 20
7270620.738
 30
0.0
 40
8.0
  1
125'
 50
88.2167
  7
ROMANS
210
0.0
220
0.0
230
1.0
  0
TEXT
  8
11
  6
CONTINUOUS
 62
     7
  5
3A5
 10
910676.743
 20
7270660.238
 30
0.0
 40
8.0
  1
14.14'
 50
43.2167
  7
ROMANS
210
0.0
220
0.0
230
1.0
  0
TEXT
  8
11
  6
CONTINUOUS
 62
     7
  5
3A6
 10
910744.372
 20
7270689.08
 30
0.0
 40
8.0
  1
14.14'
 50
313.2167
  7
ROMANS
210
0.0
220
0.0
230
1.0
  0
TEXT
  8
11
  6
CONTINUOUS
 62
     7
  5
3A7
 10
911062.738
 20
7270413.912
 30
0.0
 40
7.999
  1
60'
 50
313.2167
  7
ROMANS
210
0.0
220
0.0
230
1.0
  0
TEXT
  8
11
  6
CONTINUOUS
 62
     7
  5
3A8
 10
910810.321
 20
7270686.156
 30
0.0
 40
8.0
  1
155'
 50
358.2167
  7
ROMANS
210
0.0
220
0.0
230
1.0
  0
TEXT
  8
11
  6
CONTINUOUS
 62
     7
  5
3A9
 10
910798.069
 20
7270434.543
 30
0.0
 40
8.0
  1
165'
 50
358.2167
  7
ROMANS
210
0.0
220
0.0
230
1.0
  0
TEXT
  8
11
  6
CONTINUOUS
 62
     7
  5
3AA
 10
910745.017
 20
7270554.723
 30
0.0
 40
8.0
  1
260'
 50
88.2167
  7
ROMANS
210
0.0
220
0.0
230
1.0
  0
TEXT
  8
11
  6
CONTINUOUS
 62
     7
  5
3AB
 10
910911.221
 20
7270548.074
 30
0.0
 40
8.0
  1
270'
 50
88.2167
  7
ROMANS
210
0.0
220
0.0
230
1.0
  0
TEXT
  8
11
  6
CONTINUOUS
 62
     7
  5
3AC
 10
910970.684
 20
7270681.163
 30
0.0
 40
8.0
  1
191.58'
 50
358.2167
  7
ROMANS
210
0.0
220
0.0
230
1.0
  0
TEXT
  8
11
  6
CONTINUOUS
 62
     7
  5
3AD
 10
910914.342
 20
7270432.398
 30
0.0
 40
8.0
  1
83.85'
 50
358.2167
  7
ROMANS
210
0.0
220
0.0
230
1.0
  0
TEXT
  8
11
  6
CONTINUOUS
 62
     7
  5
3AE
 10
911035.801
 20
7270424.778
 30
0.0
 40
8.0
  1
53.12'
 50
40.2167
  7
ROMANS
210
0.0
220
0.0
230
1.0
  0
TEXT
  8
11
  6
CONTINUOUS
 62
     7
  5
3AF
 10
911090.326
 20
7270368.842
 30
0.0
 40
8.0
  1
53.10'
 50
43.2167
  7
ROMANS
210
0.0
220
0.0
230
1.0
  0
TEXT
  8
11
  6
CONTINUOUS
 62
     7
  5
3B0
 10
912434.165
 20
7269492.091
 30
0.0
 40
8.0
  1
208.75'
 50
358.2167
  7
ROMANS
210
0.0
220
0.0
230
1.0
  0
TEXT
  8
11
  6
CONTINUOUS
 62
     7
  5
3B1
 10
912389.177
 20
7269371.902
 30
0.0
 40
8.0
  1
133.75'
 50
358.2167
  7
ROMANS
210
0.0
220
0.0
230
1.0
  0
TEXT
  8
11
  6
CONTINUOUS
 62
     7
  5
3B2
 10
912508.482
 20
7269175.762
 30
0.0
 40
8.0
  1
75'
 50
358.2167
  7
ROMANS
210
0.0
220
0.0
230
1.0
  0
TEXT
  8
11
  6
CONTINUOUS
 62
     7
  5
3B3
 10
912553.813
 20
7269318.447
 30
0.0
 40
8.0
  1
343.75'
 50
88.2167
  7
ROMANS
210
0.0
220
0.0
230
1.0
  0
TEXT
  8
11
  6
CONTINUOUS
 62
     7
  5
3B4
 10
912368.34
 20
7269430.195
 30
0.0
 40
8.0
  1
135'
 50
88.2167
  7
ROMANS
210
0.0
220
0.0
230
1.0
  0
TEXT
  8
11
  6
CONTINUOUS
 62
     7
  5
3B5
 10
912522.873
 20
7269130.331
 30
0.0
 40
8.0
  1
55'
 50
88.2167
  7
ROMANS
210
0.0
220
0.0
230
1.0
  0
TEXT
  8
11
  6
CONTINUOUS
 62
     7
  5
3B6
 10
910536.604
 20
7271275.369
 30
0.0
 40
8.0
  1
220.2'
 50
358.2167
  7
ROMANS
210
0.0
220
0.0
230
1.0
  0
TEXT
  8
11
  6
CONTINUOUS
 62
     7
  5
3B7
 10
910530.204
 20
7271069.791
 30
0.0
 40
8.0
  1
220.2'
 50
358.2167
  7
ROMANS
210
0.0
220
0.0
230
1.0
  0
TEXT
  8
11
  6
CONTINUOUS
 62
     7
  5
3B8
 10
910645.079
 20
7271149.534
 30
0.0
 40
8.0
  1
221.35'
 50
88.2167
  7
ROMANS
210
0.0
220
0.0
230
1.0
  0
TEXT
  8
11
  6
CONTINUOUS
 62
     7
  5
3B9
 10
910462.016
 20
7271155.234
 30
0.0
 40
8.0
  1
221.35'
 50
88.2167
  7
ROMANS
210
0.0
220
0.0
230
1.0
  0
TEXT
  8
11
  6
CONTINUOUS
 62
     7
  5
3BA
 10
910447.749
 20
7272492.93
 30
0.0
 40
8.0
  1
40'
 50
358.2167
  7
ROMANS
210
0.0
220
0.0
230
1.0
  0
TEXT
  8
11
  6
CONTINUOUS
 62
     7
  5
3BB
 10
912881.99
 20
7274347.971
 30
0.0
 40
8.0
  1
65'
 50
88.2167
  7
ROMANS
210
0.0
220
0.0
230
1.0
  0
TEXT
  8
11
  6
CONTINUOUS
 62
     7
  5
3BC
 10
915559.857
 20
7274252.299
 30
0.0
 40
8.0
  1
85'
 50
88.2167
  7
ROMANS
210
0.0
220
0.0
230
1.0
  0
TEXT
  8
11
  6
CONTINUOUS
 62
     7
  5
3BD
 10
914240.517
 20
7274307.371
 30
0.0
 40
8.0
  1
65'
 50
88.2167
  7
ROMANS
210
0.0
220
0.0
230
1.0
  0
TEXT
  8
11
  6
CONTINUOUS
 62
     7
  5
3BE
 10
915650.23
 20
7271779.208
 30
0.0
 40
8.0
  1
80'
 50
358.2167
  7
ROMANS
210
0.0
220
0.0
230
1.0
  0
TEXT
  8
11
  6
CONTINUOUS
 62
     7
  5
3BF
 10
913136.804
 20
7274225.863
 30
0.0
 40
8.0
  1
30'
 50
358.2167
  7
ROMANS
210
0.0
220
0.0
230
1.0
  0
TEXT
  8
11
  6
CONTINUOUS
 62
     7
  5
3C0
 10
913064.15
 20
7271892.291
 30
0.0
 40
8.0
  1
30'
 50
358.2167
  7
ROMANS
210
0.0
220
0.0
230
1.0
  0
TEXT
  8
11
  6
CONTINUOUS
 62
     7
  5
3C1
 10
911647.84
 20
7269964.877
 30
0.0
 40
7.0
  1
20'
 50
88.2167
  7
ROMANS
210
0.0
220
0.0
230
1.0
  0
TEXT
  8
11
  6
CONTINUOUS
 62
     7
  5
3C2
 10
911126.311
 20
7269981.115
 30
0.0
 40
7.0
  1
20'
 50
88.2167
  7
ROMANS
210
0.0
220
0.0
230
1.0
  0
TEXT
  8
11
  6
CONTINUOUS
 62
     7
  5
3C3
 10
911373.322
 20
7270014.518
 30
0.0
 40
7.0
  1
20'
 50
358.2167
  7
ROMANS
210
0.0
220
0.0
230
1.0
  0
TEXT
  8
11
  6
CONTINUOUS
 62
     7
  5
3C4
 10
911393.497
 20
7270642.214
 30
0.0
 40
7.0
  1
20'
 50
358.2167
  7
ROMANS
210
0.0
220
0.0
230
1.0
  0
TEXT
  8
11
  6
CONTINUOUS
 62
     7
  5
3C5
 10
910716.464
 20
7270662.66
 30
0.0
 40
7.0
  1
20'
 50
358.2167
  7
ROMANS
210
0.0
220
0.0
230
1.0
  0
TEXT
  8
11
  6
CONTINUOUS
 62
     7
  5
3C6
 10
910710.974
 20
7270466.015
 30
0.0
 40
7.0
  1
20'
 50
358.2167
  7
ROMANS
210
0.0
220
0.0
230
1.0
  0
TEXT
  8
11
  6
CONTINUOUS
 62
     7
  5
3C7
 10
910705.497
 20
7270330.755
 30
0.0
 40
7.0
  1
20'
 50
358.2167
  7
ROMANS
210
0.0
220
0.0
230
1.0
  0
TEXT
  8
11
  6
CONTINUOUS
 62
     7
  5
3C8
 10
910681.846
 20
7269549.685
 30
0.0
 40
7.0
  1
20'
 50
358.2167
  7
ROMANS
210
0.0
220
0.0
230
1.0
  0
TEXT
  8
11
  6
CONTINUOUS
 62
     7
  5
3C9
 10
910673.512
 20
7269281.873
 30
0.0
 40
7.0
  1
20'
 50
358.2167
  7
ROMANS
210
0.0
220
0.0
230
1.0
  0
TEXT
  8
11
  6
CONTINUOUS
 62
     7
  5
3CA
 10
910751.926
 20
7269483.251
 30
0.0
 40
7.0
  1
20'
 50
88.2167
  7
ROMANS
210
0.0
220
0.0
230
1.0
  0
TEXT
  8
11
  6
CONTINUOUS
 62
     7
  5
3CB
 10
911318.428
 20
7269466.257
 30
0.0
 40
7.0
  1
20'
 50
88.2167
  7
ROMANS
210
0.0
220
0.0
230
1.0
  0
TEXT
  8
11
  6
CONTINUOUS
 62
     7
  5
3CC
 10
911469.395
 20
7269460.29
 30
0.0
 40
7.0
  1
20'
 50
88.2167
  7
ROMANS
210
0.0
220
0.0
230
1.0
  0
TEXT
  8
11
  6
CONTINUOUS
 62
     7
  5
3CD
 10
911871.56
 20
7269448.401
 30
0.0
 40
7.0
  1
20'
 50
88.2167
  7
ROMANS
210
0.0
220
0.0
230
1.0
  0
TEXT
  8
11
  6
CONTINUOUS
 62
     7
  5
3CE
 10
911898.488
 20
7269725.708
 30
0.0
 40
7.0
  1
10'
 50
358.2167
  7
ROMANS
210
0.0
220
0.0
230
1.0
  0
INSERT
  8
11
  6
CONTINUOUS
 62
     7
  5
3DE
  2
*D0
 10
911924.788
 20
7269737.589
 30
0.0
 70
     0
 71
     0
  0
TEXT
  8
11
  6
CONTINUOUS
 62
     7
  5
3DF
 10
911928.252
 20
7270822.785
 30
0.0
 40
7.0
  1
10'
 50
358.2167
  7
ROMANS
210
0.0
220
0.0
230
1.0
  0
INSERT
  8
11
  6
CONTINUOUS
 62
     7
  5
3ED
  2
*D1
 10
911960.256
 20
7270855.372
 30
0.0
 70
     0
 71
     0
  0
INSERT
  8
11
  6
CONTINUOUS
 62
     7
  5
3F7
  2
*D2
 10
911958.444
 20
7270797.206
 30
0.0
 70
     0
 71
     0
  0
TEXT
  8
11
  6
CONTINUOUS
 62
     7
  5
3F8
 10
911734.312
 20
7270728.201
 30
0.0
 40
7.0
  1
60'
 50
358.2167
  7
ROMANS
210
0.0
220
0.0
230
1.0
  0
TEXT
  8
11
  6
CONTINUOUS
 62
     7
  5
3F9
 10
911883.607
 20
7270822.139
 30
0.0
 40
7.0
  1
60'
 50
88.2167
  7
ROMANS
210
0.0
220
0.0
230
1.0
  0
TEXT
  8
11
  6
CONTINUOUS
 62
     7
  5
3FA
 10
911612.847
 20
7270830.846
 30
0.0
 40
7.0
  1
60'
 50
88.2167
  7
ROMANS
210
0.0
220
0.0
230
1.0
  0
TEXT
  8
11
  6
CONTINUOUS
 62
     7
  5
3FB
 10
911739.698
 20
7270941.524
 30
0.0
 40
7.0
  1
60'
 50
358.2167
  7
ROMANS
210
0.0
220
0.0
230
1.0
  0
TEXT
  8
11
  6
CONTINUOUS
 62
     7
  5
3FC
 10
911764.623
 20
7271660.823
 30
0.0
 40
7.0
  1
60'
 50
358.2167
  7
ROMANS
210
0.0
220
0.0
230
1.0
  0
TEXT
  8
11
  6
CONTINUOUS
 62
     7
  5
3FD
 10
911918.669
 20
7271747.475
 30
0.0
 40
7.0
  1
40'
 50
88.2167
  7
ROMANS
210
0.0
220
0.0
230
1.0
  0
TEXT
  8
11
  6
CONTINUOUS
 62
     7
  5
3FE
 10
911641.605
 20
7271754.203
 30
0.0
 40
7.0
  1
40'
 50
88.2167
  7
ROMANS
210
0.0
220
0.0
230
1.0
  0
TEXT
  8
11
  6
CONTINUOUS
 62
     7
  5
3FF
 10
911952.64
 20
7271747.999
 30
0.0
 40
7.0
  1
10'
 50
358.2167
  7
ROMANS
210
0.0
220
0.0
230
1.0
  0
INSERT
  8
11
  6
CONTINUOUS
 62
     7
  5
40D
  2
*D3
 10
911988.241
 20
7271733.642
 30
0.0
 70
     0
 71
     0
  0
TEXT
  8
11
  6
CONTINUOUS
 62
     7
  5
40E
 10
911575.423
 20
7271759.11
 30
0.0
 40
7.0
  1
10'
 50
358.2167
  7
ROMANS
210
0.0
220
0.0
230
1.0
  0
INSERT
  8
11
  6
CONTINUOUS
 62
     7
  5
41C
  2
*D4
 10
911557.972
 20
7271747.038
 30
0.0
 70
     0
 71
     0
  0
TEXT
  8
11
  6
CONTINUOUS
 62
     7
  5
41D
 10
911548.56
 20
7270834.993
 30
0.0
 40
7.0
  1
10'
 50
358.2167
  7
ROMANS
210
0.0
220
0.0
230
1.0
  0
INSERT
  8
11
  6
CONTINUOUS
 62
     7
  5
42B
  2
*D5
 10
911531.342
 20
7270871.01
 30
0.0
 70
     0
 71
     0
  0
INSERT
  8
11
  6
CONTINUOUS
 62
     7
  5
435
  2
*D6
 10
911529.472
 20
7270810.947
 30
0.0
 70
     0
 71
     0
  0
TEXT
  8
11
  6
CONTINUOUS
 62
     7
  5
436
 10
911404.669
 20
7270660.417
 30
0.0
 40
7.0
  1
10'
 50
88.2167
  7
ROMANS
210
0.0
220
0.0
230
1.0
  0
INSERT
  8
11
  6
CONTINUOUS
 62
     7
  5
444
  2
*D7
 10
911411.748
 20
7270686.146
 30
0.0
 70
     0
 71
     0
  0
INSERT
  8
11
  6
CONTINUOUS
 62
     7
  5
44E
  2
*D8
 10
911391.565
 20
7270686.762
 30
0.0
 70
     0
 71
     0
  0
TEXT
  8
11
  6
CONTINUOUS
 62
     7
  5
44F
 10
910428.248
 20
7270679.27
 30
0.0
 40
7.0
  1
10'
 50
88.2167
  7
ROMANS
210
0.0
220
0.0
230
1.0
  0
INSERT
  8
11
  6
CONTINUOUS
 62
     7
  5
45D
  2
*D9
 10
910435.471
 20
7270716.631
 30
0.0
 70
     0
 71
     0
  0
TEXT
  8
11
  6
CONTINUOUS
 62
     7
  5
45E
 10
911705.849
 20
7269820.697
 30
0.0
 40
7.0
  1
60'
 50
358.2167
  7
ROMANS
210
0.0
220
0.0
230
1.0
  0
POINT
  8
11
  6
CONTINUOUS
 62
     7
  5
45F
 10
911132.561
 20
7270515.755
 30
0.0
  0
INSERT
  8
11
  6
CONTINUOUS
 62
     7
  5
469
  2
*D10
 10
911006.153
 20
7270348.291
 30
0.0
 70
     0
 71
     0
  0
TEXT
  8
11
  6
CONTINUOUS
 62
     7
  5
46A
 10
910947.074
 20
7270315.172
 30
0.0
 40
7.0
  1
R=50'
 50
43.2167
  7
ROMANS
210
0.0
220
0.0
230
1.0
  0
TEXT
  8
11
  6
CONTINUOUS
 62
     7
  5
46B
 10
910953.923
 20
7270307.885
 30
0.0
 40
7.0
  1
CH=70.71'
 50
43.2167
  7
ROMANS
210
0.0
220
0.0
230
1.0
  0
TEXT
  8
11
  6
CONTINUOUS
 62
     7
  5
46C
 10
915244.973
 20
7271843.591
 30
0.0
 40
7.0
  1
20'
 50
88.2167
  7
ROMANS
210
0.0
220
0.0
230
1.0
  0
TEXT
  8
11
  6
CONTINUOUS
 62
     7
  5
46D
 10
915578.3
 20
7271833.824
 30
0.0
 40
7.0
  1
20'
 50
88.2167
  7
ROMANS
210
0.0
220
0.0
230
1.0
  0
TEXT
  8
11
  6
CONTINUOUS
 62
     7
  5
46E
 10
915107.302
 20
7271849.099
 30
0.0
 40
7.0
  1
20'
 50
88.2167
  7
ROMANS
210
0.0
220
0.0
230
1.0
  0
TEXT
  8
11
  6
CONTINUOUS
 62
     7
  5
46F
 10
915016.27
 20
7271915.913
 30
0.0
 40
7.0
  1
20'
 50
358.2167
  7
ROMANS
210
0.0
220
0.0
230
1.0
  0
TEXT
  8
11
  6
CONTINUOUS
 62
     7
  5
470
 10
915259.12
 20
7272160.274
 30
0.0
 40
7.0
  1
20'
 50
88.2167
  7
ROMANS
210
0.0
220
0.0
230
1.0
  0
TEXT
  8
11
  6
CONTINUOUS
 62
     7
  5
471
 10
915587.514
 20
7272148.829
 30
0.0
 40
7.0
  1
20'
 50
88.2167
  7
ROMANS
210
0.0
220
0.0
230
1.0
  0
TEXT
  8
11
  6
CONTINUOUS
 62
     7
  5
472
 10
915224.714
 20
7272132.661
 30
0.0
 40
7.0
  1
20'
 50
88.2167
  7
ROMANS
210
0.0
220
0.0
230
1.0
  0
TEXT
  8
11
  6
CONTINUOUS
 62
     7
  5
473
 10
915267.931
 20
7272462.382
 30
0.0
 40
7.0
  1
20'
 50
88.2167
  7
ROMANS
210
0.0
220
0.0
230
1.0
  0
TEXT
  8
11
  6
CONTINUOUS
 62
     7
  5
474
 10
915596.344
 20
7272451.546
 30
0.0
 40
7.0
  1
20'
 50
88.2167
  7
ROMANS
210
0.0
220
0.0
230
1.0
  0
TEXT
  8
11
  6
CONTINUOUS
 62
     7
  5
475
 10
915277.107
 20
7272757.753
 30
0.0
 40
7.0
  1
20'
 50
88.2167
  7
ROMANS
210
0.0
220
0.0
230
1.0
  0
TEXT
  8
11
  6
CONTINUOUS
 62
     7
  5
476
 10
915605.52
 20
7272746.918
 30
0.0
 40
7.0
  1
20'
 50
88.2167
  7
ROMANS
210
0.0
220
0.0
230
1.0
  0
TEXT
  8
11
  6
CONTINUOUS
 62
     7
  5
477
 10
915286.944
 20
7273053.593
 30
0.0
 40
7.0
  1
20'
 50
88.2167
  7
ROMANS
210
0.0
220
0.0
230
1.0
  0
TEXT
  8
11
  6
CONTINUOUS
 62
     7
  5
478
 10
915614.159
 20
7273043.406
 30
0.0
 40
7.0
  1
20'
 50
88.2167
  7
ROMANS
210
0.0
220
0.0
230
1.0
  0
TEXT
  8
11
  6
CONTINUOUS
 62
     7
  5
479
 10
915295.49
 20
7273349.004
 30
0.0
 40
7.0
  1
20'
 50
88.2167
  7
ROMANS
210
0.0
220
0.0
230
1.0
  0
TEXT
  8
11
  6
CONTINUOUS
 62
     7
  5
47A
 10
915622.095
 20
7273338.837
 30
0.0
 40
7.0
  1
20'
 50
88.2167
  7
ROMANS
210
0.0
220
0.0
230
1.0
  0
TEXT
  8
11
  6
CONTINUOUS
 62
     7
  5
47B
 10
915069.349
 20
7273601.015
 30
0.0
 40
7.0
  1
20'
 50
358.2167
  7
ROMANS
210
0.0
220
0.0
230
1.0
  0
TEXT
  8
11
  6
CONTINUOUS
 62
     7
  5
47C
 10
915149.459
 20
7273653.58
 30
0.0
 40
7.0
  1
20'
 50
88.2167
  7
ROMANS
210
0.0
220
0.0
230
1.0
  0
TEXT
  8
11
  6
CONTINUOUS
 62
     7
  5
47D
 10
915632.032
 20
7273639.166
 30
0.0
 40
7.0
  1
20'
 50
88.2167
  7
ROMANS
210
0.0
220
0.0
230
1.0
  0
TEXT
  8
11
  6
CONTINUOUS
 62
     7
  5
47E
 10
915621.533
 20
7273488.889
 30
0.0
 40
8.0
  1
60'
 50
88.2167
  7
ROMANS
210
0.0
220
0.0
230
1.0
  0
TEXT
  8
11
  6
CONTINUOUS
 62
     7
  5
47F
 10
915214.946
 20
7273410.212
 30
0.0
 40
8.0
  1
60'
 50
358.2167
  7
ROMANS
210
0.0
220
0.0
230
1.0
  0
TEXT
  8
11
  6
CONTINUOUS
 62
     7
  5
480
 10
915192.858
 20
7272700.372
 30
0.0
 40
8.0
  1
60'
 50
358.2167
  7
ROMANS
210
0.0
220
0.0
230
1.0
  0
TEXT
  8
11
  6
CONTINUOUS
 62
     7
  5
481
 10
915543.962
 20
7273193.652
 30
0.0
 40
8.0
  1
56'
 50
88.2167
  7
ROMANS
210
0.0
220
0.0
230
1.0
  0
TEXT
  8
11
  6
CONTINUOUS
 62
     7
  5
482
 10
915290.45
 20
7272903.754
 30
0.0
 40
8.0
  1
56'
 50
88.2167
  7
ROMANS
210
0.0
220
0.0
230
1.0
  0
TEXT
  8
11
  6
CONTINUOUS
 62
     7
  5
483
 10
915277.798
 20
7272313.077
 30
0.0
 40
8.0
  1
56'
 50
88.2167
  7
ROMANS
210
0.0
220
0.0
230
1.0
  0
TEXT
  8
11
  6
CONTINUOUS
 62
     7
  5
484
 10
915264.843
 20
7271999.95
 30
0.0
 40
8.0
  1
56'
 50
88.2167
  7
ROMANS
210
0.0
220
0.0
230
1.0
  0
TEXT
  8
11
  6
CONTINUOUS
 62
     7
  5
485
 10
915292.982
 20
7272606.491
 30
0.0
 40
8.0
  1
56'
 50
88.2167
  7
ROMANS
210
0.0
220
0.0
230
1.0
  0
TEXT
  8
11
  6
CONTINUOUS
 62
     7
  5
486
 10
915584.113
 20
7272600.167
 30
0.0
 40
8.0
  1
56'
 50
88.2167
  7
ROMANS
210
0.0
220
0.0
230
1.0
  0
TEXT
  8
11
  6
CONTINUOUS
 62
     7
  5
487
 10
915612.77
 20
7271758.595
 30
0.0
 40
8.0
  1
94.98'
 50
88.2167
  7
ROMANS
210
0.0
220
0.0
230
1.0
  0
TEXT
  8
11
  6
CONTINUOUS
 62
     7
  5
488
 10
915618.818
 20
7271917.815
 30
0.0
 40
8.0
  1
148'
 50
88.2167
  7
ROMANS
210
0.0
220
0.0
230
1.0
  0
TEXT
  8
11
  6
CONTINUOUS
 62
     7
  5
489
 10
915622.909
 20
7272058.946
 30
0.0
 40
8.0
  1
148'
 50
88.2167
  7
ROMANS
210
0.0
220
0.0
230
1.0
  0
TEXT
  8
11
  6
CONTINUOUS
 62
     7
  5
48A
 10
915632.83
 20
7272379.857
 30
0.0
 40
8.0
  1
138'
 50
88.2167
  7
ROMANS
210
0.0
220
0.0
230
1.0
  0
TEXT
  8
11
  6
CONTINUOUS
 62
     7
  5
48B
 10
915627.693
 20
7272214.892
 30
0.0
 40
8.0
  1
144'
 50
88.2167
  7
ROMANS
210
0.0
220
0.0
230
1.0
  0
TEXT
  8
11
  6
CONTINUOUS
 62
     7
  5
48C
 10
915636.205
 20
7272512.201
 30
0.0
 40
8.0
  1
95'
 50
88.2167
  7
ROMANS
210
0.0
220
0.0
230
1.0
  0
TEXT
  8
11
  6
CONTINUOUS
 62
     7
  5
48D
 10
915642.391
 20
7272687.316
 30
0.0
 40
8.0
  1
95'
 50
88.2167
  7
ROMANS
210
0.0
220
0.0
230
1.0
  0
TEXT
  8
11
  6
CONTINUOUS
 62
     7
  5
48E
 10
915645.655
 20
7272815.802
 30
0.0
 40
8.0
  1
138'
 50
88.2167
  7
ROMANS
210
0.0
220
0.0
230
1.0
  0
TEXT
  8
11
  6
CONTINUOUS
 62
     7
  5
48F
 10
915650.218
 20
7272962.356
 30
0.0
 40
8.0
  1
138'
 50
88.2167
  7
ROMANS
210
0.0
220
0.0
230
1.0
  0
TEXT
  8
11
  6
CONTINUOUS
 62
     7
  5
490
 10
915655.504
 20
7273113.894
 30
0.0
 40
8.0
  1
138'
 50
88.2167
  7
ROMANS
210
0.0
220
0.0
230
1.0
  0
TEXT
  8
11
  6
CONTINUOUS
 62
     7
  5
491
 10
915660.452
 20
7273259.851
 30
0.0
 40
8.0
  1
138'
 50
88.2167
  7
ROMANS
210
0.0
220
0.0
230
1.0
  0
TEXT
  8
11
  6
CONTINUOUS
 62
     7
  5
492
 10
915664.551
 20
7273399.243
 30
0.0
 40
8.0
  1
95'
 50
88.2167
  7
ROMANS
210
0.0
220
0.0
230
1.0
  0
TEXT
  8
11
  6
CONTINUOUS
 62
     7
  5
493
 10
915678.097
 20
7272691.02
 30
0.0
 40
7.0
  1
80'
 50
358.2167
  7
ROMANS
210
0.0
220
0.0
230
1.0
  0
TEXT
  8
11
  6
CONTINUOUS
 62
     7
  5
494
 10
910756.28
 20
7269468.531
 30
0.0
 40
8.0
  1
154.90'
 50
358.2167
  7
ROMANS
210
0.0
220
0.0
230
1.0
  0
TEXT
  8
11
  6
CONTINUOUS
 62
     7
  5
495
 10
911252.695
 20
7269453.887
 30
0.0
 40
8.0
  1
165.07'
 50
358.2167
  7
ROMANS
210
0.0
220
0.0
230
1.0
  0
TEXT
  8
11
  6
CONTINUOUS
 62
     7
  5
496
 10
911638.521
 20
7269203.599
 30
0.0
 40
8.0
  1
164.90'
 50
358.2167
  7
ROMANS
210
0.0
220
0.0
230
1.0
  0
TEXT
  8
11
  6
CONTINUOUS
 62
     7
  5
497
 10
911807.405
 20
7269198.341
 30
0.0
 40
8.0
  1
174.90'
 50
358.2167
  7
ROMANS
210
0.0
220
0.0
230
1.0
  0
TEXT
  8
11
  6
CONTINUOUS
 62
     7
  5
498
 10
913006.99
 20
7270438.117
 30
0.0
 40
8.0
  1
2598.81'
 50
88.2167
  7
ROMANS
210
0.0
220
0.0
230
1.0
  0
TEXT
  8
11
  6
CONTINUOUS
 62
     7
  5
499
 10
910813.277
 20
7269229.098
 30
0.0
 40
7.0
  1
26.50'
 50
358.2167
  7
ROMANS
210
0.0
220
0.0
230
1.0
  0
TEXT
  8
11
  6
CONTINUOUS
 62
     7
  5
49A
 10
915118.144
 20
7273447.411
 30
0.0
 40
5.0
  1
110.73'
 50
358.2167
  7
ROMANS
210
0.0
220
0.0
230
1.0
  0
TEXT
  8
11
  6
CONTINUOUS
 62
     7
  5
49B
 10
915119.414
 20
7273476.017
 30
0.0
 40
5.0
  1
111.36'
 50
358.2167
  7
ROMANS
210
0.0
220
0.0
230
1.0
  0
TEXT
  8
11
  6
CONTINUOUS
 62
     7
  5
49C
 10
915070.392
 20
7271914.14
 30
0.0
 40
8.0
  1
110.73'
 50
358.2167
  7
ROMANS
210
0.0
220
0.0
230
1.0
  0
TEXT
  8
11
  6
CONTINUOUS
 62
     7
  5
49D
 10
915224.875
 20
7271830.038
 30
0.0
 40
8.0
  1
65'
 50
358.2167
  7
ROMANS
210
0.0
220
0.0
230
1.0
  0
TEXT
  8
11
  6
CONTINUOUS
 62
     7
  5
49E
 10
915572.084
 20
7271818.587
 30
0.0
 40
8.0
  1
70'
 50
358.2167
  7
ROMANS
210
0.0
220
0.0
230
1.0
  0
TEXT
  8
11
  6
CONTINUOUS
 62
     7
  5
49F
 10
915210.935
 20
7271759.032
 30
0.0
 40
8.0
  1
109.02'
 50
88.2167
  7
ROMANS
210
0.0
220
0.0
230
1.0
  0
TEXT
  8
11
  6
CONTINUOUS
 62
     7
  5
4A0
 10
915275.268
 20
7271757.517
 30
0.0
 40
8.0
  1
119.98'
 50
88.2167
  7
ROMANS
210
0.0
220
0.0
230
1.0
  0
TEXT
  8
11
  6
CONTINUOUS
 62
     7
  5
4A1
 10
915557.876
 20
7271748.718
 30
0.0
 40
8.0
  1
119.98'
 50
88.2167
  7
ROMANS
210
0.0
220
0.0
230
1.0
  0
TEXT
  8
11
  6
CONTINUOUS
 62
     7
  5
4A2
 10
915262.601
 20
7273640.577
 30
0.0
 40
4.999
  1
28.50'
 50
358.2167
  7
ROMANS
210
0.0
220
0.0
230
1.0
  0
TEXT
  8
11
  6
CONTINUOUS
 62
     7
  5
4A3
 10
915392.472
 20
7273461.54
 30
0.0
 40
8.0
  1
56'
 50
358.2167
  7
ROMANS
210
0.0
220
0.0
230
1.0
  0
TEXT
  8
11
  6
CONTINUOUS
 62
     7
  5
4A4
 10
915452.81
 20
7273459.661
 30
0.0
 40
8.0
  1
56'
 50
358.2167
  7
ROMANS
210
0.0
220
0.0
230
1.0
  0
TEXT
  8
11
  6
CONTINUOUS
 62
     7
  5
4A5
 10
915386.171
 20
7273237.319
 30
0.0
 40
8.0
  1
56'
 50
358.2167
  7
ROMANS
210
0.0
220
0.0
230
1.0
  0
TEXT
  8
11
  6
CONTINUOUS
 62
     7
  5
4A6
 10
915445.703
 20
7273235.466
 30
0.0
 40
8.0
  1
56'
 50
358.2167
  7
ROMANS
210
0.0
220
0.0
230
1.0
  0
TEXT
  8
11
  6
CONTINUOUS
 62
     7
  5
4A7
 10
915305.028
 20
7273201.091
 30
0.0
 40
8.0
  1
56'
 50
88.2167
  7
ROMANS
210
0.0
220
0.0
230
1.0
  0
TEXT
  8
11
  6
CONTINUOUS
 62
     7
  5
4A8
 10
915385.326
 20
7273166.571
 30
0.0
 40
8.0
  1
56'
 50
358.2167
  7
ROMANS
210
0.0
220
0.0
230
1.0
  0
TEXT
  8
11
  6
CONTINUOUS
 62
     7
  5
4A9
 10
915443.251
 20
7273164.768
 30
0.0
 40
8.0
  1
56'
 50
358.2167
  7
ROMANS
210
0.0
220
0.0
230
1.0
  0
TEXT
  8
11
  6
CONTINUOUS
 62
     7
  5
4AA
 10
915379.514
 20
7272940.913
 30
0.0
 40
8.0
  1
56'
 50
358.2167
  7
ROMANS
210
0.0
220
0.0
230
1.0
  0
TEXT
  8
11
  6
CONTINUOUS
 62
     7
  5
4AB
 10
915436.23
 20
7272939.147
 30
0.0
 40
8.0
  1
56'
 50
358.2167
  7
ROMANS
210
0.0
220
0.0
230
1.0
  0
TEXT
  8
11
  6
CONTINUOUS
 62
     7
  5
4AC
 10
915377.564
 20
7272870.198
 30
0.0
 40
8.0
  1
56'
 50
358.2167
  7
ROMANS
210
0.0
220
0.0
230
1.0
  0
TEXT
  8
11
  6
CONTINUOUS
 62
     7
  5
4AD
 10
915435.487
 20
7272868.395
 30
0.0
 40
8.0
  1
56'
 50
358.2167
  7
ROMANS
210
0.0
220
0.0
230
1.0
  0
TEXT
  8
11
  6
CONTINUOUS
 62
     7
  5
4AE
 10
915525.362
 20
7272896.44
 30
0.0
 40
8.0
  1
56'
 50
88.2167
  7
ROMANS
210
0.0
220
0.0
230
1.0
  0
TEXT
  8
11
  6
CONTINUOUS
 62
     7
  5
4AF
 10
915367.393
 20
7272645.561
 30
0.0
 40
8.0
  1
56'
 50
358.2167
  7
ROMANS
210
0.0
220
0.0
230
1.0
  0
TEXT
  8
11
  6
CONTINUOUS
 62
     7
  5
4B0
 10
915429.741
 20
7272643.62
 30
0.0
 40
8.0
  1
56'
 50
358.2167
  7
ROMANS
210
0.0
220
0.0
230
1.0
  0
TEXT
  8
11
  6
CONTINUOUS
 62
     7
  5
4B1
 10
915427.511
 20
7272571.973
 30
0.0
 40
8.0
  1
56'
 50
358.2167
  7
ROMANS
210
0.0
220
0.0
230
1.0
  0
TEXT
  8
11
  6
CONTINUOUS
 62
     7
  5
4B2
 10
915365.565
 20
7272573.9
 30
0.0
 40
8.0
  1
56'
 50
358.2167
  7
ROMANS
210
0.0
220
0.0
230
1.0
  0
TEXT
  8
11
  6
CONTINUOUS
 62
     7
  5
4B3
 10
915359.255
 20
7272348.073
 30
0.0
 40
8.0
  1
56'
 50
358.2167
  7
ROMANS
210
0.0
220
0.0
230
1.0
  0
TEXT
  8
11
  6
CONTINUOUS
 62
     7
  5
4B4
 10
915419.592
 20
7272346.195
 30
0.0
 40
8.0
  1
56'
 50
358.2167
  7
ROMANS
210
0.0
220
0.0
230
1.0
  0
TEXT
  8
11
  6
CONTINUOUS
 62
     7
  5
4B5
 10
915472.688
 20
7272344.542
 30
0.0
 40
8.0
  1
56'
 50
358.2167
  7
ROMANS
210
0.0
220
0.0
230
1.0
  0
TEXT
  8
11
  6
CONTINUOUS
 62
     7
  5
4B6
 10
915356.96
 20
7272279.335
 30
0.0
 40
8.0
  1
56'
 50
358.2167
  7
ROMANS
210
0.0
220
0.0
230
1.0
  0
TEXT
  8
11
  6
CONTINUOUS
 62
     7
  5
4B7
 10
915516.73
 20
7272305.638
 30
0.0
 40
8.0
  1
56'
 50
88.2167
  7
ROMANS
210
0.0
220
0.0
230
1.0
  0
TEXT
  8
11
  6
CONTINUOUS
 62
     7
  5
4B8
 10
915349.048
 20
7272038.082
 30
0.0
 40
8.0
  1
56'
 50
358.2167
  7
ROMANS
210
0.0
220
0.0
230
1.0
  0
TEXT
  8
11
  6
CONTINUOUS
 62
     7
  5
4B9
 10
915408.984
 20
7272036.216
 30
0.0
 40
8.0
  1
56'
 50
358.2167
  7
ROMANS
210
0.0
220
0.0
230
1.0
  0
TEXT
  8
11
  6
CONTINUOUS
 62
     7
  5
4BA
 10
915406.778
 20
7271965.372
 30
0.0
 40
8.0
  1
56'
 50
358.2167
  7
ROMANS
210
0.0
220
0.0
230
1.0
  0
TEXT
  8
11
  6
CONTINUOUS
 62
     7
  5
4BB
 10
915348.05
 20
7271967.202
 30
0.0
 40
8.0
  1
56'
 50
358.2167
  7
ROMANS
210
0.0
220
0.0
230
1.0
  0
TEXT
  8
11
  6
CONTINUOUS
 62
     7
  5
4BC
 10
915502.168
 20
7271992.561
 30
0.0
 40
8.0
  1
56'
 50
88.2167
  7
ROMANS
210
0.0
220
0.0
230
1.0
  0
TEXT
  8
11
  6
CONTINUOUS
 62
     7
  5
4BD
 10
915399.07
 20
7271719.464
 30
0.0
 40
8.0
  1
56'
 50
358.2167
  7
ROMANS
210
0.0
220
0.0
230
1.0
  0
TEXT
  8
11
  6
CONTINUOUS
 62
     7
  5
4BE
 10
915215.13
 20
7271905.885
 30
0.0
 40
8.0
  1
105'
 50
88.2167
  7
ROMANS
210
0.0
220
0.0
230
1.0
  0
TEXT
  8
11
  6
CONTINUOUS
 62
     7
  5
4BF
 10
915280.697
 20
7271903.845
 30
0.0
 40
8.0
  1
120'
 50
88.2167
  7
ROMANS
210
0.0
220
0.0
230
1.0
  0
TEXT
  8
11
  6
CONTINUOUS
 62
     7
  5
4C0
 10
915505.554
 20
7271896.843
 30
0.0
 40
8.0
  1
120'
 50
88.2167
  7
ROMANS
210
0.0
220
0.0
230
1.0
  0
TEXT
  8
11
  6
CONTINUOUS
 62
     7
  5
4C1
 10
915562.86
 20
7271901.103
 30
0.0
 40
8.0
  1
98'
 50
88.2167
  7
ROMANS
210
0.0
220
0.0
230
1.0
  0
TEXT
  8
11
  6
CONTINUOUS
 62
     7
  5
4C2
 10
915225.796
 20
7272221.643
 30
0.0
 40
8.0
  1
101'
 50
88.2167
  7
ROMANS
210
0.0
220
0.0
230
1.0
  0
TEXT
  8
11
  6
CONTINUOUS
 62
     7
  5
4C3
 10
915290.143
 20
7272219.237
 30
0.0
 40
8.0
  1
116'
 50
88.2167
  7
ROMANS
210
0.0
220
0.0
230
1.0
  0
TEXT
  8
11
  6
CONTINUOUS
 62
     7
  5
4C4
 10
915513.78
 20
7272211.87
 30
0.0
 40
8.0
  1
116'
 50
88.2167
  7
ROMANS
210
0.0
220
0.0
230
1.0
  0
TEXT
  8
11
  6
CONTINUOUS
 62
     7
  5
4C5
 10
915573.399
 20
7272212.834
 30
0.0
 40
8.0
  1
94'
 50
88.2167
  7
ROMANS
210
0.0
220
0.0
230
1.0
  0
TEXT
  8
11
  6
CONTINUOUS
 62
     7
  5
4C6
 10
915221.525
 20
7272085.381
 30
0.0
 40
8.0
  1
105'
 50
88.2167
  7
ROMANS
210
0.0
220
0.0
230
1.0
  0
TEXT
  8
11
  6
CONTINUOUS
 62
     7
  5
4C7
 10
915285.897
 20
7272083.781
 30
0.0
 40
8.0
  1
120'
 50
88.2167
  7
ROMANS
210
0.0
220
0.0
230
1.0
  0
TEXT
  8
11
  6
CONTINUOUS
 62
     7
  5
4C8
 10
915511.167
 20
7272077.17
 30
0.0
 40
8.0
  1
120'
 50
88.2167
  7
ROMANS
210
0.0
220
0.0
230
1.0
  0
TEXT
  8
11
  6
CONTINUOUS
 62
     7
  5
4C9
 10
915566.412
 20
7272079.882
 30
0.0
 40
8.0
  1
98'
 50
88.2167
  7
ROMANS
210
0.0
220
0.0
230
1.0
  0
TEXT
  8
11
  6
CONTINUOUS
 62
     7
  5
4CA
 10
915232.046
 20
7272397.993
 30
0.0
 40
8.0
  1
95'
 50
88.2167
  7
ROMANS
210
0.0
220
0.0
230
1.0
  0
TEXT
  8
11
  6
CONTINUOUS
 62
     7
  5
4CB
 10
915295.426
 20
7272390.379
 30
0.0
 40
8.0
  1
110'
 50
88.2167
  7
ROMANS
210
0.0
220
0.0
230
1.0
  0
TEXT
  8
11
  6
CONTINUOUS
 62
     7
  5
4CC
 10
915521.462
 20
7272382.535
 30
0.0
 40
8.0
  1
110'
 50
88.2167
  7
ROMANS
210
0.0
220
0.0
230
1.0
  0
TEXT
  8
11
  6
CONTINUOUS
 62
     7
  5
4CD
 10
915578.291
 20
7272384.393
 30
0.0
 40
8.0
  1
88'
 50
88.2167
  7
ROMANS
210
0.0
220
0.0
230
1.0
  0
TEXT
  8
11
  6
CONTINUOUS
 62
     7
  5
4CE
 10
915236.031
 20
7272525.993
 30
0.0
 40
8.0
  1
95'
 50
88.2167
  7
ROMANS
210
0.0
220
0.0
230
1.0
  0
TEXT
  8
11
  6
CONTINUOUS
 62
     7
  5
4CF
 10
915299.047
 20
7272519.599
 30
0.0
 40
8.0
  1
110'
 50
88.2167
  7
ROMANS
210
0.0
220
0.0
230
1.0
  0
TEXT
  8
11
  6
CONTINUOUS
 62
     7
  5
4D0
 10
915581.398
 20
7272510.001
 30
0.0
 40
8.0
  1
110'
 50
88.2167
  7
ROMANS
210
0.0
220
0.0
230
1.0
  0
TEXT
  8
11
  6
CONTINUOUS
 62
     7
  5
4D1
 10
915240.615
 20
7272699.098
 30
0.0
 40
8.0
  1
95'
 50
88.2167
  7
ROMANS
210
0.0
220
0.0
230
1.0
  0
TEXT
  8
11
  6
CONTINUOUS
 62
     7
  5
4D2
 10
915303.254
 20
7272693.523
 30
0.0
 40
8.0
  1
110'
 50
88.2167
  7
ROMANS
210
0.0
220
0.0
230
1.0
  0
TEXT
  8
11
  6
CONTINUOUS
 62
     7
  5
4D3
 10
915585.593
 20
7272683.524
 30
0.0
 40
8.0
  1
110'
 50
88.2167
  7
ROMANS
210
0.0
220
0.0
230
1.0
  0
TEXT
  8
11
  6
CONTINUOUS
 62
     7
  5
4D4
 10
915244.488
 20
7272823.475
 30
0.0
 40
8.0
  1
95'
 50
88.2167
  7
ROMANS
210
0.0
220
0.0
230
1.0
  0
TEXT
  8
11
  6
CONTINUOUS
 62
     7
  5
4D5
 10
915307.867
 20
7272815.862
 30
0.0
 40
8.0
  1
110'
 50
88.2167
  7
ROMANS
210
0.0
220
0.0
230
1.0
  0
TEXT
  8
11
  6
CONTINUOUS
 62
     7
  5
4D6
 10
915533.099
 20
7272808.043
 30
0.0
 40
8.0
  1
110'
 50
88.2167
  7
ROMANS
210
0.0
220
0.0
230
1.0
  0
TEXT
  8
11
  6
CONTINUOUS
 62
     7
  5
4D7
 10
915589.163
 20
7272810.968
 30
0.0
 40
8.0
  1
88'
 50
88.2167
  7
ROMANS
210
0.0
220
0.0
230
1.0
  0
TEXT
  8
11
  6
CONTINUOUS
 62
     7
  5
4D8
 10
915249.287
 20
7272990.531
 30
0.0
 40
8.0
  1
95'
 50
88.2167
  7
ROMANS
210
0.0
220
0.0
230
1.0
  0
TEXT
  8
11
  6
CONTINUOUS
 62
     7
  5
4D9
 10
915313.056
 20
7272982.503
 30
0.0
 40
8.0
  1
110'
 50
88.2167
  7
ROMANS
210
0.0
220
0.0
230
1.0
  0
TEXT
  8
11
  6
CONTINUOUS
 62
     7
  5
4DA
 10
915538.288
 20
7272974.684
 30
0.0
 40
8.0
  1
110'
 50
88.2167
  7
ROMANS
210
0.0
220
0.0
230
1.0
  0
TEXT
  8
11
  6
CONTINUOUS
 62
     7
  5
4DB
 10
915594.728
 20
7272976.791
 30
0.0
 40
8.0
  1
88'
 50
88.2167
  7
ROMANS
210
0.0
220
0.0
230
1.0
  0
TEXT
  8
11
  6
CONTINUOUS
 62
     7
  5
4DC
 10
915255.22
 20
7273116.456
 30
0.0
 40
8.0
  1
95'
 50
88.2167
  7
ROMANS
210
0.0
220
0.0
230
1.0
  0
TEXT
  8
11
  6
CONTINUOUS
 62
     7
  5
4DD
 10
915317.844
 20
7273110.476
 30
0.0
 40
8.0
  1
110'
 50
88.2167
  7
ROMANS
210
0.0
220
0.0
230
1.0
  0
TEXT
  8
11
  6
CONTINUOUS
 62
     7
  5
4DE
 10
915541.054
 20
7273102.318
 30
0.0
 40
8.0
  1
110'
 50
88.2167
  7
ROMANS
210
0.0
220
0.0
230
1.0
  0
TEXT
  8
11
  6
CONTINUOUS
 62
     7
  5
4DF
 10
915597.884
 20
7273104.011
 30
0.0
 40
8.0
  1
88'
 50
88.2167
  7
ROMANS
210
0.0
220
0.0
230
1.0
  0
TEXT
  8
11
  6
CONTINUOUS
 62
     7
  5
4E0
 10
915260.082
 20
7273285.524
 30
0.0
 40
8.0
  1
95'
 50
88.2167
  7
ROMANS
210
0.0
220
0.0
230
1.0
  0
TEXT
  8
11
  6
CONTINUOUS
 62
     7
  5
4E1
 10
915323.033
 20
7273277.116
 30
0.0
 40
8.0
  1
110'
 50
88.2167
  7
ROMANS
210
0.0
220
0.0
230
1.0
  0
TEXT
  8
11
  6
CONTINUOUS
 62
     7
  5
4E2
 10
915547.097
 20
7273270.544
 30
0.0
 40
8.0
  1
110'
 50
88.2167
  7
ROMANS
210
0.0
220
0.0
230
1.0
  0
TEXT
  8
11
  6
CONTINUOUS
 62
     7
  5
4E3
 10
915604.366
 20
7273273.432
 30
0.0
 40
8.0
  1
88'
 50
88.2167
  7
ROMANS
210
0.0
220
0.0
230
1.0
  0
TEXT
  8
11
  6
CONTINUOUS
 62
     7
  5
4E4
 10
915264.042
 20
7273412.718
 30
0.0
 40
8.0
  1
95'
 50
88.2167
  7
ROMANS
210
0.0
220
0.0
230
1.0
  0
TEXT
  8
11
  6
CONTINUOUS
 62
     7
  5
4E5
 10
915328.249
 20
7273405.883
 30
0.0
 40
8.0
  1
110'
 50
88.2167
  7
ROMANS
210
0.0
220
0.0
230
1.0
  0
TEXT
  8
11
  6
CONTINUOUS
 62
     7
  5
4E6
 10
915608.992
 20
7273396.336
 30
0.0
 40
8.0
  1
110'
 50
88.2167
  7
ROMANS
210
0.0
220
0.0
230
1.0
  0
TEXT
  8
11
  6
CONTINUOUS
 62
     7
  5
4E7
 10
915170.912
 20
7272832.533
 30
0.0
 40
8.0
  1
55'
 50
88.2167
  7
ROMANS
210
0.0
220
0.0
230
1.0
  0
TEXT
  8
11
  6
CONTINUOUS
 62
     7
  5
4E8
 10
915169.22
 20
7272778.193
 30
0.0
 40
8.0
  1
55'
 50
88.2167
  7
ROMANS
210
0.0
220
0.0
230
1.0
  0
TEXT
  8
11
  6
CONTINUOUS
 62
     7
  5
4E9
 10
915165.454
 20
7272721.903
 30
0.0
 40
8.0
  1
55'
 50
88.2167
  7
ROMANS
210
0.0
220
0.0
230
1.0
  0
TEXT
  8
11
  6
CONTINUOUS
 62
     7
  5
4EA
 10
915161.559
 20
7272557.986
 30
0.0
 40
8.0
  1
50'
 50
88.2167
  7
ROMANS
210
0.0
220
0.0
230
1.0
  0
TEXT
  8
11
  6
CONTINUOUS
 62
     7
  5
4EB
 10
915159.25
 20
7272509.711
 30
0.0
 40
8.0
  1
50'
 50
88.2167
  7
ROMANS
210
0.0
220
0.0
230
1.0
  0
TEXT
  8
11
  6
CONTINUOUS
 62
     7
  5
4EC
 10
915154.734
 20
7272351.743
 30
0.0
 40
8.0
  1
55'
 50
88.2167
  7
ROMANS
210
0.0
220
0.0
230
1.0
  0
TEXT
  8
11
  6
CONTINUOUS
 62
     7
  5
4ED
 10
915152.59
 20
7272295.805
 30
0.0
 40
8.0
  1
55'
 50
88.2167
  7
ROMANS
210
0.0
220
0.0
230
1.0
  0
TEXT
  8
11
  6
CONTINUOUS
 62
     7
  5
4EE
 10
915147.751
 20
7272140.386
 30
0.0
 40
8.0
  1
50'
 50
88.2167
  7
ROMANS
210
0.0
220
0.0
230
1.0
  0
TEXT
  8
11
  6
CONTINUOUS
 62
     7
  5
4EF
 10
915145.807
 20
7272090.889
 30
0.0
 40
8.0
  1
50'
 50
88.2167
  7
ROMANS
210
0.0
220
0.0
230
1.0
  0
TEXT
  8
11
  6
CONTINUOUS
 62
     7
  5
4F0
 10
915144.203
 20
7272039.368
 30
0.0
 40
8.0
  1
50'
 50
88.2167
  7
ROMANS
210
0.0
220
0.0
230
1.0
  0
TEXT
  8
11
  6
CONTINUOUS
 62
     7
  5
4F1
 10
915143.039
 20
7271989.04
 30
0.0
 40
8.0
  1
50'
 50
88.2167
  7
ROMANS
210
0.0
220
0.0
230
1.0
  0
TEXT
  8
11
  6
CONTINUOUS
 62
     7
  5
4F2
 10
911804.496
 20
7271359.107
 30
0.0
 40
8.0
  1
145'
 50
88.2167
  7
ROMANS
210
0.0
220
0.0
230
1.0
  0
TEXT
  8
11
  6
CONTINUOUS
 62
     7
  5
4F3
 10
911727.957
 20
7271360.662
 30
0.0
 40
8.0
  1
145'
 50
88.2167
  7
ROMANS
210
0.0
220
0.0
230
1.0
  0
TEXT
  8
11
  6
CONTINUOUS
 62
     7
  5
4F4
 10
911963.84
 20
7271211.464
 30
0.0
 40
8.0
  1
145'
 50
88.2167
  7
ROMANS
210
0.0
220
0.0
230
1.0
  0
TEXT
  8
11
  6
CONTINUOUS
 62
     7
  5
4F5
 10
911560.023
 20
7271219.065
 30
0.0
 40
8.0
  1
145'
 50
88.2167
  7
ROMANS
210
0.0
220
0.0
230
1.0
  0
TEXT
  8
11
  6
CONTINUOUS
 62
     7
  5
4F6
 10
911714.615
 20
7270920.025
 30
0.0
 40
8.0
  1
133.50'
 50
88.2167
  7
ROMANS
210
0.0
220
0.0
230
1.0
  0
TEXT
  8
11
  6
CONTINUOUS
 62
     7
  5
4F7
 10
911789.953
 20
7270919.75
 30
0.0
 40
8.0
  1
133.50'
 50
88.2167
  7
ROMANS
210
0.0
220
0.0
230
1.0
  0
TEXT
  8
11
  6
CONTINUOUS
 62
     7
  5
4F8
 10
911955.4
 20
7270915.013
 30
0.0
 40
8.0
  1
148.50'
 50
88.2167
  7
ROMANS
210
0.0
220
0.0
230
1.0
  0
TEXT
  8
11
  6
CONTINUOUS
 62
     7
  5
4F9
 10
911550.42
 20
7270925.137
 30
0.0
 40
8.0
  1
148.50'
 50
88.2167
  7
ROMANS
210
0.0
220
0.0
230
1.0
  0
TEXT
  8
11
  6
CONTINUOUS
 62
     7
  5
4FA
 10
910430.568
 20
7270031.346
 30
0.0
 40
8.0
  1
135'
 50
88.2167
  7
ROMANS
210
0.0
220
0.0
230
1.0
  0
TEXT
  8
11
  6
CONTINUOUS
 62
     7
  5
4FB
 10
910425.156
 20
7269892.395
 30
0.0
 40
8.0
  1
135'
 50
88.2167
  7
ROMANS
210
0.0
220
0.0
230
1.0
  0
TEXT
  8
11
  6
CONTINUOUS
 62
     7
  5
4FC
 10
910420.014
 20
7269762.13
 30
0.0
 40
8.0
  1
135'
 50
88.2167
  7
ROMANS
210
0.0
220
0.0
230
1.0
  0
TEXT
  8
11
  6
CONTINUOUS
 62
     7
  5
4FD
 10
910417.89
 20
7269624.162
 30
0.0
 40
8.0
  1
135'
 50
88.2167
  7
ROMANS
210
0.0
220
0.0
230
1.0
  0
TEXT
  8
11
  6
CONTINUOUS
 62
     7
  5
4FE
 10
911770.194
 20
7270199.522
 30
0.0
 40
8.0
  1
190'
 50
88.2167
  7
ROMANS
210
0.0
220
0.0
230
1.0
  0
TEXT
  8
11
  6
CONTINUOUS
 62
     7
  5
4FF
 10
911687.604
 20
7270135.44
 30
0.0
 40
8.0
  1
115'
 50
88.2167
  7
ROMANS
210
0.0
220
0.0
230
1.0
  0
TEXT
  8
11
  6
CONTINUOUS
 62
     7
  5
500
 10
911691.429
 20
7270258.255
 30
0.0
 40
8.0
  1
115'
 50
88.2167
  7
ROMANS
210
0.0
220
0.0
230
1.0
  0
TEXT
  8
11
  6
CONTINUOUS
 62
     7
  5
501
 10
911694.927
 20
7270370.618
 30
0.0
 40
8.0
  1
115'
 50
88.2167
  7
ROMANS
210
0.0
220
0.0
230
1.0
  0
TEXT
  8
11
  6
CONTINUOUS
 62
     7
  5
502
 10
911698.317
 20
7270479.498
 30
0.0
 40
8.0
  1
115'
 50
88.2167
  7
ROMANS
210
0.0
220
0.0
230
1.0
  0
INSERT
  8
11
  6
CONTINUOUS
 62
     7
  5
508
  2
*D11
 10
910827.967
 20
7269223.9
 30
0.0
 70
     0
 71
     0
  0
INSERT
  8
11
  6
CONTINUOUS
 62
     7
  5
50E
  2
*D12
 10
914427.041
 20
7274275.757
 30
0.0
 70
     0
 71
     0
  0
INSERT
  8
11
  6
CONTINUOUS
 62
     7
  5
514
  2
*D13
 10
915093.255
 20
7273648.452
 30
0.0
 70
     0
 71
     0
  0
INSERT
  8
11
  6
CONTINUOUS
 62
     7
  5
51A
  2
*D14
 10
915179.111
 20
7273650.781
 30
0.0
 70
     0
 71
     0
  0
INSERT
  8
11
  6
CONTINUOUS
 62
     7
  5
520
  2
*D15
 10
915082.306
 20
7273569.936
 30
0.0
 70
     0
 71
     0
  0
TEXT
  8
11
  6
CONTINUOUS
 62
     7
  5
521
 10
915200.029
 20
7273420.164
 30
0.0
 40
5.0
  1
CH=16.09'
 50
88.2167
  7
ROMANS
210
0.0
220
0.0
230
1.0
  0
INSERT
  8
11
  6
CONTINUOUS
 62
     7
  5
52F
  2
*D16
 10
915195.206
 20
7273475.557
 30
0.0
 70
     0
 71
     0
  0
TEXT
  8
11
  6
CONTINUOUS
 62
     7
  5
530
 10
915211.536
 20
7273442.598
 30
0.0
 40
5.0
  1
CH=22.29'
 50
88.2167
  7
ROMANS
210
0.0
220
0.0
230
1.0
  0
INSERT
  8
11
  6
CONTINUOUS
 62
     7
  5
53E
  2
*D17
 10
915201.098
 20
7273491.213
 30
0.0
 70
     0
 71
     0
  0
TEXT
  8
11
  6
CONTINUOUS
 62
     7
  5
53F
 10
915222.394
 20
7273456.554
 30
0.0
 40
5.0
  1
CH=22.83'
 50
88.2167
  7
ROMANS
210
0.0
220
0.0
230
1.0
  0
INSERT
  8
11
  6
CONTINUOUS
 62
     7
  5
54D
  2
*D18
 10
915209.715
 20
7273507.557
 30
0.0
 70
     0
 71
     0
  0
TEXT
  8
11
  6
CONTINUOUS
 62
     7
  5
54E
 10
915233.712
 20
7273509.534
 30
0.0
 40
5.0
  1
CH=20.85'
 50
358.2167
  7
ROMANS
210
0.0
220
0.0
230
1.0
  0
INSERT
  8
11
  6
CONTINUOUS
 62
     7
  5
55C
  2
*D19
 10
915226.406
 20
7273522.875
 30
0.0
 70
     0
 71
     0
  0
TEXT
  8
11
  6
CONTINUOUS
 62
     7
  5
55D
 10
915247.849
 20
7273517.206
 30
0.0
 40
5.0
  1
CH=24.35'
 50
358.2167
  7
ROMANS
210
0.0
220
0.0
230
1.0
  0
INSERT
  8
11
  6
CONTINUOUS
 62
     7
  5
56B
  2
*D20
 10
915242.097
 20
7273530.887
 30
0.0
 70
     0
 71
     0
  0
TEXT
  8
11
  6
CONTINUOUS
 62
     7
  5
56C
 10
915262.78
 20
7273525.627
 30
0.0
 40
5.0
  1
CH=11.01'
 50
358.2167
  7
ROMANS
210
0.0
220
0.0
230
1.0
  0
INSERT
  8
11
  6
CONTINUOUS
 62
     7
  5
57A
  2
*D21
 10
915259.248
 20
7273536.147
 30
0.0
 70
     0
 71
     0
  0
TEXT
  8
11
  6
CONTINUOUS
 62
     7
  5
57B
 10
915536.181
 20
7273239.725
 30
0.0
 40
5.0
  1
15.6'
 50
358.2167
  7
ROMANS
210
0.0
220
0.0
230
1.0
  0
TEXT
  8
11
  6
CONTINUOUS
 62
     7
  5
57C
 10
915533.176
 20
7273155.602
 30
0.0
 40
5.0
  1
15.6'
 50
358.2167
  7
ROMANS
210
0.0
220
0.0
230
1.0
  0
TEXT
  8
11
  6
CONTINUOUS
 62
     7
  5
57D
 10
915528.122
 20
7272943.655
 30
0.0
 40
5.0
  1
15.6'
 50
358.2167
  7
ROMANS
210
0.0
220
0.0
230
1.0
  0
TEXT
  8
11
  6
CONTINUOUS
 62
     7
  5
57E
 10
915524.671
 20
7272857.613
 30
0.0
 40
5.0
  1
15.6'
 50
358.2167
  7
ROMANS
210
0.0
220
0.0
230
1.0
  0
TEXT
  8
11
  6
CONTINUOUS
 62
     7
  5
57F
 10
915510.893
 20
7272353.081
 30
0.0
 40
5.0
  1
15.6'
 50
358.2167
  7
ROMANS
210
0.0
220
0.0
230
1.0
  0
TEXT
  8
11
  6
CONTINUOUS
 62
     7
  5
580
 10
915507.056
 20
7272267.052
 30
0.0
 40
5.0
  1
15.6'
 50
358.2167
  7
ROMANS
210
0.0
220
0.0
230
1.0
  0
TEXT
  8
11
  6
CONTINUOUS
 62
     7
  5
581
 10
915500.388
 20
7272040.471
 30
0.0
 40
5.0
  1
15.6'
 50
358.2167
  7
ROMANS
210
0.0
220
0.0
230
1.0
  0
TEXT
  8
11
  6
CONTINUOUS
 62
     7
  5
582
 10
915497.334
 20
7271954.804
 30
0.0
 40
5.0
  1
15.6'
 50
358.2167
  7
ROMANS
210
0.0
220
0.0
230
1.0
  0
INSERT
  8
11
  6
CONTINUOUS
 62
     7
  5
588
  2
*D22
 10
915020.171
 20
7271710.204
 30
0.0
 70
     0
 71
     0
  0
INSERT
  8
11
  6
CONTINUOUS
 62
     7
  5
58E
  2
*D23
 10
915575.186
 20
7269055.02
 30
0.0
 70
     0
 71
     0
  0
INSERT
  8
11
  6
CONTINUOUS
 62
     7
  5
594
  2
*D24
 10
915593.123
 20
7269509.002
 30
0.0
 70
     0
 71
     0
  0
INSERT
  8
11
  6
CONTINUOUS
 62
     7
  5
59A
  2
*D25
 10
915586.83
 20
7269305.702
 30
0.0
 70
     0
 71
     0
  0
TEXT
  8
11
  6
CONTINUOUS
 62
     7
  5
59B
 10
910958.794
 20
7269757.201
 30
0.0
 40
8.0
  1
9
 50
73.65695
  7
ROMANS
 72
     1
 11
910959.450478
 21
7269759.439733
 31
0.0
210
0.0
220
0.0
230
1.0
  0
TEXT
  8
11
  6
CONTINUOUS
 62
     7
  5
59C
 10
910961.67
 20
7269766.022
 30
0.0
 40
8.0
  1
1
 50
68.363722
  7
ROMANS
 72
     1
 11
910962.161495
 21
7269767.261081
 31
0.0
210
0.0
220
0.0
230
1.0
  0
TEXT
  8
11
  6
CONTINUOUS
 62
     7
  5
59D
 10
910965.067
 20
7269773.559
 30
0.0
 40
8.0
  1
.
 50
63.070492
  7
ROMANS
 72
     1
 11
910965.665726
 21
7269774.737648
 31
0.0
210
0.0
220
0.0
230
1.0
  0
TEXT
  8
11
  6
CONTINUOUS
 62
     7
  5
59E
 10
910968.694
 20
7269779.85
 30
0.0
 40
8.0
  1
8
 50
57.777264
  7
ROMANS
 72
     1
 11
910969.937984
 21
7269781.823675
 31
0.0
210
0.0
220
0.0
230
1.0
  0
TEXT
  8
11
  6
CONTINUOUS
 62
     7
  5
59F
 10
910973.554
 20
7269786.896
 30
0.0
 40
8.0
  1
9
 50
47.190808
  7
ROMANS
 72
     1
 11
910975.139411
 21
7269788.607537
 31
0.0
210
0.0
220
0.0
230
1.0
  0
TEXT
  8
11
  6
CONTINUOUS
 62
     7
  5
5A0
 10
910979.89
 20
7269793.682
 30
0.0
 40
8.0
  1
'
 50
41.897581
  7
ROMANS
 72
     1
 11
910980.882205
 21
7269794.572179
 31
0.0
210
0.0
220
0.0
230
1.0
  0
TEXT
  8
11
  6
CONTINUOUS
 62
     7
  5
5A1
 10
910955.947
 20
7269702.507
 30
0.0
 40
8.0
  1
6
 50
296.002772
  7
ROMANS
 72
     1
 11
910964.241988
 21
7269703.74941
 31
0.0
210
0.0
220
0.0
230
1.0
 73
     3
  0
TEXT
  8
11
  6
CONTINUOUS
 62
     7
  5
5A2
 10
910960.097
 20
7269694.51
 30
0.0
 40
8.0
  1
6
 50
301.296
  7
ROMANS
 72
     1
 11
910968.241999
 21
7269696.512348
 31
0.0
210
0.0
220
0.0
230
1.0
 73
     3
  0
TEXT
  8
11
  6
CONTINUOUS
 62
     7
  5
5A3
 10
910965.764
 20
7269686.025
 30
0.0
 40
8.0
  1
.
 50
306.589228
  7
ROMANS
 72
     1
 11
910972.975446
 21
7269689.732119
 31
0.0
210
0.0
220
0.0
230
1.0
 73
     3
  0
TEXT
  8
11
  6
CONTINUOUS
 62
     7
  5
5A4
 10
910970.879
 20
7269679.873
 30
0.0
 40
8.0
  1
4
 50
311.882456
  7
ROMANS
 72
     1
 11
910978.39265
 21
7269683.476881
 31
0.0
210
0.0
220
0.0
230
1.0
 73
     3
  0
TEXT
  8
11
  6
CONTINUOUS
 62
     7
  5
5A5
 10
910977.964
 20
7269672.77
 30
0.0
 40
8.0
  1
8
 50
322.468914
  7
ROMANS
 72
     1
 11
910984.687657
 21
7269677.692939
 31
0.0
210
0.0
220
0.0
230
1.0
 73
     3
  0
TEXT
  8
11
  6
CONTINUOUS
 62
     7
  5
5A6
 10
910985.967
 20
7269666.739
 30
0.0
 40
8.0
  1
'
 50
327.762142
  7
ROMANS
 72
     1
 11
910991.361988
 21
7269672.794658
 31
0.0
210
0.0
220
0.0
230
1.0
 73
     3
  0
TEXT
  8
11
  6
CONTINUOUS
 62
     7
  5
5A7
 10
910970.473
 20
7269704.392
 30
0.0
 40
8.0
  1
R
 50
301.296
  7
ROMANS
 72
     1
 11
910971.782038
 21
7269702.238672
 31
0.0
210
0.0
220
0.0
230
1.0
  0
TEXT
  8
11
  6
CONTINUOUS
 62
     7
  5
5A8
 10
910973.982
 20
7269698.442
 30
0.0
 40
8.0
  1
=
 50
306.589228
  7
ROMANS
 72
     1
 11
910975.968714
 21
7269695.765836
 31
0.0
210
0.0
220
0.0
230
1.0
  0
TEXT
  8
11
  6
CONTINUOUS
 62
     7
  5
5A9
 10
910979.263
 20
7269691.493
 30
0.0
 40
8.0
  1
7
 50
311.882456
  7
ROMANS
 72
     1
 11
910980.820522
 21
7269689.756044
 31
0.0
210
0.0
220
0.0
230
1.0
  0
TEXT
  8
11
  6
CONTINUOUS
 62
     7
  5
5AA
 10
910984.559
 20
7269685.884
 30
0.0
 40
8.0
  1
5
 50
317.175683
  7
ROMANS
 72
     1
 11
910986.278187
 21
7269684.29066
 31
0.0
210
0.0
220
0.0
230
1.0
  0
TEXT
  8
11
  6
CONTINUOUS
 62
     7
  5
5AB
 10
910991.214
 20
7269680.245
 30
0.0
 40
8.0
  1
'
 50
322.468914
  7
ROMANS
 72
     1
 11
910992.2711
 21
7269679.432947
 31
0.0
210
0.0
220
0.0
230
1.0
  0
TEXT
  8
11
  6
CONTINUOUS
 62
     7
  5
5AC
 10
911044.551
 20
7269652.379
 30
0.0
 40
8.0
  1
9
 50
10.107964
  7
ROMANS
 72
     1
 11
911045.44376
 21
7269660.66428
 31
0.0
210
0.0
220
0.0
230
1.0
 73
     3
  0
TEXT
  8
11
  6
CONTINUOUS
 62
     7
  5
5AD
 10
911053.427
 20
7269653.971
 30
0.0
 40
8.0
  1
8
 50
15.401192
  7
ROMANS
 72
     1
 11
911053.551612
 21
7269662.303308
 31
0.0
210
0.0
220
0.0
230
1.0
 73
     3
  0
TEXT
  8
11
  6
CONTINUOUS
 62
     7
  5
5AE
 10
911063.026
 20
7269656.829
 30
0.0
 40
8.0
  1
.
 50
20.694419
  7
ROMANS
 72
     1
 11
911061.435633
 21
7269664.780001
 31
0.0
210
0.0
220
0.0
230
1.0
 73
     3
  0
TEXT
  8
11
  6
CONTINUOUS
 62
     7
  5
5AF
 10
911070.437
 20
7269659.851
 30
0.0
 40
8.0
  1
7
 50
25.987647
  7
ROMANS
 72
     1
 11
911069.028688
 21
7269668.064376
 31
0.0
210
0.0
220
0.0
230
1.0
 73
     3
  0
TEXT
  8
11
  6
CONTINUOUS
 62
     7
  5
5B0
 10
911078.393
 20
7269664.074
 30
0.0
 40
8.0
  1
2
 50
31.280875
  7
ROMANS
 72
     1
 11
911076.232986
 21
7269672.12243
 31
0.0
210
0.0
220
0.0
230
1.0
 73
     3
  0
TEXT
  8
11
  6
CONTINUOUS
 62
     7
  5
5B1
 10
911086.681
 20
7269669.696
 30
0.0
 40
8.0
  1
'
 50
36.574106
  7
ROMANS
 72
     1
 11
911082.984619
 21
7269676.914979
 31
0.0
210
0.0
220
0.0
230
1.0
 73
     3
  0
TEXT
  8
11
  6
CONTINUOUS
 62
     7
  5
5B2
 10
911100.642
 20
7269695.579
 30
0.0
 40
8.0
  1
R=15'
 50
313.2167
  7
ROMANS
210
0.0
220
0.0
230
1.0
  0
TEXT
  8
11
  6
CONTINUOUS
 62
     7
  5
5B3
 10
911059.827
 20
7269791.776
 30
0.0
 40
8.0
  1
R
 50
296.62685
  7
ROMANS
 72
     1
 11
911068.107963
 21
7269793.108685
 31
0.0
210
0.0
220
0.0
230
1.0
 73
     3
  0
TEXT
  8
11
  6
CONTINUOUS
 62
     7
  5
5B4
 10
911063.64
 20
7269784.263
 30
0.0
 40
8.0
  1
=
 50
303.109992
  7
ROMANS
 72
     1
 11
911072.161632
 21
7269785.841185
 31
0.0
210
0.0
220
0.0
230
1.0
 73
     3
  0
TEXT
  8
11
  6
CONTINUOUS
 62
     7
  5
5B5
 10
911069.58
 20
7269775.924
 30
0.0
 40
8.0
  1
5
 50
309.593133
  7
ROMANS
 72
     1
 11
911077.238622
 21
7269779.216391
 31
0.0
210
0.0
220
0.0
230
1.0
 73
     3
  0
TEXT
  8
11
  6
CONTINUOUS
 62
     7
  5
5B6
 10
911076.655
 20
7269768.628
 30
0.0
 40
8.0
  1
0
 50
322.559419
  7
ROMANS
 72
     1
 11
911083.623359
 21
7269773.368229
 31
0.0
210
0.0
220
0.0
230
1.0
 73
     3
  0
TEXT
  8
11
  6
CONTINUOUS
 62
     7
  5
5B7
 10
911085.286
 20
7269762.557
 30
0.0
 40
8.0
  1
'
 50
329.042561
  7
ROMANS
 72
     1
 11
911090.544323
 21
7269768.7317
 31
0.0
210
0.0
220
0.0
230
1.0
 73
     3
  0
TEXT
  8
11
  6
CONTINUOUS
 62
     7
  5
5B8
 10
910404.589
 20
7269258.833
 30
0.0
 40
8.0
  1
R=30'
 50
43.2167
  7
ROMANS
210
0.0
220
0.0
230
1.0
  0
TEXT
  8
11
  6
CONTINUOUS
 62
     7
  5
5B9
 10
911075.693
 20
7270362.649
 30
0.0
 40
8.0
  1
R=15'
 50
328.2167
  7
ROMANS
210
0.0
220
0.0
230
1.0
  0
TEXT
  8
11
  6
CONTINUOUS
 62
     7
  5
5BA
 10
910976.494
 20
7270414.037
 30
0.0
 40
8.0
  1
R
 50
356.031392
  7
ROMANS
 72
     1
 11
910979.561637
 21
7270421.843408
 31
0.0
210
0.0
220
0.0
230
1.0
 73
     3
  0
TEXT
  8
11
  6
CONTINUOUS
 62
     7
  5
5BB
 10
910982.819
 20
7270413.593
 30
0.0
 40
8.0
  1
=
 50
351.660778
  7
ROMANS
 72
     1
 11
910987.277028
 21
7270421.025017
 31
0.0
210
0.0
220
0.0
230
1.0
 73
     3
  0
TEXT
  8
11
  6
CONTINUOUS
 62
     7
  5
5BC
 10
910991.875
 20
7270412.133
 30
0.0
 40
8.0
  1
1
 50
347.290161
  7
ROMANS
 72
     1
 11
910994.935447
 21
7270419.643696
 31
0.0
210
0.0
220
0.0
230
1.0
 73
     3
  0
TEXT
  8
11
  6
CONTINUOUS
 62
     7
  5
5BD
 10
910998.835
 20
7270410.46
 30
0.0
 40
8.0
  1
1
 50
342.919544
  7
ROMANS
 72
     1
 11
911002.45892
 21
7270417.715625
 31
0.0
210
0.0
220
0.0
230
1.0
 73
     3
  0
TEXT
  8
11
  6
CONTINUOUS
 62
     7
  5
5BE
 10
911004.425
 20
7270408.774
 30
0.0
 40
8.0
  1
0
 50
338.548931
  7
ROMANS
 72
     1
 11
911009.818018
 21
7270415.250354
 31
0.0
210
0.0
220
0.0
230
1.0
 73
     3
  0
TEXT
  8
11
  6
CONTINUOUS
 62
     7
  5
5BF
 10
911012.531
 20
7270405.552
 30
0.0
 40
8.0
  1
'
 50
335.427331
  7
ROMANS
 72
     1
 11
911017.070053
 21
7270412.273153
 31
0.0
210
0.0
220
0.0
230
1.0
 73
     3
  0
TEXT
  8
11
  6
CONTINUOUS
 62
     7
  5
5C0
 10
910977.459
 20
7270428.003
 30
0.0
 40
8.0
  1
4
 50
356.031392
  7
ROMANS
 72
     1
 11
910979.786406
 21
7270427.841533
 31
0.0
210
0.0
220
0.0
230
1.0
  0
TEXT
  8
11
  6
CONTINUOUS
 62
     7
  5
5C1
 10
910985.656
 20
7270427.325
 30
0.0
 40
8.0
  1
5
 50
351.660778
  7
ROMANS
 72
     1
 11
910987.975216
 21
7270426.985041
 31
0.0
210
0.0
220
0.0
230
1.0
  0
TEXT
  8
11
  6
CONTINUOUS
 62
     7
  5
5C2
 10
910994.767
 20
7270425.832
 30
0.0
 40
8.0
  1
.
 50
347.290161
  7
ROMANS
 72
     1
 11
910996.056607
 21
7270425.541142
 31
0.0
210
0.0
220
0.0
230
1.0
  0
TEXT
  8
11
  6
CONTINUOUS
 62
     7
  5
5C3
 10
911001.798
 20
7270424.195
 30
0.0
 40
8.0
  1
3
 50
342.919544
  7
ROMANS
 72
     1
 11
911004.028099
 21
7270423.509765
 31
0.0
210
0.0
220
0.0
230
1.0
  0
TEXT
  8
11
  6
CONTINUOUS
 62
     7
  5
5C4
 10
911009.658
 20
7270421.76
 30
0.0
 40
8.0
  1
5
 50
338.548931
  7
ROMANS
 72
     1
 11
911011.839632
 21
7270420.902784
 31
0.0
210
0.0
220
0.0
230
1.0
  0
TEXT
  8
11
  6
CONTINUOUS
 62
     7
  5
5C5
 10
911018.176
 20
7270418.363
 30
0.0
 40
8.0
  1
'
 50
335.427331
  7
ROMANS
 72
     1
 11
911019.388276
 21
7270417.808676
 31
0.0
210
0.0
220
0.0
230
1.0
  0
TEXT
  8
11
  6
CONTINUOUS
 62
     7
  5
5C6
 10
911023.956
 20
7270398.134
 30
0.0
 40
8.0
  1
R=15'
 50
28.2167
  7
ROMANS
210
0.0
220
0.0
230
1.0
  0
TEXT
  8
11
  6
CONTINUOUS
 62
     7
  5
5C7
 10
911065.617
 20
7270346.136
 30
0.0
 40
8.0
  1
R
 50
286.402175
  7
ROMANS
 72
     1
 11
911074.003018
 21
7270345.977579
 31
0.0
210
0.0
220
0.0
230
1.0
 73
     3
  0
TEXT
  8
11
  6
CONTINUOUS
 62
     7
  5
5C8
 10
911067.369
 20
7270339.747
 30
0.0
 40
8.0
  1
=
 50
283.513856
  7
ROMANS
 72
     1
 11
911075.926365
 21
7270338.375723
 31
0.0
210
0.0
220
0.0
230
1.0
 73
     3
  0
TEXT
  8
11
  6
CONTINUOUS
 62
     7
  5
5C9
 10
911069.22
 20
7270330.766
 30
0.0
 40
8.0
  1
1
 50
279.143239
  7
ROMANS
 72
     1
 11
911077.330171
 21
7270330.721162
 31
0.0
210
0.0
220
0.0
230
1.0
 73
     3
  0
TEXT
  8
11
  6
CONTINUOUS
 62
     7
  5
5CA
 10
911070.088
 20
7270323.663
 30
0.0
 40
8.0
  1
1
 50
274.772622
  7
ROMANS
 72
     1
 11
911078.17117
 21
7270323.000235
 31
0.0
210
0.0
220
0.0
230
1.0
 73
     3
  0
TEXT
  8
11
  6
CONTINUOUS
 62
     7
  5
5CB
 10
911070.435
 20
7270317.841
 30
0.0
 40
8.0
  1
0
 50
270.402008
  7
ROMANS
 72
     1
 11
911078.453403
 21
7270315.246196
 31
0.0
210
0.0
220
0.0
230
1.0
 73
     3
  0
TEXT
  8
11
  6
CONTINUOUS
 62
     7
  5
5CC
 10
911079.394
 20
7270348.912
 30
0.0
 40
8.0
  1
3
 50
286.402175
  7
ROMANS
 72
     1
 11
911080.052788
 21
7270346.673946
 31
0.0
210
0.0
220
0.0
230
1.0
  0
TEXT
  8
11
  6
CONTINUOUS
 62
     7
  5
5CD
 10
911081.46
 20
7270341.028
 30
0.0
 40
8.0
  1
5
 50
283.513856
  7
ROMANS
 72
     1
 11
911082.007747
 21
7270338.748897
 31
0.0
210
0.0
220
0.0
230
1.0
  0
TEXT
  8
11
  6
CONTINUOUS
 62
     7
  5
5CE
 10
911083.207
 20
7270331.965
 30
0.0
 40
8.0
  1
.
 50
279.143239
  7
ROMANS
 72
     1
 11
911083.41707
 21
7270330.659797
 31
0.0
210
0.0
220
0.0
230
1.0
  0
TEXT
  8
11
  6
CONTINUOUS
 62
     7
  5
5CF
 10
911084.044
 20
7270324.797
 30
0.0
 40
8.0
  1
4
 50
274.772622
  7
ROMANS
 72
     1
 11
911084.23811
 21
7270322.472089
 31
0.0
210
0.0
220
0.0
230
1.0
  0
TEXT
  8
11
  6
CONTINUOUS
 62
     7
  5
5D0
 10
911084.444
 20
7270316.773
 30
0.0
 40
8.0
  1
6
 50
270.402008
  7
ROMANS
 72
     1
 11
911084.461681
 21
7270314.253062
 31
0.0
210
0.0
220
0.0
230
1.0
  0
TEXT
  8
11
  6
CONTINUOUS
 62
     7
  5
5D1
 10
911115.372
 20
7270516.128
 30
0.0
 40
6.0
  1
8
 50
16.547511
  7
ROMANS
 72
     1
 11
911117.049522
 21
7270516.626418
 31
0.0
210
0.0
220
0.0
230
1.0
  0
TEXT
  8
11
  6
CONTINUOUS
 62
     7
  5
5D2
 10
911122.198
 20
7270517.855
 30
0.0
 40
6.0
  1
1
 50
10.933133
  7
ROMANS
 72
     1
 11
911123.179849
 21
7270518.044663
 31
0.0
210
0.0
220
0.0
230
1.0
  0
TEXT
  8
11
  6
CONTINUOUS
 62
     7
  5
5D3
 10
911128.724
 20
7270518.761
 30
0.0
 40
6.0
  1
.
 50
359.704375
  7
ROMANS
 72
     1
 11
911129.715987
 21
7270518.755882
 31
0.0
210
0.0
220
0.0
230
1.0
  0
TEXT
  8
11
  6
CONTINUOUS
 62
     7
  5
5D4
 10
911134.266
 20
7270518.78
 30
0.0
 40
6.0
  1
2
 50
354.089997
  7
ROMANS
 72
     1
 11
911136.006698
 21
7270518.599809
 31
0.0
210
0.0
220
0.0
230
1.0
  0
TEXT
  8
11
  6
CONTINUOUS
 62
     7
  5
5D5
 10
911140.517
 20
7270518.072
 30
0.0
 40
6.0
  1
9
 50
348.475619
  7
ROMANS
 72
     1
 11
911142.23172
 21
7270517.722376
 31
0.0
210
0.0
220
0.0
230
1.0
  0
TEXT
  8
11
  6
CONTINUOUS
 62
     7
  5
5D6
 10
911147.364
 20
7270516.429
 30
0.0
 40
6.0
  1
'
 50
342.861242
  7
ROMANS
 72
     1
 11
911148.319594
 21
7270516.134313
 31
0.0
210
0.0
220
0.0
230
1.0
  0
TEXT
  8
11
  6
CONTINUOUS
 62
     7
  5
5D7
 10
911148.418
 20
7270503.399
 30
0.0
 40
6.0
  1
R
 50
331.632483
  7
ROMANS
 72
     1
 11
911152.931798
 21
7270507.780521
 31
0.0
210
0.0
220
0.0
230
1.0
 73
     3
  0
TEXT
  8
11
  6
CONTINUOUS
 62
     7
  5
5D8
 10
911152.422
 20
7270501.327
 30
0.0
 40
6.0
  1
=
 50
326.018106
  7
ROMANS
 72
     1
 11
911157.848621
 21
7270504.904958
 31
0.0
210
0.0
220
0.0
230
1.0
 73
     3
  0
TEXT
  8
11
  6
CONTINUOUS
 62
     7
  5
5D9
 10
911157.231
 20
7270497.965
 30
0.0
 40
6.0
  1
5
 50
320.403728
  7
ROMANS
 72
     1
 11
911162.409878
 21
7270501.467825
 31
0.0
210
0.0
220
0.0
230
1.0
 73
     3
  0
TEXT
  8
11
  6
CONTINUOUS
 62
     7
  5
5DA
 10
911160.866
 20
7270494.712
 30
0.0
 40
6.0
  1
0
 50
314.789347
  7
ROMANS
 72
     1
 11
911166.524761
 21
7270497.528127
 31
0.0
210
0.0
220
0.0
230
1.0
 73
     3
  0
TEXT
  8
11
  6
CONTINUOUS
 62
     7
  5
5DB
 10
911164.39
 20
7270490.85
 30
0.0
 40
6.0
  1
'
 50
303.560592
  7
ROMANS
 72
     1
 11
911169.942629
 21
7270493.33361
 31
0.0
210
0.0
220
0.0
230
1.0
 73
     3
  0
TEXT
  8
11
  6
CONTINUOUS
 62
     7
  5
5DC
 10
911166.796
 20
7270418.219
 30
0.0
 40
6.0
  1
9
 50
39.344914
  7
ROMANS
 72
     1
 11
911164.345427
 21
7270423.968539
 31
0.0
210
0.0
220
0.0
230
1.0
 73
     3
  0
TEXT
  8
11
  6
CONTINUOUS
 62
     7
  5
5DD
 10
911172.066
 20
7270422.642
 30
0.0
 40
6.0
  1
2
 50
44.959292
  7
ROMANS
 72
     1
 11
911169.064691
 21
7270428.124211
 31
0.0
210
0.0
220
0.0
230
1.0
 73
     3
  0
TEXT
  8
11
  6
CONTINUOUS
 62
     7
  5
5DE
 10
911177.276
 20
7270428.216
 30
0.0
 40
6.0
  1
.
 50
50.573669
  7
ROMANS
 72
     1
 11
911173.271354
 21
7270432.792776
 31
0.0
210
0.0
220
0.0
230
1.0
 73
     3
  0
TEXT
  8
11
  6
CONTINUOUS
 62
     7
  5
5DF
 10
911180.928
 20
7270433.126
 30
0.0
 40
6.0
  1
7
 50
56.18805
  7
ROMANS
 72
     1
 11
911176.91661
 21
7270437.918833
 31
0.0
210
0.0
220
0.0
230
1.0
 73
     3
  0
TEXT
  8
11
  6
CONTINUOUS
 62
     7
  5
5E0
 10
911184.895
 20
7270439.8
 30
0.0
 40
6.0
  1
8
 50
67.416806
  7
ROMANS
 72
     1
 11
911180.027106
 21
7270443.719962
 31
0.0
210
0.0
220
0.0
230
1.0
 73
     3
  0
TEXT
  8
11
  6
CONTINUOUS
 62
     7
  5
5E1
 10
911187.727
 20
7270446.889
 30
0.0
 40
6.0
  1
'
 50
73.031186
  7
ROMANS
 72
     1
 11
911182.280069
 21
7270449.596571
 31
0.0
210
0.0
220
0.0
230
1.0
 73
     3
  0
TEXT
  8
11
  6
CONTINUOUS
 62
     7
  5
5E2
 10
911089.591
 20
7270457.9
 30
0.0
 40
6.0
  1
23.21'
 50
78.2167
  7
ROMANS
210
0.0
220
0.0
230
1.0
  0
TEXT
  8
11
  6
CONTINUOUS
 62
     7
  5
5E3
 10
915659.259
 20
7274176.737
 30
0.0
 40
8.0
  1
R=25'
 50
43.2167
  7
ROMANS
210
0.0
220
0.0
230
1.0
  0
TEXT
  8
11
  6
CONTINUOUS
 62
     7
  5
5E4
 10
915663.188
 20
7273513.119
 30
0.0
 40
8.0
  1
R=15'
 50
43.2167
  7
ROMANS
210
0.0
220
0.0
230
1.0
  0
TEXT
  8
11
  6
CONTINUOUS
 62
     7
  5
5E5
 10
915639.746
 20
7273430.869
 30
0.0
 40
8.0
  1
R=15'
 50
43.2167
  7
ROMANS
210
0.0
220
0.0
230
1.0
  0
TEXT
  8
11
  6
CONTINUOUS
 62
     7
  5
5E6
 10
915215.41
 20
7273512.507
 30
0.0
 40
6.0
  1
R=75'
 50
313.2167
  7
ROMANS
210
0.0
220
0.0
230
1.0
  0
TEXT
  8
11
  6
CONTINUOUS
 62
     7
  5
5E7
 10
915578.168
 20
7271743.564
 30
0.0
 40
8.0
  1
R=25'
 50
313.2167
  7
ROMANS
210
0.0
220
0.0
230
1.0
  0
TEXT
  8
11
  6
CONTINUOUS
 62
     7
  5
5E8
 10
915526.367
 20
7272045.386
 30
0.0
 40
6.0
  1
4
 50
28.108881
  7
ROMANS
 72
     1
 11
915527.910594
 21
7272046.21051
 31
0.0
210
0.0
220
0.0
230
1.0
  0
TEXT
  8
11
  6
CONTINUOUS
 62
     7
  5
5E9
 10
915531.858
 20
7272048.148
 30
0.0
 40
6.0
  1
6
 50
22.494503
  7
ROMANS
 72
     1
 11
915533.604202
 21
7272048.871104
 31
0.0
210
0.0
220
0.0
230
1.0
  0
TEXT
  8
11
  6
CONTINUOUS
 62
     7
  5
5EA
 10
915538.62
 20
7272050.573
 30
0.0
 40
6.0
  1
.
 50
16.880125
  7
ROMANS
 72
     1
 11
915539.569259
 21
7272050.861047
 31
0.0
210
0.0
220
0.0
230
1.0
  0
TEXT
  8
11
  6
CONTINUOUS
 62
     7
  5
5EB
 10
915544.286
 20
7272051.969
 30
0.0
 40
6.0
  1
9
 50
5.651367
  7
ROMANS
 72
     1
 11
915546.027494
 21
7272052.141331
 31
0.0
210
0.0
220
0.0
230
1.0
  0
TEXT
  8
11
  6
CONTINUOUS
 62
     7
  5
5EC
 10
915551.306
 20
7272052.579
 30
0.0
 40
6.0
  1
'
 50
0.036989
  7
ROMANS
 72
     1
 11
915552.306
 21
7272052.579646
 31
0.0
210
0.0
220
0.0
230
1.0
  0
TEXT
  8
11
  6
CONTINUOUS
 62
     7
  5
5ED
 10
915570.819
 20
7272049.596
 30
0.0
 40
6.0
  1
7
 50
337.579475
  7
ROMANS
 72
     1
 11
915572.436717
 21
7272048.928547
 31
0.0
210
0.0
220
0.0
230
1.0
  0
TEXT
  8
11
  6
CONTINUOUS
 62
     7
  5
5EE
 10
915576.386
 20
7272047.214
 30
0.0
 40
6.0
  1
0
 50
331.965097
  7
ROMANS
 72
     1
 11
915578.140731
 21
7272046.279621
 31
0.0
210
0.0
220
0.0
230
1.0
  0
TEXT
  8
11
  6
CONTINUOUS
 62
     7
  5
5EF
 10
915582.672
 20
7272043.546
 30
0.0
 40
6.0
  1
.
 50
326.350719
  7
ROMANS
 72
     1
 11
915583.497785
 21
7272042.996325
 31
0.0
210
0.0
220
0.0
230
1.0
  0
TEXT
  8
11
  6
CONTINUOUS
 62
     7
  5
5F0
 10
915587.093
 20
7272040.222
 30
0.0
 40
6.0
  1
7
 50
320.736339
  7
ROMANS
 72
     1
 11
915588.447923
 21
7272039.114443
 31
0.0
210
0.0
220
0.0
230
1.0
  0
TEXT
  8
11
  6
CONTINUOUS
 62
     7
  5
5F1
 10
915592.409
 20
7272035.168
 30
0.0
 40
6.0
  1
1
 50
309.507583
  7
ROMANS
 72
     1
 11
915593.04518
 21
7272034.39646
 31
0.0
210
0.0
220
0.0
230
1.0
  0
TEXT
  8
11
  6
CONTINUOUS
 62
     7
  5
5F2
 10
915596.313
 20
7272030.237
 30
0.0
 40
6.0
  1
'
 50
303.893203
  7
ROMANS
 72
     1
 11
915596.870647
 21
7272029.406922
 31
0.0
210
0.0
220
0.0
230
1.0
  0
TEXT
  8
11
  6
CONTINUOUS
 62
     7
  5
5F3
 10
915570.183
 20
7271943.232
 30
0.0
 40
6.0
  1
7
 50
17.220014
  7
ROMANS
 72
     1
 11
915570.078306
 21
7271949.481123
 31
0.0
210
0.0
220
0.0
230
1.0
 73
     3
  0
TEXT
  8
11
  6
CONTINUOUS
 62
     7
  5
5F4
 10
915577.296
 20
7271945.721
 30
0.0
 40
6.0
  1
0
 50
28.448769
  7
ROMANS
 72
     1
 11
915576.185699
 21
7271951.94349
 31
0.0
210
0.0
220
0.0
230
1.0
 73
     3
  0
TEXT
  8
11
  6
CONTINUOUS
 62
     7
  5
5F5
 10
915584.19
 20
7271949.521
 30
0.0
 40
6.0
  1
.
 50
34.063147
  7
ROMANS
 72
     1
 11
915581.651156
 21
7271955.04715
 31
0.0
210
0.0
220
0.0
230
1.0
 73
     3
  0
TEXT
  8
11
  6
CONTINUOUS
 62
     7
  5
5F6
 10
915589.211
 20
7271953.024
 30
0.0
 40
6.0
  1
7
 50
39.677528
  7
ROMANS
 72
     1
 11
915586.727092
 21
7271958.759216
 31
0.0
210
0.0
220
0.0
230
1.0
 73
     3
  0
TEXT
  8
11
  6
CONTINUOUS
 62
     7
  5
5F7
 10
915594.905
 20
7271958.102
 30
0.0
 40
6.0
  1
1
 50
45.291906
  7
ROMANS
 72
     1
 11
915591.344295
 21
7271963.033671
 31
0.0
210
0.0
220
0.0
230
1.0
 73
     3
  0
TEXT
  8
11
  6
CONTINUOUS
 62
     7
  5
5F8
 10
915599.464
 20
7271963.25
 30
0.0
 40
6.0
  1
'
 50
50.906283
  7
ROMANS
 72
     1
 11
915595.437897
 21
7271967.80966
 31
0.0
210
0.0
220
0.0
230
1.0
 73
     3
  0
TEXT
  8
11
  6
CONTINUOUS
 62
     7
  5
5F9
 10
915519.858
 20
7271950.952
 30
0.0
 40
6.0
  1
4
 50
326.690606
  7
ROMANS
 72
     1
 11
915524.615464
 21
7271955.005274
 31
0.0
210
0.0
220
0.0
230
1.0
 73
     3
  0
TEXT
  8
11
  6
CONTINUOUS
 62
     7
  5
5FA
 10
915525.631
 20
7271947.488
 30
0.0
 40
6.0
  1
6
 50
332.304983
  7
ROMANS
 72
     1
 11
915530.093061
 21
7271951.922198
 31
0.0
210
0.0
220
0.0
230
1.0
 73
     3
  0
TEXT
  8
11
  6
CONTINUOUS
 62
     7
  5
5FB
 10
915533.534
 20
7271943.96
 30
0.0
 40
6.0
  1
.
 50
343.533742
  7
ROMANS
 72
     1
 11
915536.186019
 21
7271949.432738
 31
0.0
210
0.0
220
0.0
230
1.0
 73
     3
  0
TEXT
  8
11
  6
CONTINUOUS
 62
     7
  5
5FC
 10
915539.414
 20
7271942.249
 30
0.0
 40
6.0
  1
9
 50
349.148119
  7
ROMANS
 72
     1
 11
915542.262329
 21
7271947.812229
 31
0.0
210
0.0
220
0.0
230
1.0
 73
     3
  0
TEXT
  8
11
  6
CONTINUOUS
 62
     7
  5
5FD
 10
915546.945
 20
7271941.018
 30
0.0
 40
6.0
  1
'
 50
354.762497
  7
ROMANS
 72
     1
 11
915548.488531
 21
7271946.901665
 31
0.0
210
0.0
220
0.0
230
1.0
 73
     3
  0
TEXT
  8
11
  6
CONTINUOUS
 62
     7
  5
5FE
 10
915592.284
 20
7272011.471
 30
0.0
 40
6.0
  1
R
 50
287.050069
  7
ROMANS
 72
     1
 11
915598.574455
 21
7272011.423311
 31
0.0
210
0.0
220
0.0
230
1.0
 73
     3
  0
TEXT
  8
11
  6
CONTINUOUS
 62
     7
  5
5FF
 10
915593.389
 20
7272007.998
 30
0.0
 40
6.0
  1
=
 50
275.821311
  7
ROMANS
 72
     1
 11
915599.611624
 21
7272006.11945
 31
0.0
210
0.0
220
0.0
230
1.0
 73
     3
  0
TEXT
  8
11
  6
CONTINUOUS
 62
     7
  5
600
 10
915594.021
 20
7272002.158
 30
0.0
 40
6.0
  1
5
 50
270.206933
  7
ROMANS
 72
     1
 11
915600.02731
 21
7272000.421681
 31
0.0
210
0.0
220
0.0
230
1.0
 73
     3
  0
TEXT
  8
11
  6
CONTINUOUS
 62
     7
  5
601
 10
915593.989
 20
7271997.278
 30
0.0
 40
6.0
  1
0
 50
264.592556
  7
ROMANS
 72
     1
 11
915599.774954
 21
7271994.733421
 31
0.0
210
0.0
220
0.0
230
1.0
 73
     3
  0
TEXT
  8
11
  6
CONTINUOUS
 62
     7
  5
602
 10
915593.162
 20
7271991.233
 30
0.0
 40
6.0
  1
'
 50
258.978175
  7
ROMANS
 72
     1
 11
915598.860144
 21
7271989.104348
 31
0.0
210
0.0
220
0.0
230
1.0
 73
     3
  0
TEXT
  8
11
  6
CONTINUOUS
 62
     7
  5
603
 10
915537.614
 20
7272358.162
 30
0.0
 40
6.0
  1
4
 50
28.108881
  7
ROMANS
 72
     1
 11
915539.157594
 21
7272358.98651
 31
0.0
210
0.0
220
0.0
230
1.0
  0
TEXT
  8
11
  6
CONTINUOUS
 62
     7
  5
604
 10
915543.396
 20
7272361.031
 30
0.0
 40
6.0
  1
6
 50
16.880125
  7
ROMANS
 72
     1
 11
915545.204568
 21
7272361.5798
 31
0.0
210
0.0
220
0.0
230
1.0
  0
TEXT
  8
11
  6
CONTINUOUS
 62
     7
  5
605
 10
915550.289
 20
7272363.084
 30
0.0
 40
6.0
  1
.
 50
11.265747
  7
ROMANS
 72
     1
 11
915551.261886
 21
7272363.277797
 31
0.0
210
0.0
220
0.0
230
1.0
  0
TEXT
  8
11
  6
CONTINUOUS
 62
     7
  5
606
 10
915555.731
 20
7272364.094
 30
0.0
 40
6.0
  1
9
 50
5.651367
  7
ROMANS
 72
     1
 11
915557.472494
 21
7272364.266331
 31
0.0
210
0.0
220
0.0
230
1.0
  0
TEXT
  8
11
  6
CONTINUOUS
 62
     7
  5
607
 10
915562.759
 20
7272364.534
 30
0.0
 40
6.0
  1
'
 50
0.036989
  7
ROMANS
 72
     1
 11
915563.759
 21
7272364.534646
 31
0.0
210
0.0
220
0.0
230
1.0
  0
TEXT
  8
11
  6
CONTINUOUS
 62
     7
  5
608
 10
915529.62
 20
7272262.874
 30
0.0
 40
6.0
  1
4
 50
326.690606
  7
ROMANS
 72
     1
 11
915534.377464
 21
7272266.927274
 31
0.0
210
0.0
220
0.0
230
1.0
 73
     3
  0
TEXT
  8
11
  6
CONTINUOUS
 62
     7
  5
609
 10
915535.396
 20
7272259.415
 30
0.0
 40
6.0
  1
6
 50
332.304983
  7
ROMANS
 72
     1
 11
915539.858061
 21
7272263.849198
 31
0.0
210
0.0
220
0.0
230
1.0
 73
     3
  0
TEXT
  8
11
  6
CONTINUOUS
 62
     7
  5
60A
 10
915543.304
 20
7272255.897
 30
0.0
 40
6.0
  1
.
 50
343.533742
  7
ROMANS
 72
     1
 11
915545.956019
 21
7272261.369738
 31
0.0
210
0.0
220
0.0
230
1.0
 73
     3
  0
TEXT
  8
11
  6
CONTINUOUS
 62
     7
  5
60B
 10
915549.185
 20
7272254.193
 30
0.0
 40
6.0
  1
9
 50
349.148119
  7
ROMANS
 72
     1
 11
915552.033329
 21
7272259.756229
 31
0.0
210
0.0
220
0.0
230
1.0
 73
     3
  0
TEXT
  8
11
  6
CONTINUOUS
 62
     7
  5
60C
 10
915556.718
 20
7272252.967
 30
0.0
 40
6.0
  1
'
 50
354.762497
  7
ROMANS
 72
     1
 11
915558.261531
 21
7272258.850665
 31
0.0
210
0.0
220
0.0
230
1.0
 73
     3
  0
TEXT
  8
11
  6
CONTINUOUS
 62
     7
  5
60D
 10
915578.775
 20
7272362.073
 30
0.0
 40
6.0
  1
7
 50
343.193853
  7
ROMANS
 72
     1
 11
915580.450255
 21
7272361.567015
 31
0.0
210
0.0
220
0.0
230
1.0
  0
TEXT
  8
11
  6
CONTINUOUS
 62
     7
  5
60E
 10
915584.741
 20
7272359.893
 30
0.0
 40
6.0
  1
0
 50
331.965097
  7
ROMANS
 72
     1
 11
915586.495731
 21
7272358.958621
 31
0.0
210
0.0
220
0.0
230
1.0
  0
TEXT
  8
11
  6
CONTINUOUS
 62
     7
  5
60F
 10
915591.104
 20
7272356.354
 30
0.0
 40
6.0
  1
.
 50
326.350719
  7
ROMANS
 72
     1
 11
915591.929785
 21
7272355.804325
 31
0.0
210
0.0
220
0.0
230
1.0
  0
TEXT
  8
11
  6
CONTINUOUS
 62
     7
  5
610
 10
915595.615
 20
7272353.15
 30
0.0
 40
6.0
  1
7
 50
320.736339
  7
ROMANS
 72
     1
 11
915596.969923
 21
7272352.042443
 31
0.0
210
0.0
220
0.0
230
1.0
  0
TEXT
  8
11
  6
CONTINUOUS
 62
     7
  5
611
 10
915600.84
 20
7272348.429
 30
0.0
 40
6.0
  1
1
 50
315.121961
  7
ROMANS
 72
     1
 11
915601.54861
 21
7272347.7234
 31
0.0
210
0.0
220
0.0
230
1.0
  0
TEXT
  8
11
  6
CONTINUOUS
 62
     7
  5
612
 10
915605.168
 20
7272343.467
 30
0.0
 40
6.0
  1
'
 50
303.893203
  7
ROMANS
 72
     1
 11
915605.725647
 21
7272342.636922
 31
0.0
210
0.0
220
0.0
230
1.0
  0
TEXT
  8
11
  6
CONTINUOUS
 62
     7
  5
613
 10
915577.043
 20
7272254.303
 30
0.0
 40
6.0
  1
7
 50
17.220014
  7
ROMANS
 72
     1
 11
915576.938306
 21
7272260.552123
 31
0.0
210
0.0
220
0.0
230
1.0
 73
     3
  0
TEXT
  8
11
  6
CONTINUOUS
 62
     7
  5
614
 10
915583.38
 20
7272256.308
 30
0.0
 40
6.0
  1
0
 50
22.834392
  7
ROMANS
 72
     1
 11
915582.883788
 21
7272262.609263
 31
0.0
210
0.0
220
0.0
230
1.0
 73
     3
  0
TEXT
  8
11
  6
CONTINUOUS
 62
     7
  5
615
 10
915590.53
 20
7272259.584
 30
0.0
 40
6.0
  1
.
 50
28.448769
  7
ROMANS
 72
     1
 11
915588.543973
 21
7272265.332022
 31
0.0
210
0.0
220
0.0
230
1.0
 73
     3
  0
TEXT
  8
11
  6
CONTINUOUS
 62
     7
  5
616
 10
915595.773
 20
7272262.741
 30
0.0
 40
6.0
  1
7
 50
34.063147
  7
ROMANS
 72
     1
 11
915593.862099
 21
7272268.691711
 31
0.0
210
0.0
220
0.0
230
1.0
 73
     3
  0
TEXT
  8
11
  6
CONTINUOUS
 62
     7
  5
617
 10
915602.518
 20
7272267.935
 30
0.0
 40
6.0
  1
1
 50
45.291906
  7
ROMANS
 72
     1
 11
915598.957295
 21
7272272.866671
 31
0.0
210
0.0
220
0.0
230
1.0
 73
     3
  0
TEXT
  8
11
  6
CONTINUOUS
 62
     7
  5
618
 10
915607.294
 20
7272272.886
 30
0.0
 40
6.0
  1
'
 50
50.906283
  7
ROMANS
 72
     1
 11
915603.267897
 21
7272277.44566
 31
0.0
210
0.0
220
0.0
230
1.0
 73
     3
  0
TEXT
  8
11
  6
CONTINUOUS
 62
     7
  5
619
 10
915601.648
 20
7272324.563
 30
0.0
 40
6.0
  1
R
 50
287.050069
  7
ROMANS
 72
     1
 11
915607.938455
 21
7272324.515311
 31
0.0
210
0.0
220
0.0
230
1.0
 73
     3
  0
TEXT
  8
11
  6
CONTINUOUS
 62
     7
  5
61A
 10
915602.826
 20
7272320.223
 30
0.0
 40
6.0
  1
=
 50
281.435689
  7
ROMANS
 72
     1
 11
915609.202557
 21
7272318.962238
 31
0.0
210
0.0
220
0.0
230
1.0
 73
     3
  0
TEXT
  8
11
  6
CONTINUOUS
 62
     7
  5
61B
 10
915603.728
 20
7272315.302
 30
0.0
 40
6.0
  1
5
 50
270.206933
  7
ROMANS
 72
     1
 11
915609.73431
 21
7272313.565681
 31
0.0
210
0.0
220
0.0
230
1.0
 73
     3
  0
TEXT
  8
11
  6
CONTINUOUS
 62
     7
  5
61C
 10
915603.814
 20
7272310.417
 30
0.0
 40
6.0
  1
0
 50
264.592556
  7
ROMANS
 72
     1
 11
915609.599954
 21
7272307.872421
 31
0.0
210
0.0
220
0.0
230
1.0
 73
     3
  0
TEXT
  8
11
  6
CONTINUOUS
 62
     7
  5
61D
 10
915603.101
 20
7272304.354
 30
0.0
 40
6.0
  1
'
 50
258.978175
  7
ROMANS
 72
     1
 11
915608.799144
 21
7272302.225348
 31
0.0
210
0.0
220
0.0
230
1.0
 73
     3
  0
TEXT
  8
11
  6
CONTINUOUS
 62
     7
  5
61E
 10
915606.836
 20
7272663.424
 30
0.0
 40
7.999
  1
R=15'
 50
313.2167
  7
ROMANS
210
0.0
220
0.0
230
1.0
  0
TEXT
  8
11
  6
CONTINUOUS
 62
     7
  5
61F
 10
915612.641
 20
7272539.905
 30
0.0
 40
7.999
  1
R=15'
 50
43.2167
  7
ROMANS
210
0.0
220
0.0
230
1.0
  0
TEXT
  8
11
  6
CONTINUOUS
 62
     7
  5
620
 10
915553.635
 20
7272948.565
 30
0.0
 40
6.0
  1
4
 50
28.108881
  7
ROMANS
 72
     1
 11
915555.178594
 21
7272949.38951
 31
0.0
210
0.0
220
0.0
230
1.0
  0
TEXT
  8
11
  6
CONTINUOUS
 62
     7
  5
621
 10
915559.084
 20
7272951.414
 30
0.0
 40
6.0
  1
6
 50
22.494503
  7
ROMANS
 72
     1
 11
915560.830202
 21
7272952.137104
 31
0.0
210
0.0
220
0.0
230
1.0
  0
TEXT
  8
11
  6
CONTINUOUS
 62
     7
  5
622
 10
915565.813
 20
7272953.931
 30
0.0
 40
6.0
  1
.
 50
16.880125
  7
ROMANS
 72
     1
 11
915566.762259
 21
7272954.219047
 31
0.0
210
0.0
220
0.0
230
1.0
  0
TEXT
  8
11
  6
CONTINUOUS
 62
     7
  5
623
 10
915571.182
 20
7272955.262
 30
0.0
 40
6.0
  1
9
 50
11.265747
  7
ROMANS
 72
     1
 11
915572.89828
 21
7272955.60388
 31
0.0
210
0.0
220
0.0
230
1.0
  0
TEXT
  8
11
  6
CONTINUOUS
 62
     7
  5
624
 10
915578.457
 20
7272956.221
 30
0.0
 40
6.0
  1
'
 50
0.036989
  7
ROMANS
 72
     1
 11
915579.457
 21
7272956.221646
 31
0.0
210
0.0
220
0.0
230
1.0
  0
TEXT
  8
11
  6
CONTINUOUS
 62
     7
  5
625
 10
915545.632
 20
7272856.146
 30
0.0
 40
6.0
  1
4
 50
326.690606
  7
ROMANS
 72
     1
 11
915550.389464
 21
7272860.199274
 31
0.0
210
0.0
220
0.0
230
1.0
 73
     3
  0
TEXT
  8
11
  6
CONTINUOUS
 62
     7
  5
626
 10
915551.265
 20
7272852.442
 30
0.0
 40
6.0
  1
6
 50
332.304983
  7
ROMANS
 72
     1
 11
915555.727061
 21
7272856.876198
 31
0.0
210
0.0
220
0.0
230
1.0
 73
     3
  0
TEXT
  8
11
  6
CONTINUOUS
 62
     7
  5
627
 10
915558.236
 20
7272849.004
 30
0.0
 40
6.0
  1
.
 50
337.919364
  7
ROMANS
 72
     1
 11
915561.410709
 21
7272854.191031
 31
0.0
210
0.0
220
0.0
230
1.0
 73
     3
  0
TEXT
  8
11
  6
CONTINUOUS
 62
     7
  5
628
 10
915563.989
 20
7272846.917
 30
0.0
 40
6.0
  1
9
 50
343.533742
  7
ROMANS
 72
     1
 11
915567.367931
 21
7272852.174882
 31
0.0
210
0.0
220
0.0
230
1.0
 73
     3
  0
TEXT
  8
11
  6
CONTINUOUS
 62
     7
  5
629
 10
915571.411
 20
7272845.15
 30
0.0
 40
6.0
  1
'
 50
349.148119
  7
ROMANS
 72
     1
 11
915573.522741
 21
7272850.854432
 31
0.0
210
0.0
220
0.0
230
1.0
 73
     3
  0
TEXT
  8
11
  6
CONTINUOUS
 62
     7
  5
62A
 10
915592.213
 20
7272845.369
 30
0.0
 40
6.0
  1
7
 50
11.605633
  7
ROMANS
 72
     1
 11
915592.720177
 21
7272851.598388
 31
0.0
210
0.0
220
0.0
230
1.0
 73
     3
  0
TEXT
  8
11
  6
CONTINUOUS
 62
     7
  5
62B
 10
915598.654
 20
7272846.98
 30
0.0
 40
6.0
  1
0
 50
17.220014
  7
ROMANS
 72
     1
 11
915598.776638
 21
7272853.299581
 31
0.0
210
0.0
220
0.0
230
1.0
 73
     3
  0
TEXT
  8
11
  6
CONTINUOUS
 62
     7
  5
62C
 10
915606.819
 20
7272850.115
 30
0.0
 40
6.0
  1
.
 50
28.448769
  7
ROMANS
 72
     1
 11
915604.832973
 21
7272855.863022
 31
0.0
210
0.0
220
0.0
230
1.0
 73
     3
  0
TEXT
  8
11
  6
CONTINUOUS
 62
     7
  5
62D
 10
915612.186
 20
7272853.069
 30
0.0
 40
6.0
  1
7
 50
34.063147
  7
ROMANS
 72
     1
 11
915610.275099
 21
7272859.019711
 31
0.0
210
0.0
220
0.0
230
1.0
 73
     3
  0
TEXT
  8
11
  6
CONTINUOUS
 62
     7
  5
62E
 10
915618.379
 20
7272857.525
 30
0.0
 40
6.0
  1
1
 50
39.677528
  7
ROMANS
 72
     1
 11
915615.317854
 21
7272862.781366
 31
0.0
210
0.0
220
0.0
230
1.0
 73
     3
  0
TEXT
  8
11
  6
CONTINUOUS
 62
     7
  5
62F
 10
915595.144
 20
7272954.38
 30
0.0
 40
6.0
  1
7
 50
343.193853
  7
ROMANS
 72
     1
 11
915596.819255
 21
7272953.874015
 31
0.0
210
0.0
220
0.0
230
1.0
  0
TEXT
  8
11
  6
CONTINUOUS
 62
     7
  5
630
 10
915600.877
 20
7272952.443
 30
0.0
 40
6.0
  1
0
 50
337.579475
  7
ROMANS
 72
     1
 11
915602.714726
 21
7272951.684774
 31
0.0
210
0.0
220
0.0
230
1.0
  0
TEXT
  8
11
  6
CONTINUOUS
 62
     7
  5
631
 10
915607.74
 20
7272949.229
 30
0.0
 40
6.0
  1
.
 50
326.350719
  7
ROMANS
 72
     1
 11
915608.565785
 21
7272948.679325
 31
0.0
210
0.0
220
0.0
230
1.0
  0
TEXT
  8
11
  6
CONTINUOUS
 62
     7
  5
632
 10
915612.377
 20
7272946.196
 30
0.0
 40
6.0
  1
7
 50
320.736339
  7
ROMANS
 72
     1
 11
915613.731923
 21
7272945.088443
 31
0.0
210
0.0
220
0.0
230
1.0
  0
TEXT
  8
11
  6
CONTINUOUS
 62
     7
  5
633
 10
915617.743
 20
7272941.631
 30
0.0
 40
6.0
  1
1
 50
315.121961
  7
ROMANS
 72
     1
 11
915618.45161
 21
7272940.9254
 31
0.0
210
0.0
220
0.0
230
1.0
  0
TEXT
  8
11
  6
CONTINUOUS
 62
     7
  5
634
 10
915619.764
 20
7272917.244
 30
0.0
 40
6.0
  1
R
 50
287.050069
  7
ROMANS
 72
     1
 11
915626.054455
 21
7272917.196311
 31
0.0
210
0.0
220
0.0
230
1.0
 73
     3
  0
TEXT
  8
11
  6
CONTINUOUS
 62
     7
  5
635
 10
915621.043
 20
7272912.927
 30
0.0
 40
6.0
  1
=
 50
281.435689
  7
ROMANS
 72
     1
 11
915627.419557
 21
7272911.666238
 31
0.0
210
0.0
220
0.0
230
1.0
 73
     3
  0
TEXT
  8
11
  6
CONTINUOUS
 62
     7
  5
636
 10
915621.983
 20
7272907.137
 30
0.0
 40
6.0
  1
5
 50
275.821311
  7
ROMANS
 72
     1
 11
915628.130366
 21
7272905.996624
 31
0.0
210
0.0
220
0.0
230
1.0
 73
     3
  0
TEXT
  8
11
  6
CONTINUOUS
 62
     7
  5
637
 10
915622.333
 20
7272903.138
 30
0.0
 40
6.0
  1
0
 50
264.592556
  7
ROMANS
 72
     1
 11
915628.118954
 21
7272900.593421
 31
0.0
210
0.0
220
0.0
230
1.0
 73
     3
  0
TEXT
  8
11
  6
CONTINUOUS
 62
     7
  5
638
 10
915621.722
 20
7272897.061
 30
0.0
 40
6.0
  1
'
 50
258.978175
  7
ROMANS
 72
     1
 11
915627.420144
 21
7272894.932348
 31
0.0
210
0.0
220
0.0
230
1.0
 73
     3
  0
TEXT
  8
11
  6
CONTINUOUS
 62
     7
  5
639
 10
915563.886
 20
7273244.977
 30
0.0
 40
6.0
  1
4
 50
28.108881
  7
ROMANS
 72
     1
 11
915565.429594
 21
7273245.80151
 31
0.0
210
0.0
220
0.0
230
1.0
  0
TEXT
  8
11
  6
CONTINUOUS
 62
     7
  5
63A
 10
915569.385
 20
7273247.722
 30
0.0
 40
6.0
  1
6
 50
22.494503
  7
ROMANS
 72
     1
 11
915571.131202
 21
7273248.445104
 31
0.0
210
0.0
220
0.0
230
1.0
  0
TEXT
  8
11
  6
CONTINUOUS
 62
     7
  5
63B
 10
915576.153
 20
7273250.129
 30
0.0
 40
6.0
  1
.
 50
16.880125
  7
ROMANS
 72
     1
 11
915577.102259
 21
7273250.417047
 31
0.0
210
0.0
220
0.0
230
1.0
  0
TEXT
  8
11
  6
CONTINUOUS
 62
     7
  5
63C
 10
915581.827
 20
7273251.488
 30
0.0
 40
6.0
  1
9
 50
5.651367
  7
ROMANS
 72
     1
 11
915583.568494
 21
7273251.660331
 31
0.0
210
0.0
220
0.0
230
1.0
  0
TEXT
  8
11
  6
CONTINUOUS
 62
     7
  5
63D
 10
915588.848
 20
7273252.077
 30
0.0
 40
6.0
  1
'
 50
0.036989
  7
ROMANS
 72
     1
 11
915589.848
 21
7273252.077646
 31
0.0
210
0.0
220
0.0
230
1.0
  0
TEXT
  8
11
  6
CONTINUOUS
 62
     7
  5
63E
 10
915554.765
 20
7273152.053
 30
0.0
 40
6.0
  1
4
 50
326.690606
  7
ROMANS
 72
     1
 11
915559.522464
 21
7273156.106274
 31
0.0
210
0.0
220
0.0
230
1.0
 73
     3
  0
TEXT
  8
11
  6
CONTINUOUS
 62
     7
  5
63F
 10
915560.393
 20
7273148.343
 30
0.0
 40
6.0
  1
6
 50
332.304983
  7
ROMANS
 72
     1
 11
915564.855061
 21
7273152.777198
 31
0.0
210
0.0
220
0.0
230
1.0
 73
     3
  0
TEXT
  8
11
  6
CONTINUOUS
 62
     7
  5
640
 10
915567.36
 20
7273144.895
 30
0.0
 40
6.0
  1
.
 50
337.919364
  7
ROMANS
 72
     1
 11
915570.534709
 21
7273150.082031
 31
0.0
210
0.0
220
0.0
230
1.0
 73
     3
  0
TEXT
  8
11
  6
CONTINUOUS
 62
     7
  5
641
 10
915573.11
 20
7273142.799
 30
0.0
 40
6.0
  1
9
 50
343.533742
  7
ROMANS
 72
     1
 11
915576.488931
 21
7273148.056882
 31
0.0
210
0.0
220
0.0
230
1.0
 73
     3
  0
TEXT
  8
11
  6
CONTINUOUS
 62
     7
  5
642
 10
915580.531
 20
7273141.024
 30
0.0
 40
6.0
  1
'
 50
349.148119
  7
ROMANS
 72
     1
 11
915582.642741
 21
7273146.728432
 31
0.0
210
0.0
220
0.0
230
1.0
 73
     3
  0
TEXT
  8
11
  6
CONTINUOUS
 62
     7
  5
643
 10
915604.908
 20
7273250.07
 30
0.0
 40
6.0
  1
7
 50
343.193853
  7
ROMANS
 72
     1
 11
915606.583255
 21
7273249.564015
 31
0.0
210
0.0
220
0.0
230
1.0
  0
TEXT
  8
11
  6
CONTINUOUS
 62
     7
  5
644
 10
915610.622
 20
7273248.079
 30
0.0
 40
6.0
  1
0
 50
337.579475
  7
ROMANS
 72
     1
 11
915612.459726
 21
7273247.320774
 31
0.0
210
0.0
220
0.0
230
1.0
  0
TEXT
  8
11
  6
CONTINUOUS
 62
     7
  5
645
 10
915617.432
 20
7273244.766
 30
0.0
 40
6.0
  1
.
 50
326.350719
  7
ROMANS
 72
     1
 11
915618.257785
 21
7273244.216325
 31
0.0
210
0.0
220
0.0
230
1.0
  0
TEXT
  8
11
  6
CONTINUOUS
 62
     7
  5
646
 10
915622.035
 20
7273241.686
 30
0.0
 40
6.0
  1
7
 50
320.736339
  7
ROMANS
 72
     1
 11
915623.389923
 21
7273240.578443
 31
0.0
210
0.0
220
0.0
230
1.0
  0
TEXT
  8
11
  6
CONTINUOUS
 62
     7
  5
647
 10
915627.363
 20
7273237.078
 30
0.0
 40
6.0
  1
1
 50
315.121961
  7
ROMANS
 72
     1
 11
915628.07161
 21
7273236.3724
 31
0.0
210
0.0
220
0.0
230
1.0
  0
TEXT
  8
11
  6
CONTINUOUS
 62
     7
  5
648
 10
915631.599
 20
7273232.433
 30
0.0
 40
6.0
  1
'
 50
309.507583
  7
ROMANS
 72
     1
 11
915632.23518
 21
7273231.66146
 31
0.0
210
0.0
220
0.0
230
1.0
  0
TEXT
  8
11
  6
CONTINUOUS
 62
     7
  5
649
 10
915602.207
 20
7273141.386
 30
0.0
 40
6.0
  1
7
 50
11.605633
  7
ROMANS
 72
     1
 11
915602.714177
 21
7273147.615388
 31
0.0
210
0.0
220
0.0
230
1.0
 73
     3
  0
TEXT
  8
11
  6
CONTINUOUS
 62
     7
  5
64A
 10
915609.513
 20
7273143.222
 30
0.0
 40
6.0
  1
0
 50
22.834392
  7
ROMANS
 72
     1
 11
915609.016788
 21
7273149.523263
 31
0.0
210
0.0
220
0.0
230
1.0
 73
     3
  0
TEXT
  8
11
  6
CONTINUOUS
 62
     7
  5
64B
 10
915616.734
 20
7273146.353
 30
0.0
 40
6.0
  1
.
 50
28.448769
  7
ROMANS
 72
     1
 11
915614.747973
 21
7273152.101022
 31
0.0
210
0.0
220
0.0
230
1.0
 73
     3
  0
TEXT
  8
11
  6
CONTINUOUS
 62
     7
  5
64C
 10
915622.059
 20
7273149.373
 30
0.0
 40
6.0
  1
7
 50
34.063147
  7
ROMANS
 72
     1
 11
915620.148099
 21
7273155.323711
 31
0.0
210
0.0
220
0.0
230
1.0
 73
     3
  0
TEXT
  8
11
  6
CONTINUOUS
 62
     7
  5
64D
 10
915628.206
 20
7273153.892
 30
0.0
 40
6.0
  1
1
 50
39.677528
  7
ROMANS
 72
     1
 11
915625.144854
 21
7273159.148366
 31
0.0
210
0.0
220
0.0
230
1.0
 73
     3
  0
TEXT
  8
11
  6
CONTINUOUS
 62
     7
  5
64E
 10
915633.227
 20
7273158.587
 30
0.0
 40
6.0
  1
'
 50
45.291906
  7
ROMANS
 72
     1
 11
915629.666295
 21
7273163.518671
 31
0.0
210
0.0
220
0.0
230
1.0
 73
     3
  0
TEXT
  8
11
  6
CONTINUOUS
 62
     7
  5
64F
 10
915629.399
 20
7273211.72
 30
0.0
 40
6.0
  1
R
 50
287.050069
  7
ROMANS
 72
     1
 11
915635.689455
 21
7273211.672311
 31
0.0
210
0.0
220
0.0
230
1.0
 73
     3
  0
TEXT
  8
11
  6
CONTINUOUS
 62
     7
  5
650
 10
915630.54
 20
7273207.369
 30
0.0
 40
6.0
  1
=
 50
281.435689
  7
ROMANS
 72
     1
 11
915636.916557
 21
7273206.108238
 31
0.0
210
0.0
220
0.0
230
1.0
 73
     3
  0
TEXT
  8
11
  6
CONTINUOUS
 62
     7
  5
651
 10
915631.364
 20
7273202.441
 30
0.0
 40
6.0
  1
5
 50
270.206933
  7
ROMANS
 72
     1
 11
915637.37031
 21
7273200.704681
 31
0.0
210
0.0
220
0.0
230
1.0
 73
     3
  0
TEXT
  8
11
  6
CONTINUOUS
 62
     7
  5
652
 10
915631.407
 20
7273197.558
 30
0.0
 40
6.0
  1
0
 50
264.592556
  7
ROMANS
 72
     1
 11
915637.192954
 21
7273195.013421
 31
0.0
210
0.0
220
0.0
230
1.0
 73
     3
  0
TEXT
  8
11
  6
CONTINUOUS
 62
     7
  5
653
 10
915630.657
 20
7273191.502
 30
0.0
 40
6.0
  1
'
 50
258.978175
  7
ROMANS
 72
     1
 11
915636.355144
 21
7273189.373348
 31
0.0
210
0.0
220
0.0
230
1.0
 73
     3
  0
TEXT
  8
11
  6
CONTINUOUS
 62
     7
  5
654
 10
913096.079
 20
7271774.266
 30
0.0
 40
8.0
  1
R=15'
 50
43.2167
  7
ROMANS
210
0.0
220
0.0
230
1.0
  0
TEXT
  8
11
  6
CONTINUOUS
 62
     7
  5
655
 10
913168.254
 20
7274302.331
 30
0.0
 40
8.0
  1
R=15'
 50
313.2167
  7
ROMANS
210
0.0
220
0.0
230
1.0
  0
TEXT
  8
11
  6
CONTINUOUS
 62
     7
  5
656
 10
915563.027
 20
7269082.308
 30
0.0
 40
8.0
  1
R=30'
 50
313.2167
  7
ROMANS
210
0.0
220
0.0
230
1.0
  0
LINE
  8
21
  6
DASHDOT
 62
     7
  5
658
 10
914010.091
 20
7274013.604
 30
0.0
 11
913900.144
 21
7274017.027
 31
0.0
  0
LINE
  8
21
  6
DASHDOT
 62
     7
  5
659
 10
913884.685
 20
7274002.501
 30
0.0
 11
913882.506
 21
7273932.536
 31
0.0
  0
LINE
  8
21
  6
DASHDOT
 62
     7
  5
65A
 10
913867.047
 20
7273918.01
 30
0.0
 11
913287.328
 21
7273936.059
 31
0.0
  0
LINE
  8
21
  6
DASHDOT
 62
     7
  5
65B
 10
913272.802
 20
7273951.518
 30
0.0
 11
913247.814
 21
7273952.296
 31
0.0
  0
LINE
  8
21
  6
DASHDOT
 62
     7
  5
65C
 10
914009.935
 20
7274008.607
 30
0.0
 11
913909.984
 21
7274011.72
 31
0.0
  0
LINE
  8
21
  6
DASHDOT
 62
     7
  5
65D
 10
913909.984
 20
7274011.72
 30
0.0
 11
913907.493
 21
7273931.757
 31
0.0
  0
ARC
  8
21
  6
DASHDOT
 62
     7
  5
65E
 10
913867.513396
 20
7273933.002314
 30
0.0
 40
40.0
 50
268.2167
 51
358.2167
210
0.0
220
0.0
230
1.0
  0
ARC
  8
21
  6
DASHDOT
 62
     7
  5
65F
 10
913867.513396
 20
7273933.002314
 30
0.0
 40
15.0
 50
268.2167
 51
358.2167
210
0.0
220
0.0
230
1.0
  0
ARC
  8
21
  6
DASHDOT
 62
     7
  5
660
 10
913287.794306
 20
7273951.051584
 30
0.0
 40
15.0
 50
178.2167
 51
268.2167
210
0.0
220
0.0
230
1.0
  0
LINE
  8
21
  6
DASHDOT
 62
     7
  5
661
 10
913866.268
 20
7273893.021
 30
0.0
 11
913286.55
 21
7273911.071
 31
0.0
  0
LINE
  8
21
  6
DASHDOT
 62
     7
  5
662
 10
913247.814
 20
7273952.296
 30
0.0
 11
913247.658
 21
7273947.299
 31
0.0
  0
ARC
  8
21
  6
DASHDOT
 62
     7
  5
663
 10
913287.794306
 20
7273951.051584
 30
0.0
 40
40.0
 50
201.767319
 51
268.2167
210
0.0
220
0.0
230
1.0
  0
ARC
  8
21
  6
DASHDOT
 62
     7
  5
664
 10
913287.794306
 20
7273951.051584
 30
0.0
 40
40.0
 50
178.2167
 51
185.341717
210
0.0
220
0.0
230
1.0
  0
LINE
  8
21
  6
DASHDOT
 62
     7
  5
665
 10
913985.972
 20
7273238.98
 30
0.0
 11
913716.034
 21
7273247.385
 31
0.0
  0
LINE
  8
21
  6
DASHDOT
 62
     7
  5
666
 10
913690.268
 20
7273223.174
 30
0.0
 11
913688.686
 21
7273172.399
 31
0.0
  0
LINE
  8
21
  6
DASHDOT
 62
     7
  5
667
 10
913647.462
 20
7273133.663
 30
0.0
 11
913462.012
 21
7273139.438
 31
0.0
  0
LINE
  8
21
  6
DASHDOT
 62
     7
  5
668
 10
913984.532
 20
7273192.703
 30
0.0
 11
913738.152
 21
7273200.373
 31
0.0
  0
LINE
  8
21
  6
DASHDOT
 62
     7
  5
669
 10
913738.152
 20
7273200.373
 30
0.0
 11
913737.234
 21
7273170.887
 31
0.0
  0
LINE
  8
21
  6
DASHDOT
 62
     7
  5
66A
 10
913370.412
 20
7273182.308
 30
0.0
 11
913371.33
 21
7273211.794
 31
0.0
  0
LINE
  8
21
  6
DASHDOT
 62
     7
  5
66B
 10
913371.33
 20
7273211.794
 30
0.0
 11
913129.417
 21
7273219.326
 31
0.0
  0
LINE
  8
21
  6
DASHDOT
 62
     7
  5
66C
 10
913423.276
 20
7273180.663
 30
0.0
 11
913424.857
 21
7273231.437
 31
0.0
  0
LINE
  8
21
  6
DASHDOT
 62
     7
  5
66D
 10
913400.647
 20
7273257.203
 30
0.0
 11
913130.858
 21
7273265.604
 31
0.0
  0
ARC
  8
21
  6
DASHDOT
 62
     7
  5
66E
 10
913463.256475
 20
7273179.417578
 30
0.0
 40
40.0
 50
178.2167
 51
268.2167
210
0.0
220
0.0
230
1.0
  0
ARC
  8
21
  6
DASHDOT
 62
     7
  5
66F
 10
913648.706613
 20
7273173.643679
 30
0.0
 40
40.0
 50
268.2167
 51
358.2167
210
0.0
220
0.0
230
1.0
  0
ARC
  8
21
  6
DASHDOT
 62
     7
  5
670
 10
913715.255999
 20
7273222.396312
 30
0.0
 40
25.0
 50
88.2167
 51
178.2167
210
0.0
220
0.0
230
1.0
  0
ARC
  8
21
  6
DASHDOT
 62
     7
  5
671
 10
913399.868823
 20
7273232.215738
 30
0.0
 40
25.0
 50
358.2167
 51
88.2167
210
0.0
220
0.0
230
1.0
  0
LINE
  8
21
  6
DASHDOT
 62
     7
  5
672
 10
914056.762
 20
7274227.256
 30
0.0
 11
914049.916
 21
7274007.362
 31
0.0
  0
LINE
  8
21
  6
DASHDOT
 62
     7
  5
673
 10
914049.916
 20
7274007.362
 30
0.0
 11
914029.926
 21
7274007.985
 31
0.0
  0
LINE
  8
21
  6
DASHDOT
 62
     7
  5
674
 10
914029.043
 20
7274007.095
 30
0.0
 11
914023.131
 21
7273817.188
 31
0.0
  0
LINE
  8
21
  6
DASHDOT
 62
     7
  5
675
 10
914032.815
 20
7273806.881
 30
0.0
 11
915087.304
 21
7273774.05
 31
0.0
  0
LINE
  8
21
  6
DASHDOT
 62
     7
  5
676
 10
915087.304
 20
7273774.05
 30
0.0
 11
915084.503
 21
7273684.093
 31
0.0
  0
LINE
  8
21
  6
DASHDOT
 62
     7
  5
677
 10
914023.078
 20
7273788.091
 30
0.0
 11
913959.369
 21
7271741.835
 31
0.0
  0
LINE
  8
21
  6
DASHDOT
 62
     7
  5
678
 10
911898.766
 20
7269680.548
 30
0.0
 11
911892.083
 21
7269465.883
 31
0.0
  0
LINE
  8
21
  6
DASHDOT
 62
     7
  5
679
 10
911891.459
 20
7269445.861
 30
0.0
 11
911883.525
 21
7269191.035
 31
0.0
  0
LINE
  8
21
  6
DASHDOT
 62
     7
  5
67A
 10
915084.503
 20
7273684.093
 30
0.0
 11
915094.528
 21
7273673.424
 31
0.0
  0
LINE
  8
21
  6
DASHDOT
 62
     7
  5
67B
 10
915081.607
 20
7273483.204
 30
0.0
 11
915086.665
 21
7273645.656
 31
0.0
  0
LINE
  8
21
  6
DASHDOT
 62
     7
  5
67C
 10
915087.778
 20
7273774.035
 30
0.0
 11
915214.1
 21
7273892.987
 31
0.0
  0
LINE
  8
21
  6
DASHDOT
 62
     7
  5
67D
 10
915214.1
 20
7273892.987
 30
0.0
 11
915280.874
 21
7274016.303
 31
0.0
  0
LINE
  8
21
  6
DASHDOT
 62
     7
  5
67E
 10
915105.253
 20
7273707.859
 30
0.0
 11
915105.875
 21
7273727.85
 31
0.0
  0
LINE
  8
21
  6
DASHDOT
 62
     7
  5
67F
 10
915105.875
 20
7273727.85
 30
0.0
 11
915259.307
 21
7273872.92
 31
0.0
  0
LINE
  8
21
  6
DASHDOT
 62
     7
  5
680
 10
915259.307
 20
7273872.92
 30
0.0
 11
915337.05
 21
7274016.214
 31
0.0
  0
LINE
  8
21
  6
DASHDOT
 62
     7
  5
681
 10
915085.261
 20
7273708.482
 30
0.0
 11
915110.307
 21
7273672.933
 31
0.0
  0
LINE
  8
21
  6
DASHDOT
 62
     7
  5
682
 10
915105.253
 20
7273707.859
 30
0.0
 11
915130.23
 21
7273672.313
 31
0.0
  0
LINE
  8
21
  6
DASHDOT
 62
     7
  5
683
 10
915641.978
 20
7273356.146
 30
0.0
 11
915645.405
 21
7273466.217
 31
0.0
  0
LINE
  8
21
  6
DASHDOT
 62
     7
  5
684
 10
915594.471
 20
7271830.299
 30
0.0
 11
915590.772
 21
7271711.486
 31
0.0
  0
LINE
  8
21
  6
DASHDOT
 62
     7
  5
685
 10
915617.768
 20
7272578.584
 30
0.0
 11
915614.343
 21
7272468.569
 31
0.0
  0
LINE
  8
21
  6
DASHDOT
 62
     7
  5
686
 10
915622.93
 20
7272744.362
 30
0.0
 11
915619.509
 21
7272634.497
 31
0.0
  0
LINE
  8
21
  6
DASHDOT
 62
     7
  5
687
 10
914688.089
 20
7273745.928
 30
0.0
 11
915066.499
 21
7273734.146
 31
0.0
  0
LINE
  8
21
  6
DASHDOT
 62
     7
  5
688
 10
914632.784
 20
7273769.109
 30
0.0
 11
914688.711
 21
7273765.918
 31
0.0
  0
LINE
  8
21
  6
DASHDOT
 62
     7
  5
689
 10
914632.784
 20
7273769.109
 30
0.0
 11
914621.269
 21
7273399.287
 31
0.0
  0
LINE
  8
21
  6
DASHDOT
 62
     7
  5
68A
 10
914595.504
 20
7273375.078
 30
0.0
 11
914561.146
 21
7273376.147
 31
0.0
  0
LINE
  8
21
  6
DASHDOT
 62
     7
  5
68B
 10
914688.089
 20
7273745.928
 30
0.0
 11
914676.239
 21
7273365.312
 31
0.0
  0
LINE
  8
21
  6
DASHDOT
 62
     7
  5
68C
 10
914640.167
 20
7273331.418
 30
0.0
 11
914559.831
 21
7273333.919
 31
0.0
  0
LINE
  8
21
  6
DASHDOT
 62
     7
  5
68D
 10
914461.369
 20
7273224.174
 30
0.0
 11
914005.925
 21
7273238.353
 31
0.0
  0
LINE
  8
21
  6
DASHDOT
 62
     7
  5
68E
 10
914499.91
 20
7273176.689
 30
0.0
 11
914004.486
 21
7273192.114
 31
0.0
  0
LINE
  8
21
  6
DASHDOT
 62
     7
  5
68F
 10
914476.828
 20
7273238.7
 30
0.0
 11
914478.696
 21
7273298.675
 31
0.0
  0
LINE
  8
21
  6
DASHDOT
 62
     7
  5
690
 10
914518.605
 20
7273295.185
 30
0.0
 11
914515.368
 21
7273191.215
 31
0.0
  0
ARC
  8
21
  6
DASHDOT
 62
     7
  5
691
 10
914558.586814
 20
7273293.938987
 30
0.0
 40
40.0
 50
88.2167
 51
178.2167
210
0.0
220
0.0
230
1.0
  0
ARC
  8
21
  6
DASHDOT
 62
     7
  5
692
 10
914558.65677
 20
7273296.185898
 30
0.0
 40
80.0
 50
88.2167
 51
178.2167
210
0.0
220
0.0
230
1.0
  0
ARC
  8
21
  6
DASHDOT
 62
     7
  5
693
 10
914596.281662
 20
7273400.065344
 30
0.0
 40
25.0
 50
268.2167
 51
358.2167
210
0.0
220
0.0
230
1.0
  0
ARC
  8
21
  6
DASHDOT
 62
     7
  5
694
 10
914641.255844
 20
7273366.401469
 30
0.0
 40
35.0
 50
268.2167
 51
358.2167
210
0.0
220
0.0
230
1.0
  0
ARC
  8
21
  6
DASHDOT
 62
     7
  5
695
 10
914461.83546
 20
7273239.166306
 30
0.0
 40
15.0
 50
268.2167
 51
358.2167
210
0.0
220
0.0
230
1.0
  0
ARC
  8
21
  6
DASHDOT
 62
     7
  5
696
 10
914500.37644
 20
7273191.681934
 30
0.0
 40
15.0
 50
268.2167
 51
358.2167
210
0.0
220
0.0
230
1.0
  0
LINE
  8
21
  6
DASHDOT
 62
     7
  5
697
 10
914056.762
 20
7274227.256
 30
0.0
 11
914425.174
 21
7274215.785
 31
0.0
  0
LINE
  8
21
  6
DASHDOT
 62
     7
  5
698
 10
914425.174
 20
7274215.785
 30
0.0
 11
914524.467
 21
7274191.235
 31
0.0
  0
LINE
  8
21
  6
DASHDOT
 62
     7
  5
699
 10
914524.467
 20
7274191.235
 30
0.0
 11
915686.89
 21
7274155.044
 31
0.0
  0
LINE
  8
21
  6
DASHDOT
 62
     7
  5
69A
 10
915028.106
 20
7271848.073
 30
0.0
 11
915023.799
 21
7271709.752
 31
0.0
  0
LINE
  8
21
  6
DASHDOT
 62
     7
  5
69B
 10
910653.784
 20
7271283.767
 30
0.0
 11
910646.896
 21
7271062.526
 31
0.0
  0
LINE
  8
21
  6
DASHDOT
 62
     7
  5
69C
 10
915413.161
 20
7272881.019
 30
0.0
 11
915409.738
 21
7272771.09
 31
0.0
  0
LINE
  8
21
  6
DASHDOT
 62
     7
  5
69D
 10
915405.165
 20
7272881.268
 30
0.0
 11
915401.741
 21
7272771.339
 31
0.0
  0
LINE
  8
21
  6
DASHDOT
 62
     7
  5
69E
 10
915395.474
 20
7272585.426
 30
0.0
 11
915392.051
 21
7272475.498
 31
0.0
  0
LINE
  8
21
  6
DASHDOT
 62
     7
  5
69F
 10
915403.47
 20
7272585.177
 30
0.0
 11
915400.047
 21
7272475.249
 31
0.0
  0
LINE
  8
21
  6
DASHDOT
 62
     7
  5
6A0
 10
915399.983
 20
7272455.223
 30
0.0
 11
915396.56
 21
7272345.294
 31
0.0
  0
LINE
  8
21
  6
DASHDOT
 62
     7
  5
6A1
 10
915391.987
 20
7272455.472
 30
0.0
 11
915388.564
 21
7272345.544
 31
0.0
  0
LINE
  8
21
  6
DASHDOT
 62
     7
  5
6A2
 10
915393.803
 20
7272289.353
 30
0.0
 11
915390.192
 21
7272173.409
 31
0.0
  0
LINE
  8
21
  6
DASHDOT
 62
     7
  5
6A3
 10
915385.806
 20
7272289.602
 30
0.0
 11
915382.197
 21
7272173.658
 31
0.0
  0
LINE
  8
21
  6
DASHDOT
 62
     7
  5
6A4
 10
915389.574
 20
7272153.418
 30
0.0
 11
915385.84
 21
7272033.477
 31
0.0
  0
LINE
  8
21
  6
DASHDOT
 62
     7
  5
6A5
 10
915381.578
 20
7272153.667
 30
0.0
 11
915377.844
 21
7272033.726
 31
0.0
  0
LINE
  8
21
  6
DASHDOT
 62
     7
  5
6A6
 10
915377.327
 20
7271977.715
 30
0.0
 11
915373.592
 21
7271857.774
 31
0.0
  0
LINE
  8
21
  6
DASHDOT
 62
     7
  5
6A7
 10
915385.323
 20
7271977.466
 30
0.0
 11
915381.589
 21
7271857.525
 31
0.0
  0
LINE
  8
21
  6
DASHDOT
 62
     7
  5
6A8
 10
915379.742
 20
7271837.14
 30
0.0
 11
915376.007
 21
7271717.198
 31
0.0
  0
LINE
  8
21
  6
DASHDOT
 62
     7
  5
6A9
 10
915371.746
 20
7271837.389
 30
0.0
 11
915368.011
 21
7271717.447
 31
0.0
  0
LINE
  8
21
  6
DASHDOT
 62
     7
  5
6AA
 10
915032.826
 20
7271980.695
 30
0.0
 11
915142.837
 21
7271977.269
 31
0.0
  0
LINE
  8
21
  6
DASHDOT
 62
     7
  5
6AB
 10
915039.019
 20
7272179.598
 30
0.0
 11
915149.03
 21
7272176.172
 31
0.0
  0
LINE
  8
21
  6
DASHDOT
 62
     7
  5
6AC
 10
915048.977
 20
7272499.442
 30
0.0
 11
915158.988
 21
7272496.017
 31
0.0
  0
LINE
  8
21
  6
DASHDOT
 62
     7
  5
6AD
 10
915053.676
 20
7272650.369
 30
0.0
 11
915163.686
 21
7272646.944
 31
0.0
  0
LINE
  8
21
  6
DASHDOT
 62
     7
  5
6AE
 10
915057.197
 20
7272763.438
 30
0.0
 11
915167.207
 21
7272760.013
 31
0.0
  0
LINE
  8
21
  6
DASHDOT
 62
     7
  5
6AF
 10
915636.616
 20
7273188.232
 30
0.0
 11
915656.741
 21
7273187.606
 31
0.0
  0
LINE
  8
21
  6
DASHDOT
 62
     7
  5
6B0
 10
915637.238
 20
7273208.222
 30
0.0
 11
915637.372
 21
7273208.218
 31
0.0
  0
LINE
  8
21
  6
DASHDOT
 62
     7
  5
6B1
 10
915637.372
 20
7273208.218
 30
0.0
 11
915657.363
 21
7273207.596
 31
0.0
  0
LINE
  8
21
  6
DASHDOT
 62
     7
  5
6B2
 10
915641.355
 20
7273336.156
 30
0.0
 11
915637.372
 21
7273208.218
 31
0.0
  0
LINE
  8
21
  6
DASHDOT
 62
     7
  5
6B3
 10
915636.749
 20
7273188.228
 30
0.0
 11
915632.768
 21
7273060.348
 31
0.0
  0
LINE
  8
21
  6
DASHDOT
 62
     7
  5
6B4
 10
915627.849
 20
7272902.367
 30
0.0
 11
915627.846
 21
7272902.246
 31
0.0
  0
LINE
  8
21
  6
DASHDOT
 62
     7
  5
6B5
 10
915628.16
 20
7272912.361
 30
0.0
 11
915648.16
 21
7272911.739
 31
0.0
  0
LINE
  8
21
  6
DASHDOT
 62
     7
  5
6B6
 10
915627.538
 20
7272892.371
 30
0.0
 11
915647.537
 21
7272891.748
 31
0.0
  0
LINE
  8
21
  6
DASHDOT
 62
     7
  5
6B7
 10
915632.147
 20
7273040.395
 30
0.0
 11
915628.16
 21
7272912.361
 31
0.0
  0
LINE
  8
21
  6
DASHDOT
 62
     7
  5
6B8
 10
915627.538
 20
7272892.371
 30
0.0
 11
915623.556
 21
7272764.468
 31
0.0
  0
LINE
  8
21
  6
DASHDOT
 62
     7
  5
6B9
 10
915609.738
 20
7272320.649
 30
0.0
 11
915629.752
 21
7272320.025
 31
0.0
  0
LINE
  8
21
  6
DASHDOT
 62
     7
  5
6BA
 10
915609.115
 20
7272300.658
 30
0.0
 11
915629.13
 21
7272300.035
 31
0.0
  0
LINE
  8
21
  6
DASHDOT
 62
     7
  5
6BB
 10
915613.72
 20
7272448.538
 30
0.0
 11
915609.738
 21
7272320.649
 31
0.0
  0
LINE
  8
21
  6
DASHDOT
 62
     7
  5
6BC
 10
915609.115
 20
7272300.658
 30
0.0
 11
915604.945
 21
7272166.736
 31
0.0
  0
LINE
  8
21
  6
DASHDOT
 62
     7
  5
6BD
 10
915600.029
 20
7272008.8
 30
0.0
 11
915620.052
 21
7272008.176
 31
0.0
  0
LINE
  8
21
  6
DASHDOT
 62
     7
  5
6BE
 10
915599.406
 20
7271988.809
 30
0.0
 11
915619.429
 21
7271988.186
 31
0.0
  0
LINE
  8
21
  6
DASHDOT
 62
     7
  5
6BF
 10
915604.322
 20
7272146.706
 30
0.0
 11
915600.029
 21
7272008.8
 31
0.0
  0
LINE
  8
21
  6
DASHDOT
 62
     7
  5
6C0
 10
915599.406
 20
7271988.809
 30
0.0
 11
915595.114
 21
7271850.943
 31
0.0
  0
LINE
  8
21
  6
DASHDOT
 62
     7
  5
6C1
 10
913053.334
 20
7271739.677
 30
0.0
 11
911993.318
 21
7271772.68
 31
0.0
  0
LINE
  8
21
  6
DASHDOT
 62
     7
  5
6C2
 10
911993.318
 20
7271772.68
 30
0.0
 11
911993.418
 21
7271772.677
 31
0.0
  0
LINE
  8
21
  6
DASHDOT
 62
     7
  5
6C3
 10
913053.023
 20
7271729.681
 30
0.0
 11
911993.007
 21
7271762.685
 31
0.0
  0
LINE
  8
21
  6
DASHDOT
 62
     7
  5
6C4
 10
911993.007
 20
7271762.685
 30
0.0
 11
911993.318
 21
7271772.68
 31
0.0
  0
LINE
  8
21
  6
DASHDOT
 62
     7
  5
6C5
 10
911556.154
 20
7271786.123
 30
0.0
 11
910711.564
 21
7271812.419
 31
0.0
  0
LINE
  8
21
  6
DASHDOT
 62
     7
  5
6C6
 10
910711.564
 20
7271812.419
 30
0.0
 11
910711.251
 21
7271802.424
 31
0.0
  0
LINE
  8
21
  6
DASHDOT
 62
     7
  5
6C7
 10
910711.251
 20
7271802.424
 30
0.0
 11
911555.843
 21
7271776.128
 31
0.0
  0
LINE
  8
21
  6
DASHDOT
 62
     7
  5
6C8
 10
913053.334
 20
7271739.677
 30
0.0
 11
910417.951
 21
7271821.728
 31
0.0
  0
LINE
  8
21
  6
DASHDOT
 62
     7
  5
6C9
 10
910417.951
 20
7271821.728
 30
0.0
 11
910418.262
 21
7271831.723
 31
0.0
  0
LINE
  8
21
  6
DASHDOT
 62
     7
  5
6CA
 10
910418.262
 20
7271831.723
 30
0.0
 11
913053.645
 21
7271749.672
 31
0.0
  0
LINE
  8
21
  6
DASHDOT
 62
     7
  5
6CB
 10
913053.645
 20
7271749.672
 30
0.0
 11
913053.334
 21
7271739.677
 31
0.0
  0
LINE
  8
21
  6
DASHDOT
 62
     7
  5
6CC
 10
912974.171
 20
7269197.098
 30
0.0
 11
913053.334
 21
7271739.677
 31
0.0
  0
LINE
  8
21
  6
DASHDOT
 62
     7
  5
6CD
 10
913053.334
 20
7271739.677
 30
0.0
 11
913063.328
 21
7271739.366
 31
0.0
  0
LINE
  8
21
  6
DASHDOT
 62
     7
  5
6CE
 10
913063.328
 20
7271739.366
 30
0.0
 11
912984.79
 21
7269216.777
 31
0.0
  0
LINE
  8
21
  6
DASHDOT
 62
     7
  5
6CF
 10
912984.79
 20
7269216.777
 30
0.0
 11
912994.785
 21
7269216.466
 31
0.0
  0
LINE
  8
21
  6
DASHDOT
 62
     7
  5
6D0
 10
912994.785
 20
7269216.466
 30
0.0
 11
912994.163
 21
7269196.475
 31
0.0
  0
LINE
  8
21
  6
DASHDOT
 62
     7
  5
6D1
 10
913063.328
 20
7271739.366
 30
0.0
 11
913103.31
 21
7271738.121
 31
0.0
  0
LINE
  8
21
  6
DASHDOT
 62
     7
  5
6D2
 10
913103.31
 20
7271738.121
 30
0.0
 11
913024.147
 21
7269195.542
 31
0.0
  0
LINE
  8
21
  6
DASHDOT
 62
     7
  5
6D3
 10
913024.147
 20
7269195.542
 30
0.0
 11
912974.303
 21
7269197.093
 31
0.0
  0
LINE
  8
21
  6
DASHDOT
 62
     7
  5
6D4
 10
912974.171
 20
7269197.098
 30
0.0
 11
913053.334
 21
7271739.677
 31
0.0
  0
LINE
  8
21
  6
DASHDOT
 62
     7
  5
6D5
 10
913053.334
 20
7271739.677
 30
0.0
 11
913063.328
 21
7271739.366
 31
0.0
  0
LINE
  8
21
  6
DASHDOT
 62
     7
  5
6D6
 10
913150.307
 20
7273890.3
 30
0.0
 11
913248.41
 21
7273947.105
 31
0.0
  0
LINE
  8
21
  6
DASHDOT
 62
     7
  5
6D7
 10
913149.996
 20
7273880.305
 30
0.0
 11
913248.701
 21
7273935.137
 31
0.0
  0
ARC
  8
21
  6
DASHDOT
 62
     7
  5
6D8
 10
913899.677226
 20
7274002.034828
 30
0.0
 40
15.0
 50
88.2167
 51
178.2167
210
0.0
220
0.0
230
1.0
  0
LINE
  8
21
  6
DASHDOT
 62
     7
  5
6D9
 10
914023.131
 20
7273817.188
 30
0.0
 11
914032.815
 21
7273806.881
 31
0.0
  0
TEXT
  8
22
  6
CONTINUOUS
 62
     3
  5
6DB
 10
913482.054
 20
7273912.295
 30
0.0
 40
8.0
  1
Surface Drainage Easement 
 50
358.2167
  7
ROMANS
210
0.0
220
0.0
230
1.0
  0
TEXT
  8
22
  6
CONTINUOUS
 62
     3
  5
6DC
 10
913566.904
 20
7273931.687
 30
0.0
 40
8.0
  1
580'
 50
358.2167
  7
ROMANS
210
0.0
220
0.0
230
1.0
  0
TEXT
  8
22
  6
CONTINUOUS
 62
     3
  5
6DD
 10
913565.563
 20
7273888.62
 30
0.0
 40
8.0
  1
580'
 50
358.2167
  7
ROMANS
210
0.0
220
0.0
230
1.0
  0
TEXT
  8
22
  6
CONTINUOUS
 62
     3
  5
6DE
 10
913253.649
 20
7273955.81
 30
0.0
 40
8.0
  1
25'
 50
358.2167
  7
ROMANS
210
0.0
220
0.0
230
1.0
  0
TEXT
  8
22
  6
CONTINUOUS
 62
     3
  5
6DF
 10
913942.945
 20
7274017.694
 30
0.0
 40
8.0
  1
110'
 50
358.2167
  7
ROMANS
210
0.0
220
0.0
230
1.0
  0
TEXT
  8
22
  6
CONTINUOUS
 62
     3
  5
6E0
 10
913944.261
 20
7273998.492
 30
0.0
 40
8.0
  1
100'
 50
358.2167
  7
ROMANS
210
0.0
220
0.0
230
1.0
  0
INSERT
  8
22
  6
CONTINUOUS
 62
     3
  5
6EA
  2
*D26
 10
913243.542
 20
7273951.711
 30
0.0
 70
     0
 71
     0
  0
TEXT
  8
22
  6
CONTINUOUS
 62
     3
  5
6EB
 10
913197.482
 20
7273949.986
 30
0.0
 40
8.0
  1
5'
 50
358.2167
  7
ROMANS
210
0.0
220
0.0
230
1.0
  0
TEXT
  8
22
  6
CONTINUOUS
 62
     3
  5
6EC
 10
913880.249
 20
7273963.385
 30
0.0
 40
8.0
  1
70'
 50
88.2167
  7
ROMANS
210
0.0
220
0.0
230
1.0
  0
TEXT
  8
22
  6
CONTINUOUS
 62
     3
  5
6ED
 10
913918.953
 20
7273962.18
 30
0.0
 40
8.0
  1
80'
 50
88.2167
  7
ROMANS
210
0.0
220
0.0
230
1.0
  0
INSERT
  8
22
  6
CONTINUOUS
 62
     3
  5
6FB
  2
*D27
 10
913999.849
 20
7274017.813
 30
0.0
 70
     0
 71
     0
  0
INSERT
  8
22
  6
CONTINUOUS
 62
     3
  5
705
  2
*D28
 10
913999.434
 20
7274004.499
 30
0.0
 70
     0
 71
     0
  0
TEXT
  8
22
  6
CONTINUOUS
 62
     3
  5
706
 10
913970.645
 20
7274051.908
 30
0.0
 40
8.0
  1
5'
 50
358.2167
  7
ROMANS
210
0.0
220
0.0
230
1.0
  0
TEXT
  8
22
  6
CONTINUOUS
 62
     3
  5
707
 10
913171.092
 20
7274089.652
 30
0.0
 40
8.0
  1
410'
 50
88.2167
  7
ROMANS
210
0.0
220
0.0
230
1.0
  0
TEXT
  8
22
  6
CONTINUOUS
 62
     3
  5
708
 10
914008.969
 20
7274131.408
 30
0.0
 40
8.0
  1
275'
 50
88.2167
  7
ROMANS
210
0.0
220
0.0
230
1.0
  0
TEXT
  8
22
  6
CONTINUOUS
 62
     3
  5
709
 10
913828.185
 20
7273250.315
 30
0.0
 40
8.0
  1
270.07'
 50
358.2167
  7
ROMANS
210
0.0
220
0.0
230
1.0
  0
TEXT
  8
22
  6
CONTINUOUS
 62
     3
  5
70A
 10
913843.083
 20
7273184.432
 30
0.0
 40
8.0
  1
264.99'
 50
358.2167
  7
ROMANS
210
0.0
220
0.0
230
1.0
  0
TEXT
  8
22
  6
CONTINUOUS
 62
     3
  5
70B
 10
913531.792
 20
7273140.818
 30
0.0
 40
8.0
  1
184.54'
 50
358.2167
  7
ROMANS
210
0.0
220
0.0
230
1.0
  0
TEXT
  8
22
  6
CONTINUOUS
 62
     3
  5
70C
 10
913221.36
 20
7273202.577
 30
0.0
 40
8.0
  1
136.50'
 50
358.2167
  7
ROMANS
210
0.0
220
0.0
230
1.0
  0
TEXT
  8
22
  6
CONTINUOUS
 62
     3
  5
70D
 10
913254.841
 20
7273266.954
 30
0.0
 40
8.0
  1
264.93'
 50
358.2167
  7
ROMANS
210
0.0
220
0.0
230
1.0
  0
TEXT
  8
22
  6
CONTINUOUS
 62
     3
  5
70E
 10
913244.496
 20
7273221.976
 30
0.0
 40
8.0
  1
45.8'
 50
88.2167
  7
ROMANS
210
0.0
220
0.0
230
1.0
  0
TEXT
  8
22
  6
CONTINUOUS
 62
     3
  5
70F
 10
913833.525
 20
7273203.637
 30
0.0
 40
8.0
  1
45.8'
 50
88.2167
  7
ROMANS
210
0.0
220
0.0
230
1.0
  0
TEXT
  8
22
  6
CONTINUOUS
 62
     3
  5
710
 10
913589.591
 20
7273107.044
 30
0.0
 40
8.0
  1
40'
 50
88.2167
  7
ROMANS
210
0.0
220
0.0
230
1.0
  0
TEXT
  8
22
  6
CONTINUOUS
 62
     3
  5
711
 10
913437.225
 20
7273190.534
 30
0.0
 40
8.0
  1
50.8'
 50
88.2167
  7
ROMANS
210
0.0
220
0.0
230
1.0
  0
TEXT
  8
22
  6
CONTINUOUS
 62
     3
  5
712
 10
913683.964
 20
7273182.852
 30
0.0
 40
8.0
  1
50.8'
 50
88.2167
  7
ROMANS
210
0.0
220
0.0
230
1.0
  0
TEXT
  8
22
  6
CONTINUOUS
 62
     3
  5
713
 10
913366.848
 20
7273185.456
 30
0.0
 40
8.0
  1
20'
 50
88.2167
  7
ROMANS
210
0.0
220
0.0
230
1.0
  0
TEXT
  8
22
  6
CONTINUOUS
 62
     3
  5
714
 10
913749.051
 20
7273173.557
 30
0.0
 40
8.0
  1
20'
 50
88.2167
  7
ROMANS
210
0.0
220
0.0
230
1.0
  0
TEXT
  8
22
  6
CONTINUOUS
 62
     3
  5
715
 10
913990.534
 20
7273580.365
 30
0.0
 40
8.0
  1
770'
 50
88.2167
  7
ROMANS
210
0.0
220
0.0
230
1.0
  0
TEXT
  8
22
  6
CONTINUOUS
 62
     3
  5
716
 10
913431.897
 20
7273120.91
 30
0.0
 40
8.0
  1
Surface Drainage
 50
358.2167
  7
ROMANS
210
0.0
220
0.0
230
1.0
  0
TEXT
  8
22
  6
CONTINUOUS
 62
     3
  5
717
 10
913619.37
 20
7273115.073
 30
0.0
 40
8.0
  1
Easement
 50
358.2167
  7
ROMANS
210
0.0
220
0.0
230
1.0
  0
TEXT
  8
22
  6
CONTINUOUS
 62
     3
  5
718
 10
914230.183
 20
7273202.555
 30
0.0
 40
8.0
  1
Surface Drainage Easement
 50
358.2167
  7
ROMANS
210
0.0
220
0.0
230
1.0
  0
TEXT
  8
22
  6
CONTINUOUS
 62
     3
  5
719
 10
914198.942
 20
7273236.26
 30
0.0
 40
8.0
  1
455.63'
 50
358.2167
  7
ROMANS
210
0.0
220
0.0
230
1.0
  0
TEXT
  8
22
  6
CONTINUOUS
 62
     3
  5
71A
 10
914224.801
 20
7273172.458
 30
0.0
 40
8.0
  1
495.63'
 50
358.2167
  7
ROMANS
210
0.0
220
0.0
230
1.0
  0
TEXT
  8
22
  6
CONTINUOUS
 62
     3
  5
71B
 10
914151.93
 20
7273193.633
 30
0.0
 40
8.0
  1
45.8'
 50
88.2167
  7
ROMANS
210
0.0
220
0.0
230
1.0
  0
TEXT
  8
22
  6
CONTINUOUS
 62
     3
  5
71C
 10
914581.782
 20
7273337.743
 30
0.0
 40
8.0
  1
45.8'
 50
88.2167
  7
ROMANS
210
0.0
220
0.0
230
1.0
  0
TEXT
  8
22
  6
CONTINUOUS
 62
     3
  5
71D
 10
914488.992
 20
7273258.728
 30
0.0
 40
8.0
  1
40'
 50
358.2167
  7
ROMANS
210
0.0
220
0.0
230
1.0
  0
TEXT
  8
22
  6
CONTINUOUS
 62
     3
  5
71E
 10
914571.454
 20
7273379.731
 30
0.0
 40
8.0
  1
35'
 50
358.2167
  7
ROMANS
210
0.0
220
0.0
230
1.0
  0
TEXT
  8
22
  6
CONTINUOUS
 62
     3
  5
71F
 10
914588.959
 20
7273319.823
 30
0.0
 40
8.0
  1
95.20'
 50
358.2167
  7
ROMANS
210
0.0
220
0.0
230
1.0
  0
TEXT
  8
22
  6
CONTINUOUS
 62
     3
  5
721
 10
914649.543
 20
7273632.5
 30
0.0
 40
6.0
  1
56'
 50
358.2167
  7
txt
210
0.0
220
0.0
230
1.0
  0
TEXT
  8
22
  6
CONTINUOUS
 62
     3
  5
722
 10
914025.777
 20
7273483.47
 30
0.0
 40
8.0
  1
550'
 50
88.2167
  7
ROMANS
210
0.0
220
0.0
230
1.0
  0
TEXT
  8
22
  6
CONTINUOUS
 62
     3
  5
723
 10
914620.995
 20
7273547.319
 30
0.0
 40
8.0
  1
370'
 50
88.2167
  7
ROMANS
210
0.0
220
0.0
230
1.0
  0
TEXT
  8
22
  6
CONTINUOUS
 62
     3
  5
724
 10
914693.081
 20
7273516.0
 30
0.0
 40
6.0
  1
380.80'
 50
88.2167
  7
txt
210
0.0
220
0.0
230
1.0
  0
TEXT
  8
22
  6
CONTINUOUS
 62
     3
  5
725
 10
914474.294
 20
7273268.4
 30
0.0
 40
8.0
  1
68'
 50
88.2167
  7
ROMANS
210
0.0
220
0.0
230
1.0
  0
TEXT
  8
22
  6
CONTINUOUS
 62
     3
  5
726
 10
914530.311
 20
7273240.005
 30
0.0
 40
8.0
  1
108'
 50
88.2167
  7
ROMANS
210
0.0
220
0.0
230
1.0
  0
TEXT
  8
22
  6
CONTINUOUS
 62
     3
  5
727
 10
914843.515
 20
7273731.733
 30
0.0
 40
6.0
  1
368.62'
 50
358.2167
  7
txt
210
0.0
220
0.0
230
1.0
  0
TEXT
  8
22
  6
CONTINUOUS
 62
     3
  5
728
 10
915004.865
 20
7273781.226
 30
0.0
 40
6.0
  1
123.62'
 50
358.2167
  7
txt
210
0.0
220
0.0
230
1.0
  0
TEXT
  8
22
  6
CONTINUOUS
 62
     3
  5
729
 10
914035.633
 20
7273810.534
 30
0.0
 40
8.0
  1
14.14'
 50
43.2167
  7
ROMANS
210
0.0
220
0.0
230
1.0
  0
TEXT
  8
22
  6
CONTINUOUS
 62
     3
  5
72A
 10
913986.925
 20
7272824.124
 30
0.0
 40
8.0
  1
20' Utility Easement
 50
88.2167
  7
ROMANS
210
0.0
220
0.0
230
1.0
  0
TEXT
  8
22
  6
CONTINUOUS
 62
     3
  5
72B
 10
914017.239
 20
7273821.247
 30
0.0
 40
8.0
  1
20' Utility Easement
 50
88.2167
  7
ROMANS
210
0.0
220
0.0
230
1.0
  0
TEXT
  8
22
  6
CONTINUOUS
 62
     3
  5
72C
 10
914681.884
 20
7273754.646
 30
0.0
 40
6.0
  1
40' Surface Drainage Easement
 50
358.2167
  7
txt
210
0.0
220
0.0
230
1.0
  0
TEXT
  8
22
  6
CONTINUOUS
 62
     3
  5
72D
 10
914027.183
 20
7274170.432
 30
0.0
 40
8.0
  1
40'
 50
358.2167
  7
ROMANS
210
0.0
220
0.0
230
1.0
  0
TEXT
  8
22
  6
CONTINUOUS
 62
     3
  5
72E
 10
914137.118
 20
7274247.52
 30
0.0
 40
8.0
  1
60'
 50
88.2167
  7
ROMANS
210
0.0
220
0.0
230
1.0
  0
TEXT
  8
22
  6
CONTINUOUS
 62
     3
  5
72F
 10
914064.27
 20
7274107.166
 30
0.0
 40
8.0
  1
220'
 50
88.2167
  7
ROMANS
210
0.0
220
0.0
230
1.0
  0
TEXT
  8
22
  6
CONTINUOUS
 62
     3
  5
730
 10
915033.874
 20
7274202.456
 30
0.0
 40
6.0
  1
60' Surface Drainage Easement
 50
358.2167
  7
txt
210
0.0
220
0.0
230
1.0
  0
TEXT
  8
22
  6
CONTINUOUS
 62
     3
  5
731
 10
915122.779
 20
7273775.967
 30
0.0
 40
6.0
  1
45' Drainage Channel
 50
43.2167
  7
txt
210
0.0
220
0.0
230
1.0
  0
TEXT
  8
22
  6
CONTINUOUS
 62
     3
  5
732
 10
915122.526
 20
7273819.0
 30
0.0
 40
6.0
  1
173.73'
 50
43.2167
  7
txt
210
0.0
220
0.0
230
1.0
  0
TEXT
  8
22
  6
CONTINUOUS
 62
     3
  5
733
 10
915236.96
 20
7273945.911
 30
0.0
 40
6.0
  1
140'
 50
68.2167
  7
txt
210
0.0
220
0.0
230
1.0
  0
TEXT
  8
22
  6
CONTINUOUS
 62
     3
  5
734
 10
915115.253
 20
7273707.94
 30
0.0
 40
6.0
  1
20'
 50
88.2167
  7
txt
210
0.0
220
0.0
230
1.0
  0
TEXT
  8
22
  6
CONTINUOUS
 62
     3
  5
735
 10
915045.365
 20
7273490.591
 30
0.0
 40
8.0
  1
2' Service Easement
 50
88.2167
  7
ROMANS
210
0.0
220
0.0
230
1.0
  0
LINE
  8
21
  6
DASHDOT
 62
     7
  5
736
 10
915400.83
 20
7272751.604
 30
0.0
 11
915397.406
 21
7272641.626
 31
0.0
  0
TEXT
  8
22
  6
CONTINUOUS
 62
     3
  5
737
 10
915043.97
 20
7272530.315
 30
0.0
 40
8.0
  1
20' Utility Easement
 50
88.2167
  7
ROMANS
210
0.0
220
0.0
230
1.0
  0
TEXT
  8
22
  6
CONTINUOUS
 62
     3
  5
738
 10
912986.343
 20
7271769.063
 30
0.0
 40
8.0
  1
10'
 50
88.2167
  7
ROMANS
210
0.0
220
0.0
230
1.0
  0
TEXT
  8
22
  6
CONTINUOUS
 62
     3
  5
739
 10
913006.361
 20
7271781.533
 30
0.0
 40
8.0
  1
20'
 50
88.2167
  7
ROMANS
210
0.0
220
0.0
230
1.0
  0
TEXT
  8
22
  6
CONTINUOUS
 62
     3
  5
73A
 10
912495.302
 20
7271734.882
 30
0.0
 40
8.0
  1
1060.53'
 50
358.2167
  7
ROMANS
210
0.0
220
0.0
230
1.0
  0
INSERT
  8
22
  6
CONTINUOUS
 62
     3
  5
744
  2
*D29
 10
912981.312
 20
7271743.644
 30
0.0
 70
     0
 71
     0
  0
INSERT
  8
22
  6
CONTINUOUS
 62
     3
  5
74E
  2
*D30
 10
912981.069
 20
7271730.38
 30
0.0
 70
     0
 71
     0
  0
INSERT
  8
22
  6
CONTINUOUS
 62
     3
  5
758
  2
*D31
 10
913002.191
 20
7271753.374
 30
0.0
 70
     0
 71
     0
  0
INSERT
  8
22
  6
CONTINUOUS
 62
     3
  5
762
  2
*D32
 10
913001.29
 20
7271729.92
 30
0.0
 70
     0
 71
     0
  0
TEXT
  8
22
  6
CONTINUOUS
 62
     3
  5
763
 10
911124.252
 20
7271777.236
 30
0.0
 40
8.0
  1
845'
 50
358.2167
  7
ROMANS
210
0.0
220
0.0
230
1.0
  0
TEXT
  8
22
  6
CONTINUOUS
 62
     3
  5
764
 10
911533.032
 20
7271813.515
 30
0.0
 40
8.0
  1
10'
 50
88.2167
  7
ROMANS
210
0.0
220
0.0
230
1.0
  0
INSERT
  8
22
  6
CONTINUOUS
 62
     3
  5
76E
  2
*D33
 10
911528.765
 20
7271788.577
 30
0.0
 70
     0
 71
     0
  0
INSERT
  8
22
  6
CONTINUOUS
 62
     3
  5
778
  2
*D34
 10
911528.343
 20
7271775.043
 30
0.0
 70
     0
 71
     0
  0
TEXT
  8
22
  6
CONTINUOUS
 62
     3
  5
779
 10
911687.635
 20
7271802.872
 30
0.0
 40
8.0
  1
2636.66'
 50
358.2167
  7
ROMANS
210
0.0
220
0.0
230
1.0
  0
TEXT
  8
22
  6
CONTINUOUS
 62
     3
  5
77A
 10
910459.656
 20
7271537.474
 30
0.0
 40
8.0
  1
529.73'
 50
88.2167
  7
ROMANS
210
0.0
220
0.0
230
1.0
  0
TEXT
  8
22
  6
CONTINUOUS
 62
     3
  5
77B
 10
910661.65
 20
7271097.839
 30
0.0
 40
8.0
  1
20' Utility Easement
 50
88.2167
  7
ROMANS
210
0.0
220
0.0
230
1.0
  0
TEXT
  8
22
  6
CONTINUOUS
 62
     3
  5
77C
 10
911932.378
 20
7269375.606
 30
0.0
 40
8.0
  1
30' Drainage Easement
 50
88.2167
  7
ROMANS
210
0.0
220
0.0
230
1.0
  0
TEXT
  8
22
  6
CONTINUOUS
 62
     3
  5
77D
 10
913087.561
 20
7270486.843
 30
0.0
 40
8.0
  1
1545.20'
 50
88.2167
  7
ROMANS
210
0.0
220
0.0
230
1.0
  0
TEXT
  8
22
  6
CONTINUOUS
 62
     3
  5
77E
 10
913000.901
 20
7269377.535
 30
0.0
 40
8.0
  1
40'
 50
358.2167
  7
ROMANS
210
0.0
220
0.0
230
1.0
  0
TEXT
  8
22
  6
CONTINUOUS
 62
     3
  5
77F
 10
912984.996
 20
7269165.803
 30
0.0
 40
8.0
  1
40'
 50
88.2167
  7
ROMANS
210
0.0
220
0.0
230
1.0
  0
TEXT
  8
22
  6
CONTINUOUS
 62
     3
  5
780
 10
912938.468
 20
7269202.288
 30
0.0
 40
8.0
  1
20'
 50
358.2167
  7
ROMANS
210
0.0
220
0.0
230
1.0
  0
INSERT
  8
22
  6
CONTINUOUS
 62
     3
  5
78A
  2
*D35
 10
912970.998
 20
7269206.484
 30
0.0
 70
     0
 71
     0
  0
INSERT
  8
22
  6
CONTINUOUS
 62
     3
  5
794
  2
*D36
 10
912996.667
 20
7269205.686
 30
0.0
 70
     0
 71
     0
  0
TEXT
  8
22
  6
CONTINUOUS
 62
     3
  5
795
 10
912939.35
 20
7269266.542
 30
0.0
 40
8.0
  1
10'
 50
358.2167
  7
ROMANS
210
0.0
220
0.0
230
1.0
  0
INSERT
  8
22
  6
CONTINUOUS
 62
     3
  5
79F
  2
*D37
 10
912973.538
 20
7269270.127
 30
0.0
 70
     0
 71
     0
  0
INSERT
  8
22
  6
CONTINUOUS
 62
     3
  5
7A9
  2
*D38
 10
912989.703
 20
7269269.064
 30
0.0
 70
     0
 71
     0
  0
TEXT
  8
22
  6
CONTINUOUS
 62
     3
  5
7AA
 10
912436.312
 20
7271750.791
 30
0.0
 40
7.0
  1
10' Sanitary Sewer Line Easement
 50
358.2167
  7
ROMANS
210
0.0
220
0.0
230
1.0
  0
TEXT
  8
22
  6
CONTINUOUS
 62
     3
  5
7AB
 10
911635.325
 20
7271785.822
 30
0.0
 40
7.0
  1
10' Sanitary Sewer Line Easement
 50
358.2167
  7
ROMANS
210
0.0
220
0.0
230
1.0
  0
TEXT
  8
22
  6
CONTINUOUS
 62
     3
  5
7AC
 10
911031.957
 20
7271795.141
 30
0.0
 40
7.0
  1
10' Sanitary Sewer Line Easement
 50
358.2167
  7
ROMANS
210
0.0
220
0.0
230
1.0
  0
TEXT
  8
22
  6
CONTINUOUS
 62
     3
  5
7AD
 10
913044.449
 20
7270388.529
 30
0.0
 40
8.0
  1
50' Sanitary Sewer Line Easement
 50
88.2167
  7
ROMANS
210
0.0
220
0.0
230
1.0
  0
TEXT
  8
22
  6
CONTINUOUS
 62
     3
  5
7AE
 10
915366.145
 20
7271736.961
 30
0.0
 40
8.0
  1
4' UUE LPL
 50
88.2167
  7
ROMANS
210
0.0
220
0.0
230
1.0
  0
TEXT
  8
22
  6
CONTINUOUS
 62
     3
  5
7AF
 10
915387.31
 20
7271736.302
 30
0.0
 40
8.0
  1
4' UUE SPS
 50
88.2167
  7
ROMANS
210
0.0
220
0.0
230
1.0
  0
TEXT
  8
22
  6
CONTINUOUS
 62
     3
  5
7B0
 10
915389.718
 20
7272489.876
 30
0.0
 40
8.0
  1
4' UUE LPL
 50
88.2167
  7
ROMANS
210
0.0
220
0.0
230
1.0
  0
TEXT
  8
22
  6
CONTINUOUS
 62
     3
  5
7B1
 10
915411.214
 20
7272489.208
 30
0.0
 40
8.0
  1
4' UUE SPS
 50
88.2167
  7
ROMANS
210
0.0
220
0.0
230
1.0
  0
TEXT
  8
22
  6
CONTINUOUS
 62
     3
  5
7B2
 10
915394.858
 20
7272655.302
 30
0.0
 40
8.0
  1
4' UUE LPL
 50
88.2167
  7
ROMANS
210
0.0
220
0.0
230
1.0
  0
TEXT
  8
22
  6
CONTINUOUS
 62
     3
  5
7B3
 10
915416.518
 20
7272654.628
 30
0.0
 40
8.0
  1
4' UUE SPS
 50
88.2167
  7
ROMANS
210
0.0
220
0.0
230
1.0
  0
TEXT
  8
22
  6
CONTINUOUS
 62
     3
  5
7B4
 10
915434.727
 20
7273378.106
 30
0.0
 40
6.0
  1
4' UUE SPS
 50
88.2167
  7
txt
210
0.0
220
0.0
230
1.0
  0
TEXT
  8
22
  6
CONTINUOUS
 62
     3
  5
7B5
 10
915414.416
 20
7273378.739
 30
0.0
 40
6.0
  1
4' UUE LPL
 50
88.2167
  7
txt
210
0.0
220
0.0
230
1.0
  0
LINE
  8
21
  6
DASHDOT
 62
     7
  5
7B6
 10
915076.243
 20
7273375.192
 30
0.0
 11
915186.367
 21
7273371.763
 31
0.0
  0
TEXT
  8
22
  6
CONTINUOUS
 62
     3
  5
7B7
 10
915110.787
 20
7273376.702
 30
0.0
 40
8.0
  1
5' UUE
 50
358.2167
  7
ROMANS
210
0.0
220
0.0
230
1.0
  0
LINE
  8
21
  6
DASHDOT
 62
     7
  5
7B8
 10
915065.88
 20
7273042.354
 30
0.0
 11
915175.592
 21
7273038.937
 31
0.0
  0
TEXT
  8
22
  6
CONTINUOUS
 62
     3
  5
7B9
 10
915080.223
 20
7273043.916
 30
0.0
 40
8.0
  1
4' UUE SPS
 50
358.2167
  7
ROMANS
210
0.0
220
0.0
230
1.0
  0
LINE
  8
21
  6
DASHDOT
 62
     7
  5
7BA
 10
915072.478
 20
7273254.252
 30
0.0
 11
915182.383
 21
7273250.83
 31
0.0
  0
TEXT
  8
22
  6
CONTINUOUS
 62
     3
  5
7BB
 10
915072.856
 20
7273247.774
 30
0.0
 40
4.849
  1
5' UUE FOR FIRE HYDRANT
 50
358.2167
  7
ROMANS
210
0.0
220
0.0
230
1.0
  0
TEXT
  8
22
  6
CONTINUOUS
 62
     3
  5
7BC
 10
915112.197
 20
7273240.89
 30
0.0
 40
4.849
  1
SERVICE
 50
358.2167
  7
ROMANS
210
0.0
220
0.0
230
1.0
  0
TEXT
  8
22
  6
CONTINUOUS
 62
     3
  5
7BD
 10
915075.16
 20
7272765.33
 30
0.0
 40
8.0
  1
4' UUE SPS
 50
358.2167
  7
ROMANS
210
0.0
220
0.0
230
1.0
  0
TEXT
  8
22
  6
CONTINUOUS
 62
     3
  5
7BE
 10
915065.521
 20
7272501.403
 30
0.0
 40
8.0
  1
4' UUE SPS
 50
358.2167
  7
ROMANS
210
0.0
220
0.0
230
1.0
  0
TEXT
  8
22
  6
CONTINUOUS
 62
     3
  5
7BF
 10
915053.725
 20
7272181.454
 30
0.0
 40
8.0
  1
4' UUE SPS
 50
358.2167
  7
ROMANS
210
0.0
220
0.0
230
1.0
  0
TEXT
  8
22
  6
CONTINUOUS
 62
     3
  5
7C0
 10
915063.866
 20
7271981.919
 30
0.0
 40
8.0
  1
5' UUE
 50
358.2167
  7
ROMANS
210
0.0
220
0.0
230
1.0
  0
TEXT
  8
22
  6
CONTINUOUS
 62
     3
  5
7C1
 10
915634.974
 20
7271917.866
 30
0.0
 40
8.0
  1
20' Utility Easement
 50
88.2167
  7
ROMANS
210
0.0
220
0.0
230
1.0
  0
INSERT
  8
22
  6
CONTINUOUS
 62
     3
  5
7CF
  2
*D39
 10
915619.845
 20
7272303.069
 30
0.0
 70
     0
 71
     0
  0
TEXT
  8
22
  6
CONTINUOUS
 62
     3
  5
7D0
 10
915652.422
 20
7273293.679
 30
0.0
 40
6.0
  1
20' Utility Easement
 50
88.2167
  7
txt
210
0.0
220
0.0
230
1.0
  0
INSERT
  8
22
  6
CONTINUOUS
 62
     3
  5
7DE
  2
*D40
 10
915637.878
 20
7272894.502
 30
0.0
 70
     0
 71
     0
  0
INSERT
  8
22
  6
CONTINUOUS
 62
     3
  5
7ED
  2
*D41
 10
915078.901
 20
7273490.712
 30
0.0
 70
     0
 71
     0
  0
INSERT
  8
22
  6
CONTINUOUS
 62
     3
  5
7F7
  2
*D42
 10
915616.479
 20
7272110.584
 30
0.0
 70
     0
 71
     0
  0
INSERT
  8
22
  6
CONTINUOUS
 62
     3
  5
801
  2
*D43
 10
915610.429
 20
7271887.479
 30
0.0
 70
     0
 71
     0
  0
INSERT
  8
22
  6
CONTINUOUS
 62
     3
  5
80B
  2
*D44
 10
915648.607
 20
7273085.98
 30
0.0
 70
     0
 71
     0
  0
INSERT
  8
22
  6
CONTINUOUS
 62
     3
  5
815
  2
*D45
 10
911919.215
 20
7269635.704
 30
0.0
 70
     0
 71
     0
  0
INSERT
  8
22
  6
CONTINUOUS
 62
     3
  5
81F
  2
*D46
 10
911906.017
 20
7269259.173
 30
0.0
 70
     0
 71
     0
  0
TEXT
  8
22
  6
CONTINUOUS
 62
     3
  5
820
 10
913155.529
 20
7273553.058
 30
0.0
 40
8.0
  1
615.10'
 50
88.2167
  7
ROMANS
210
0.0
220
0.0
230
1.0
  0
TEXT
  8
22
  6
CONTINUOUS
 62
     3
  5
821
 10
914538.547
 20
7273779.825
 30
0.0
 40
6.0
  1
20' Garbage Collection & Utility Easement
 50
358.2167
  7
txt
210
0.0
220
0.0
230
1.0
  0
TEXT
  8
22
  6
CONTINUOUS
 62
     3
  5
822
 10
915096.362
 20
7273722.703
 30
0.0
 40
6.0
  1
65.60'
 50
88.2167
  7
txt
210
0.0
220
0.0
230
1.0
  0
TEXT
  8
22
  6
CONTINUOUS
 62
     3
  5
823
 10
915332.555
 20
7274091.385
 30
0.0
 40
6.0
  1
Storm Water Storage &
 50
358.2167
  7
txt
210
0.0
220
0.0
230
1.0
  0
TEXT
  8
22
  6
CONTINUOUS
 62
     3
  5
824
 10
915332.182
 20
7274079.391
 30
0.0
 40
6.0
  1
Drainage Easement
 50
358.2167
  7
txt
210
0.0
220
0.0
230
1.0
  0
INSERT
  8
22
  6
CONTINUOUS
 62
     3
  5
82A
  2
*D47
 10
913149.996
 20
7273880.305
 30
0.0
 70
     0
 71
     0
  0
TEXT
  8
22
  6
CONTINUOUS
 62
     3
  5
82B
 10
913166.215
 20
7273905.996
 30
0.0
 40
8.0
  1
112.99'
 50
28.2167
  7
ROMANS
210
0.0
220
0.0
230
1.0
  0
TEXT
  8
22
  6
CONTINUOUS
 62
     3
  5
82C
 10
913393.995
 20
7273220.088
 30
0.0
 40
8.0
  1
R=25'
 50
43.2167
  7
ROMANS
210
0.0
220
0.0
230
1.0
  0
TEXT
  8
22
  6
CONTINUOUS
 62
     3
  5
82D
 10
913700.868
 20
7273234.221
 30
0.0
 40
8.0
  1
R=25'
 50
313.2167
  7
ROMANS
210
0.0
220
0.0
230
1.0
  0
TEXT
  8
22
  6
CONTINUOUS
 62
     3
  5
82E
 10
913645.972
 20
7273167.144
 30
0.0
 40
8.0
  1
R=40'
 50
313.2167
  7
ROMANS
210
0.0
220
0.0
230
1.0
  0
TEXT
  8
22
  6
CONTINUOUS
 62
     3
  5
82F
 10
913441.498
 20
7273152.1
 30
0.0
 40
8.0
  1
R=40'
 50
43.2167
  7
ROMANS
210
0.0
220
0.0
230
1.0
  0
LINE
  8
21
  6
DASHDOT
 62
     7
  5
830
 10
913654.783
 20
7273093.415
 30
0.0
 11
913447.883
 21
7273099.857
 31
0.0
  0
ARC
  8
21
  6
DASHDOT
 62
     7
  5
831
 10
913450.372718
 20
7273179.818708
 30
0.0
 40
80.0
 50
178.2167
 51
268.2167
210
0.0
220
0.0
230
1.0
  0
ARC
  8
21
  6
DASHDOT
 62
     7
  5
832
 10
913657.272462
 20
7273173.376985
 30
0.0
 40
80.0
 50
268.2167
 51
358.2167
210
0.0
220
0.0
230
1.0
  0
TEXT
  8
22
  6
CONTINUOUS
 62
     3
  5
833
 10
913397.983
 20
7273128.856
 30
0.0
 40
8.0
  1
R=80'
 50
43.2167
  7
ROMANS
210
0.0
220
0.0
230
1.0
  0
TEXT
  8
22
  6
CONTINUOUS
 62
     3
  5
834
 10
913685.712
 20
7273142.219
 30
0.0
 40
8.0
  1
R=80'
 50
313.2167
  7
ROMANS
210
0.0
220
0.0
230
1.0
  0
TEXT
  8
22
  6
CONTINUOUS
 62
     3
  5
835
 10
913542.523
 20
7273085.498
 30
0.0
 40
8.0
  1
207'
 50
358.2167
  7
ROMANS
210
0.0
220
0.0
230
1.0
  0
TEXT
  8
22
  6
CONTINUOUS
 62
     3
  5
836
 10
914500.947
 20
7273347.553
 30
0.0
 40
8.0
  1
R=80'
 50
313.2167
  7
ROMANS
210
0.0
220
0.0
230
1.0
  0
TEXT
  8
22
  6
CONTINUOUS
 62
     3
  5
837
 10
914532.883
 20
7273316.846
 30
0.0
 40
8.0
  1
R=40'
 50
313.2167
  7
ROMANS
210
0.0
220
0.0
230
1.0
  0
TEXT
  8
22
  6
CONTINUOUS
 62
     3
  5
838
 10
914583.192
 20
7273406.708
 30
0.0
 40
8.0
  1
R=25'
 50
313.2167
  7
ROMANS
210
0.0
220
0.0
230
1.0
  0
TEXT
  8
22
  6
CONTINUOUS
 62
     3
  5
839
 10
914635.824
 20
7273365.755
 30
0.0
 40
8.0
  1
R=35'
 50
313.2167
  7
ROMANS
210
0.0
220
0.0
230
1.0
  0
TEXT
  8
22
  6
CONTINUOUS
 62
     3
  5
83A
 10
914441.383
 20
7273253.866
 30
0.0
 40
8.0
  1
R=15'
 50
313.2167
  7
ROMANS
210
0.0
220
0.0
230
1.0
  0
TEXT
  8
22
  6
CONTINUOUS
 62
     3
  5
83B
 10
914477.771
 20
7273204.732
 30
0.0
 40
8.0
  1
R=15'
 50
313.2167
  7
ROMANS
210
0.0
220
0.0
230
1.0
  0
TEXT
  8
22
  6
CONTINUOUS
 62
     3
  5
83C
 10
913242.147
 20
7273887.204
 30
0.0
 40
8.0
  1
R=40'
 50
43.2167
  7
ROMANS
210
0.0
220
0.0
230
1.0
  0
TEXT
  8
22
  6
CONTINUOUS
 62
     3
  5
83D
 10
913283.739
 20
7273940.615
 30
0.0
 40
8.0
  1
R=15'
 50
43.2167
  7
ROMANS
210
0.0
220
0.0
230
1.0
  0
TEXT
  8
22
  6
CONTINUOUS
 62
     3
  5
83E
 10
913845.736
 20
7273947.091
 30
0.0
 40
8.0
  1
R=15'
 50
313.2167
  7
ROMANS
210
0.0
220
0.0
230
1.0
  0
TEXT
  8
22
  6
CONTINUOUS
 62
     3
  5
83F
 10
913898.365
 20
7273901.196
 30
0.0
 40
8.0
  1
R=40'
 50
313.2167
  7
ROMANS
210
0.0
220
0.0
230
1.0
  0
TEXT
  8
22
  6
CONTINUOUS
 62
     3
  5
840
 10
913862.107
 20
7274038.783
 30
0.0
 40
8.0
  1
R=15'
 50
313.2167
  7
ROMANS
210
0.0
220
0.0
230
1.0
  0
LINE
  8
21
  6
DASHDOT
 62
     7
  5
841
 10
915409.13
 20
7272751.099
 30
0.0
 11
915405.707
 21
7272641.154
 31
0.0
  0
LINE
  8
21
  6
DASHDOT
 62
     7
  5
842
 10
915410.322
 20
7273047.206
 30
0.0
 11
915406.9
 21
7272937.259
 31
0.0
  0
LINE
  8
21
  6
DASHDOT
 62
     7
  5
843
 10
915418.319
 20
7273046.957
 30
0.0
 11
915414.896
 21
7272937.01
 31
0.0
  0
LINE
  8
21
  6
DASHDOT
 62
     7
  5
844
 10
915419.11
 20
7273066.943
 30
0.0
 11
915422.533
 21
7273176.889
 31
0.0
  0
LINE
  8
21
  6
DASHDOT
 62
     7
  5
845
 10
915411.114
 20
7273067.191
 30
0.0
 11
915414.537
 21
7273177.137
 31
0.0
  0
LINE
  8
21
  6
DASHDOT
 62
     7
  5
846
 10
915418.455
 20
7273343.096
 30
0.0
 11
915415.032
 21
7273233.149
 31
0.0
  0
LINE
  8
21
  6
DASHDOT
 62
     7
  5
847
 10
915426.451
 20
7273342.847
 30
0.0
 11
915423.027
 21
7273232.9
 31
0.0
  0
LINE
  8
21
  6
DASHDOT
 62
     7
  5
848
 10
915419.081
 20
7273363.086
 30
0.0
 11
915422.504
 21
7273473.034
 31
0.0
  0
LINE
  8
21
  6
DASHDOT
 62
     7
  5
849
 10
915427.077
 20
7273362.837
 30
0.0
 11
915430.5
 21
7273472.785
 31
0.0
  0
LINE
  8
21
  6
DASHDOT
 62
     7
  5
84A
 10
911555.843
 20
7271776.128
 30
0.0
 11
911556.154
 21
7271786.123
 31
0.0
  0
TEXT
  8
22
  6
CONTINUOUS
 62
     3
  5
84B
 10
915654.421
 20
7272769.102
 30
0.0
 40
8.0
  1
20' Drainage & Utility Easement
 50
88.2167
  7
ROMANS
210
0.0
220
0.0
230
1.0
  0
TEXT
  8
22
  6
CONTINUOUS
 62
     3
  5
84C
 10
915638.27
 20
7272177.609
 30
0.0
 40
8.0
  1
20' Drainage & Utility Easement
 50
88.2167
  7
ROMANS
210
0.0
220
0.0
230
1.0
  0
POLYLINE
  8
1
  6
HIDDEN
 62
   253
  5
84E
 66
     1
 10
0.0
 20
0.0
 30
0.0
  0
VERTEX
  8
1
  6
HIDDEN
 62
   253
  5
84F
 10
910332.955
 20
7269184.285
 30
0.0
  0
VERTEX
  8
1
  6
HIDDEN
 62
   253
  5
850
 10
915610.258
 20
7269018.616
 30
0.0
  0
VERTEX
  8
1
  6
HIDDEN
 62
   253
  5
851
 10
915774.749
 20
7274297.378
 30
0.0
  0
VERTEX
  8
1
  6
HIDDEN
 62
   253
  5
852
 10
910497.446
 20
7274463.047
 30
0.0
  0
VERTEX
  8
1
  6
HIDDEN
 62
   253
  5
853
 10
910332.955
 20
7269184.285
 30
0.0
  0
SEQEND
  8
1
  6
HIDDEN
 62
   253
  5
854
  0
LINE
  8
6
  6
CONTINUOUS
 62
     7
  5
855
 10
910690.002
 20
7271643.685
 30
0.0
 11
910694.359
 21
7271783.617
 31
0.0
  0
LINE
  8
6
  6
CONTINUOUS
 62
     7
  5
856
 10
910484.261
 20
7271790.158
 30
0.0
 11
910694.359
 21
7271783.617
 31
0.0
  0
LINE
  8
6
  6
CONTINUOUS
 62
     7
  5
857
 10
910690.002
 20
7271643.685
 30
0.0
 11
910449.919
 21
7271651.16
 31
0.0
  0
TEXT
  8
11
  6
CONTINUOUS
 62
     7
  5
858
 10
910530.229
 20
7271776.422
 30
0.0
 40
8.0
  1
210.16'
 50
358.2167
  7
ROMANS
 72
     4
 11
910555.674208
 21
7271779.631714
 31
0.0
210
0.0
220
0.0
230
1.0
  0
TEXT
  8
11
  6
CONTINUOUS
 62
     7
  5
859
 10
910462.193
 20
7271685.342
 30
0.0
 40
8.0
  1
109.96'
 50
88.2167
  7
ROMANS
 72
     4
 11
910458.983286
 21
7271710.787208
 31
0.0
210
0.0
220
0.0
230
1.0
  0
TEXT
  8
11
  6
CONTINUOUS
 62
     7
  5
85A
 10
910688.494
 20
7271693.877
 30
0.0
 40
8.0
  1
140'
 50
88.2167
  7
ROMANS
 72
     4
 11
910684.910853
 21
7271707.32802
 31
0.0
210
0.0
220
0.0
230
1.0
  0
TEXT
  8
11
  6
CONTINUOUS
 62
     7
  5
85B
 10
910422.082
 20
7271658.363
 30
0.0
 40
8.0
  1
55'
 50
358.2167
  7
ROMANS
 72
     4
 11
910431.534958
 21
7271662.070625
 31
0.0
210
0.0
220
0.0
230
1.0
  0
TEXT
  8
11
  6
CONTINUOUS
 62
     7
  5
85C
 10
910429.154
 20
7271842.617
 30
0.0
 40
8.0
  1
55'
 50
358.2167
  7
ROMANS
 72
     4
 11
910438.606958
 21
7271846.324625
 31
0.0
210
0.0
220
0.0
230
1.0
  0
TEXT
  8
11
  6
CONTINUOUS
 62
     7
  5
85D
 10
910464.348
 20
7271771.801
 30
0.0
 40
8.0
  1
R=30'
 50
358.2167
  7
ROMANS
 72
     4
 11
910481.797083
 21
7271775.25967
 31
0.0
210
0.0
220
0.0
230
1.0
  0
TEXT
  8
10
  6
CONTINUOUS
 62
   134
  5
85E
 10
910539.164
 20
7271708.761
 30
0.0
 40
13.999
  1
LOT 1
 50
358.2167
  7
ROMANS
 72
     4
 11
910569.698146
 21
7271714.813726
 31
0.0
210
0.0
220
0.0
230
1.0
  0
POLYLINE
  8
21
  6
DASHDOT
 62
     7
  5
85F
 66
     1
 10
0.0
 20
0.0
 30
0.0
  0
VERTEX
  8
21
  6
DASHDOT
 62
     7
  5
860
 10
910584.412
 20
7271787.04
 30
0.0
  0
VERTEX
  8
21
  6
DASHDOT
 62
     7
  5
861
 10
910594.407
 20
7271786.729
 30
0.0
  0
VERTEX
  8
21
  6
DASHDOT
 62
     7
  5
862
 10
910594.159
 20
7271778.733
 30
0.0
  0
VERTEX
  8
21
  6
DASHDOT
 62
     7
  5
863
 10
910584.163
 20
7271779.045
 30
0.0
  0
VERTEX
  8
21
  6
DASHDOT
 62
     7
  5
864
 10
910584.412
 20
7271787.04
 30
0.0
  0
SEQEND
  8
21
  6
DASHDOT
 62
     7
  5
865
  0
LINE
  8
21
  6
DASHDOT
 62
     7
  5
866
 10
910584.163
 20
7271779.045
 30
0.0
 11
910594.407
 21
7271786.729
 31
0.0
  0
LINE
  8
21
  6
DASHDOT
 62
     7
  5
867
 10
910594.159
 20
7271778.733
 30
0.0
 11
910584.412
 21
7271787.04
 31
0.0
  0
TEXT
  8
11
  6
CONTINUOUS
 62
     7
  5
868
 10
910633.483
 20
7271775.523
 30
0.0
 40
5.78
  1
100'
 50
358.2167
  7
ROMANS
 72
     4
 11
910643.20127
 21
7271778.111827
 31
0.0
210
0.0
220
0.0
230
1.0
  0
INSERT
  8
11
  6
CONTINUOUS
 62
     7
  5
872
  2
*D48
 10
910594.159
 20
7271778.733
 30
0.0
 70
     0
 71
     0
  0
INSERT
  8
11
  6
CONTINUOUS
 62
     7
  5
87C
  2
*D49
 10
910693.694
 20
7271775.334
 30
0.0
 70
     0
 71
     0
  0
TEXT
  8
22
  6
CONTINUOUS
 62
     3
  5
87D
 10
910595.101
 20
7271763.727
 30
0.0
 40
8.0
  1
8'X10' GCE
 50
358.2167
  7
ROMANS
 72
     4
 11
910633.706831
 21
7271766.526965
 31
0.0
210
0.0
220
0.0
230
1.0
  0
ARC
  8
6
  6
CONTINUOUS
 62
     7
  5
87E
 10
910483.327128
 20
7271760.172908
 30
0.0
 40
30.0
 50
88.2167
 51
178.2167
210
0.0
220
0.0
230
1.0
  0
POLYLINE
  8
21
  6
DASHDOT
 62
     7
  5
87F
 66
     1
 10
0.0
 20
0.0
 30
0.0
  0
VERTEX
  8
21
  6
DASHDOT
 62
     7
  5
880
 10
915624.082
 20
7271147.588
 30
0.0
  0
VERTEX
  8
21
  6
DASHDOT
 62
     7
  5
881
 10
915582.281
 20
7269811.53
 30
0.0
  0
VERTEX
  8
21
  6
DASHDOT
 62
     7
  5
882
 10
915634.706
 20
7269809.898
 30
0.0
  0
VERTEX
  8
21
  6
DASHDOT
 62
     7
  5
883
 10
915692.527
 20
7271657.89
 30
0.0
  0
VERTEX
  8
21
  6
DASHDOT
 62
     7
  5
884
 10
915591.581
 20
7271661.19
 30
0.0
  0
VERTEX
  8
21
  6
DASHDOT
 62
     7
  5
885
 10
915591.456
 20
7271656.191
 30
0.0
  0
VERTEX
  8
21
  6
DASHDOT
 62
     7
  5
886
 10
915591.456215
 20
7271656.191413
 30
0.0
 42
-0.411841
  0
VERTEX
  8
21
  6
DASHDOT
 62
     7
  5
887
 10
915610.952572
 20
7271635.859011
 30
0.0
  0
VERTEX
  8
21
  6
DASHDOT
 62
     7
  5
888
 10
915610.952572
 20
7271635.859031
 30
0.0
 42
0.014086
  0
VERTEX
  8
21
  6
DASHDOT
 62
     7
  5
889
 10
915611.927127
 20
7271548.264318
 30
0.0
  0
VERTEX
  8
21
  6
DASHDOT
 62
     7
  5
88A
 10
915611.928
 20
7271548.264
 30
0.0
  0
VERTEX
  8
21
  6
DASHDOT
 62
     7
  5
88B
 10
915623.672
 20
7271249.546
 30
0.0
  0
VERTEX
  8
21
  6
DASHDOT
 62
     7
  5
88C
 10
915623.672126
 20
7271249.545487
 30
0.0
 42
0.017646
  0
VERTEX
  8
21
  6
DASHDOT
 62
     7
  5
88D
 10
915624.08134
 20
7271147.586797
 30
0.0
  0
SEQEND
  8
21
  6
DASHDOT
 62
     7
  5
88E
  0
LINE
  8
6
  6
CONTINUOUS
 62
     7
  5
88F
 10
915582.33
 20
7269813.098
 30
0.0
 11
915624.082
 21
7271147.588
 31
0.0
  0
LINE
  8
6
  6
CONTINUOUS
 62
     7
  5
890
 10
915591.581
 20
7271661.19
 30
0.0
 11
915591.456
 21
7271656.191
 31
0.0
  0
ARC
  8
6
  6
CONTINUOUS
 62
     7
  5
891
 10
915590.955864
 20
7271636.197732
 30
0.0
 40
20.0
 50
359.029261
 51
88.566239
210
0.0
220
0.0
230
1.0
  0
ARC
  8
6
  6
CONTINUOUS
 62
     7
  5
892
 10
917067.965725
 20
7271204.362522
 30
0.0
 40
1445.0
 50
178.208136
 51
182.251778
210
0.0
220
0.0
230
1.0
  0
LINE
  8
6
  6
CONTINUOUS
 62
     7
  5
893
 10
915611.928
 20
7271548.264
 30
0.0
 11
915623.672
 21
7271249.546
 31
0.0
  0
ARC
  8
6
  6
CONTINUOUS
 62
     7
  5
894
 10
917165.727091
 20
7271609.354102
 30
0.0
 40
1555.0
 50
179.023353
 51
182.251508
210
0.0
220
0.0
230
1.0
  0
TEXT
  8
22
  6
CONTINUOUS
 62
     3
  5
895
 10
915606.597
 20
7270666.531
 30
0.0
 40
6.0
  1
1336.71'
 50
88.207997
  7
txt
 72
     1
 11
915607.175362
 21
7270685.016955
 31
0.0
210
0.0
220
0.0
230
1.0
  0
TEXT
  8
22
  6
CONTINUOUS
 62
     3
  5
896
 10
915671.208
 20
7270657.468
 30
0.0
 40
6.0
  1
1848.92'
 50
88.207883
  7
txt
 72
     1
 11
915665.826267
 21
7270677.322015
 31
0.0
210
0.0
220
0.0
230
1.0
 73
     3
  0
TEXT
  8
13
  6
CONTINUOUS
 62
    14
  5
898
 10
915639.715
 20
7270626.307
 30
0.0
 40
8.0
  1
V6971 P139
 50
88.207997
  7
txt
 72
     1
 11
915632.790453
 21
7270660.806412
 31
0.0
210
0.0
220
0.0
230
1.0
 73
     3
  0
LINE
  8
21
  6
DASHDOT
 62
     7
  5
899
 10
915094.528
 20
7273673.424
 30
0.0
 11
915674.721
 21
7273655.36
 31
0.0
  0
POLYLINE
  8
21
  6
DASHDOT
 62
     7
  5
89A
 66
     1
 10
0.0
 20
0.0
 30
0.0
 70
     1
  0
VERTEX
  8
21
  6
DASHDOT
 62
     7
  5
89B
 10
915674.721
 20
7273655.36
 30
0.0
  0
VERTEX
  8
21
  6
DASHDOT
 62
     7
  5
89C
 10
915068.162
 20
7273674.245
 30
0.0
  0
VERTEX
  8
21
  6
DASHDOT
 62
     7
  5
89D
 10
915067.54
 20
7273654.255
 30
0.0
  0
VERTEX
  8
21
  6
DASHDOT
 62
     7
  5
89E
 10
915674.099
 20
7273635.37
 30
0.0
  0
VERTEX
  8
21
  6
DASHDOT
 62
     7
  5
89F
 10
915674.721
 20
7273655.36
 30
0.0
  0
SEQEND
  8
21
  6
DASHDOT
 62
     7
  5
8A0
  0
TEXT
  8
22
  6
CONTINUOUS
 62
     3
  5
8A1
 10
915315.186
 20
7273668.826
 30
0.0
 40
6.0
  1
20' GARBAGE COLLECTION AND UTILITY ESMT
 50
358.2167
  7
txt
 72
     4
 11
915423.953699
 21
7273668.441025
 31
0.0
210
0.0
220
0.0
230
1.0
  0
TEXT
  8
13
  6
CONTINUOUS
 62
    14
  5
8A2
 10
915447.881
 20
7273646.59
 30
0.0
 40
8.0
  1
V1629 P735
 50
358.216692
  7
txt
 72
     1
 11
915484.963031
 21
7273645.435464
 31
0.0
210
0.0
220
0.0
230
1.0
  0
TEXT
  8
22
  6
CONTINUOUS
 62
     3
  5
8A3
 10
915318.4
 20
7273655.182
 30
0.0
 40
6.0
  1
20' ALLEY
 50
358.216692
  7
txt
 72
     1
 11
915340.261407
 21
7273654.501353
 31
0.0
210
0.0
220
0.0
230
1.0
  0
TEXT
  8
19
  6
CONTINUOUS
 62
     1
  5
8A6
 10
914589.801
 20
7274279.561
 30
0.0
 40
24.0
  1
STATE HIGHWAY 114 (19TH ST)
 50
358.2167
  7
ROMANC
210
0.0
220
0.0
230
1.0
  0
TEXT
  8
19
  6
CONTINUOUS
 62
     1
  5
8A7
 10
912882.796
 20
7274359.328
 30
0.0
 40
24.0
  1
STATE HIGHWAY 114 (19TH ST)
 50
358.2167
  7
ROMANC
210
0.0
220
0.0
230
1.0
  0
TEXT
  8
19
  6
CONTINUOUS
 62
     1
  5
8A8
 10
910633.379
 20
7274407.188
 30
0.0
 40
24.0
  1
STATE HIGHWAY 114 (19TH ST)
 50
358.2167
  7
ROMANC
210
0.0
220
0.0
230
1.0
  0
TEXT
  8
19
  6
CONTINUOUS
 62
     1
  5
8A9
 10
911366.662
 20
7269172.656
 30
0.0
 40
24.0
  1
34TH ST
 50
358.2167
  7
ROMANC
210
0.0
220
0.0
230
1.0
  0
TEXT
  8
19
  6
CONTINUOUS
 62
     1
  5
8AA
 10
913744.076
 20
7269098.656
 30
0.0
 40
24.0
  1
34TH ST
 50
358.2167
  7
ROMANC
210
0.0
220
0.0
230
1.0
  0
TEXT
  8
19
  6
CONTINUOUS
 62
     1
  5
8AB
 10
911053.899
 20
7269945.762
 30
0.0
 40
24.0
  1
TRENTON AVE
 50
88.2167
  7
ROMANC
210
0.0
220
0.0
230
1.0
  0
TEXT
  8
19
  6
CONTINUOUS
 62
     1
  5
8AC
 10
911650.621
 20
7270821.895
 30
0.0
 40
24.0
  1
29TH ST
 50
358.2167
  7
ROMANC
210
0.0
220
0.0
230
1.0
  0
TEXT
  8
19
  6
CONTINUOUS
 62
     1
  5
8AD
 10
911688.152
 20
7271749.768
 30
0.0
 40
24.0
  1
26TH ST
 50
358.2167
  7
ROMANC
210
0.0
220
0.0
230
1.0
  0
TEXT
  8
15
  6
CONTINUOUS
 62
    30
  5
8AF
 10
910610.091
 20
7270033.036
 30
0.0
 40
50.0
  1
PINE
 50
28.2167
  7
ROMANC
210
0.0
220
0.0
230
1.0
  0
TEXT
  8
15
  6
CONTINUOUS
 62
    30
  5
8B0
 10
910645.553
 20
7269966.95
 30
0.0
 40
50.0
  1
HILLS
 50
28.2167
  7
ROMANC
210
0.0
220
0.0
230
1.0
  0
TEXT
  8
15
  6
CONTINUOUS
 62
    30
  5
8B1
 10
911666.88
 20
7271199.727
 30
0.0
 40
50.0
  1
PINE
 50
28.2167
  7
ROMANC
210
0.0
220
0.0
230
1.0
  0
TEXT
  8
15
  6
CONTINUOUS
 62
    30
  5
8B2
 10
911702.34
 20
7271133.64
 30
0.0
 40
50.0
  1
HILLS
 50
28.2167
  7
ROMANC
210
0.0
220
0.0
230
1.0
  0
TEXT
  8
15
  6
CONTINUOUS
 62
    30
  5
8B3
 10
911609.867
 20
7269428.566
 30
0.0
 40
50.0
  1
PINE
 50
28.2167
  7
ROMANC
210
0.0
220
0.0
230
1.0
  0
TEXT
  8
15
  6
CONTINUOUS
 62
    30
  5
8B4
 10
911645.327
 20
7269362.481
 30
0.0
 40
50.0
  1
HILLS
 50
28.2167
  7
ROMANC
210
0.0
220
0.0
230
1.0
  0
TEXT
  8
15
  6
CONTINUOUS
 62
    30
  5
8B5
 10
912397.686
 20
7269423.468
 30
0.0
 40
15.0
  1
SHEPHERD
 50
28.2167
  7
ROMANC
210
0.0
220
0.0
230
1.0
  0
TEXT
  8
15
  6
CONTINUOUS
 62
    30
  5
8B6
 10
912416.598
 20
7269388.222
 30
0.0
 40
15.0
  1
 
 50
28.2167
  7
ROMANC
210
0.0
220
0.0
230
1.0
  0
TEXT
  8
15
  6
CONTINUOUS
 62
    30
  5
8B7
 10
910458.151
 20
7271736.804
 30
0.0
 40
22.999
  1
CRENWELGE
 50
358.2167
  7
ROMANC
 72
     4
 11
910572.717532
 21
7271744.7426
 31
0.0
210
0.0
220
0.0
230
1.0
  0
TEXT
  8
11
  6
CONTINUOUS
 62
     7
  5
8B8
 10
910551.64
 20
7271650.327
 30
0.0
 40
8.0
  1
240.20'
 50
358.2167
  7
ROMANS
 72
     4
 11
910577.085208
 21
7271653.536714
 31
0.0
210
0.0
220
0.0
230
1.0
  0
TEXT
  8
15
  6
CONTINUOUS
 62
    30
  5
8B9
 10
910483.356
 20
7271669.301
 30
0.0
 40
22.999
  1
ADDITION
 50
358.2167
  7
ROMANC
 72
     4
 11
910573.30646
 21
7271678.006009
 31
0.0
210
0.0
220
0.0
230
1.0
  0
TEXT
  8
15
  6
CONTINUOUS
 62
    30
  5
8BA
 10
910508.161
 20
7271186.756
 30
0.0
 40
15.0
  1
LYNCH 
 50
28.2167
  7
ROMANC
210
0.0
220
0.0
230
1.0
  0
TEXT
  8
15
  6
CONTINUOUS
 62
    30
  5
8BB
 10
910527.073
 20
7271151.51
 30
0.0
 40
15.0
  1
 
 50
28.2167
  7
ROMANC
210
0.0
220
0.0
230
1.0
  0
TEXT
  8
15
  6
CONTINUOUS
 62
    30
  5
8BC
 10
910545.985
 20
7271116.263
 30
0.0
 40
15.0
  1
        
 50
28.2167
  7
ROMANC
210
0.0
220
0.0
230
1.0
  0
TEXT
  8
15
  6
CONTINUOUS
 62
    30
  5
8BD
 10
915042.31
 20
7269571.096
 30
0.0
 40
50.0
  1
ELM GROVE
 50
28.2167
  7
ROMANC
210
0.0
220
0.0
230
1.0
  0
TEXT
  8
15
  6
CONTINUOUS
 62
    30
  5
8BE
 10
913755.854
 20
7272206.807
 30
0.0
 40
50.0
  1
COMMANDERS
 50
28.2167
  7
ROMANC
210
0.0
220
0.0
230
1.0
  0
TEXT
  8
19
  6
CONTINUOUS
 62
     1
  5
8BF
 10
915635.866
 20
7270405.864
 30
0.0
 40
24.0
  1
MILWAUKEE AVE
 50
88.2167
  7
ROMANC
210
0.0
220
0.0
230
1.0
  0
TEXT
  8
19
  6
CONTINUOUS
 62
     1
  5
8C0
 10
915698.344
 20
7272740.989
 30
0.0
 40
24.0
  1
MILWAUKEE AVE
 50
88.2167
  7
ROMANC
210
0.0
220
0.0
230
1.0
  0
TEXT
  8
15
  6
CONTINUOUS
 62
    30
  5
8C1
 10
915053.801
 20
7272866.207
 30
0.0
 40
50.0
  1
RIDGEWOOD II
 50
28.2167
  7
ROMANC
210
0.0
220
0.0
230
1.0
  0
TEXT
  8
19
  6
CONTINUOUS
 62
     1
  5
8C2
 10
915223.186
 20
7273087.342
 30
0.0
 40
24.0
  1
NORWICH AVE
 50
88.2167
  7
ROMANC
210
0.0
220
0.0
230
1.0
  0
TEXT
  8
15
  6
CONTINUOUS
 62
    30
  5
8C3
 10
914459.004
 20
7273868.816
 30
0.0
 40
50.0
  1
COMMANDERS
 50
28.2167
  7
ROMANC
210
0.0
220
0.0
230
1.0
  0
TEXT
  8
19
  6
CONTINUOUS
 62
     1
  5
8C4
 10
915314.349
 20
7272898.164
 30
0.0
 40
24.0
  1
22ND PL.
 50
358.2167
  7
ROMANC
210
0.0
220
0.0
230
1.0
  0
TEXT
  8
19
  6
CONTINUOUS
 62
     1
  5
8C5
 10
915343.507
 20
7272599.654
 30
0.0
 40
24.0
  1
23RD ST
 50
358.2167
  7
ROMANC
210
0.0
220
0.0
230
1.0
  0
TEXT
  8
19
  6
CONTINUOUS
 62
     1
  5
8C6
 10
915303.669
 20
7272305.808
 30
0.0
 40
24.0
  1
24TH ST
 50
358.2167
  7
ROMANC
210
0.0
220
0.0
230
1.0
  0
TEXT
  8
19
  6
CONTINUOUS
 62
     1
  5
8C7
 10
915180.619
 20
7271807.543
 30
0.0
 40
24.0
  1
NORWICH AVE
 50
88.2167
  7
ROMANC
210
0.0
220
0.0
230
1.0
  0
TEXT
  8
19
  6
CONTINUOUS
 62
     1
  5
8C8
 10
915285.587
 20
7271996.563
 30
0.0
 40
24.0
  1
25TH ST
 50
358.2167
  7
ROMANC
210
0.0
220
0.0
230
1.0
  0
TEXT
  8
19
  6
CONTINUOUS
 62
     1
  5
8C9
 10
910385.962
 20
7269587.876
 30
0.0
 40
24.0
  1
UPLAND AVE
 50
88.2167
  7
ROMANC
210
0.0
220
0.0
230
1.0
  0
TEXT
  8
19
  6
CONTINUOUS
 62
     1
  5
8CA
 10
910441.798
 20
7271917.06
 30
0.0
 40
24.0
  1
UPLAND AVE
 50
88.2167
  7
ROMANC
210
0.0
220
0.0
230
1.0
  0
TEXT
  8
19
  6
CONTINUOUS
 62
     1
  5
8CB
 10
910505.612
 20
7274086.711
 30
0.0
 40
24.0
  1
UPLAND AVE
 50
88.2167
  7
ROMANC
210
0.0
220
0.0
230
1.0
  0
TEXT
  8
19
  6
CONTINUOUS
 62
     1
  5
8CC
 10
911393.788
 20
7269311.683
 30
0.0
 40
24.0
  1
SARATOGA AVE
 50
88.2167
  7
ROMANC
210
0.0
220
0.0
230
1.0
  0
TEXT
  8
19
  6
CONTINUOUS
 62
     1
  5
8CD
 10
911723.146
 20
7269861.599
 30
0.0
 40
24.0
  1
SARATOGA AVE
 50
88.2167
  7
ROMANC
210
0.0
220
0.0
230
1.0
  0
TEXT
  8
19
  6
CONTINUOUS
 62
     1
  5
8CE
 10
911771.767
 20
7271334.223
 30
0.0
 40
24.0
  1
SARATOGA AVE
 50
88.2167
  7
ROMANC
210
0.0
220
0.0
230
1.0
  0
TEXT
  8
19
  6
CONTINUOUS
 62
     1
  5
8CF
 10
913144.314
 20
7273883.039
 30
0.0
 40
22.0
  1
QUINCY AVE
 50
88.2167
  7
ROMANC
210
0.0
220
0.0
230
1.0
  0
TEXT
  8
19
  6
CONTINUOUS
 62
     1
  5
8D0
 10
913085.154
 20
7271937.676
 30
0.0
 40
22.0
  1
QUINCY AVE
 50
88.2167
  7
ROMANC
210
0.0
220
0.0
230
1.0
  0
TEXT
  8
19
  6
CONTINUOUS
 62
     1
  5
8D1
 10
911406.561
 20
7269712.405
 30
0.0
 40
24.0
  1
32ND ST
 50
358.2167
  7
ROMANC
210
0.0
220
0.0
230
1.0
  0
TEXT
  8
19
  6
CONTINUOUS
 62
     1
  5
8D2
 10
910585.505
 20
7270394.28
 30
0.0
 40
24.0
  1
30TH ST
 50
358.2167
  7
ROMANC
210
0.0
220
0.0
230
1.0
  0
TEXT
  8
19
  6
CONTINUOUS
 62
     1
  5
8D3
 10
915312.98
 20
7273492.048
 30
0.0
 40
24.0
  1
21ST ST
 50
358.2167
  7
ROMANC
210
0.0
220
0.0
230
1.0
  0
TEXT
  8
19
  6
CONTINUOUS
 62
     1
  5
8D4
 10
915232.429
 20
7271681.111
 30
0.0
 40
22.0
  1
26TH ST
 50
358.2167
  7
ROMANC
210
0.0
220
0.0
230
1.0
  0
TEXT
  8
19
  6
CONTINUOUS
 62
     1
  5
8D5
 10
913292.128
 20
7271737.424
 30
0.0
 40
22.0
  1
26TH ST
 50
358.2167
  7
ROMANC
210
0.0
220
0.0
230
1.0
  0
TEXT
  8
19
  6
CONTINUOUS
 62
     1
  5
8D6
 10
915335.084
 20
7273193.767
 30
0.0
 40
24.0
  1
22ND ST
 50
358.2167
  7
ROMANC
210
0.0
220
0.0
230
1.0
  0
TEXT
  8
22
  6
CONTINUOUS
 62
     3
  5
8D7
 10
915088.608
 20
7272651.3
 30
0.0
 40
8.0
  1
5' UUE
 50
358.2167
  7
ROMANS
210
0.0
220
0.0
230
1.0
  0
TEXT
  8
22
  6
CONTINUOUS
 62
     3
  5
8D8
 10
915162.623
 20
7273787.01
 30
0.0
 40
6.0
  1
221.07'
 50
43.395381
  7
txt
 72
     1
 11
915174.740283
 21
7273798.466894
 31
0.0
210
0.0
220
0.0
230
1.0
  0
TEXT
  8
22
  6
CONTINUOUS
 62
     3
  5
8D9
 10
915113.827
 20
7273700.005
 30
0.0
 40
6.0
  1
43'
 50
305.094078
  7
txt
 72
     1
 11
915118.064165
 21
7273693.974799
 31
0.0
210
0.0
220
0.0
230
1.0
  0
TEXT
  8
11
  6
CONTINUOUS
 62
     7
  5
8DA
 10
915033.336
 20
7273716.124
 30
0.0
 40
8.0
  1
14.14'
 50
43.2167
  7
ROMANS
210
0.0
220
0.0
230
1.0
  0
TEXT
  8
22
  6
CONTINUOUS
 62
     3
  5
8DB
 10
915285.445
 20
7273929.485
 30
0.0
 40
6.0
  1
163.21'
 50
61.518314
  7
txt
 72
     1
 11
915292.823254
 21
7273943.084417
 31
0.0
210
0.0
220
0.0
230
1.0
  0
SOLID
  8
25
  6
CONTINUOUS
 62
   212
  5
8DD
 10
915427.322
 20
7273643.054
 30
0.0
 11
915433.319
 21
7273642.867
 31
0.0
 12
915427.198
 22
7273639.055
 32
0.0
 13
915433.195
 23
7273638.869
 33
0.0
  0
SOLID
  8
25
  6
CONTINUOUS
 62
   212
  5
8DE
 10
915429.321
 20
7273642.991
 30
0.0
 11
915433.319
 21
7273642.867
 31
0.0
 12
915425.897
 22
7273533.005
 32
0.0
 13
915429.895
 23
7273532.881
 33
0.0
  0
TEXT
  8
13
  6
CONTINUOUS
 62
    14
  5
8DF
 10
915425.255
 20
7273543.771
 30
0.0
 40
8.0
  1
V7730 P335
 50
88.216889
  7
txt
 72
     1
 11
915418.474083
 21
7273583.055018
 31
0.0
210
0.0
220
0.0
230
1.0
 73
     3
  0
TEXT
  8
22
  6
CONTINUOUS
 62
     3
  5
8E0
 10
915345.029
 20
7273638.451
 30
0.0
 40
6.0
  1
CLOSED PER ORD
 50
358.216383
  7
txt
 72
     1
 11
915385.682134
 21
7273643.187968
 31
0.0
210
0.0
220
0.0
230
1.0
 73
     3
  0
TEXT
  8
22
  6
CONTINUOUS
 62
     3
  5
8E1
 10
915356.885
 20
7273629.077
 30
0.0
 40
6.0
  1
2002-00070
 50
358.216383
  7
txt
 72
     1
 11
915385.402017
 21
7273634.191887
 31
0.0
210
0.0
220
0.0
230
1.0
 73
     3
  0
TEXT
  8
11
  6
CONTINUOUS
 62
     7
  5
8E2
 10
915286.724
 20
7273585.307
 30
0.0
 40
4.999
  1
110.3
 50
88.2167
  7
ROMANS
210
0.0
220
0.0
230
1.0
  0
TEXT
  8
11
  6
CONTINUOUS
 62
     7
  5
8E3
 10
915265.906
 20
7273580.013
 30
0.0
 40
5.0
  1
111.2'
 50
88.2167
  7
ROMANS
210
0.0
220
0.0
230
1.0
  0
LINE
  8
7
  6
CONTINUOUS
 62
     7
  5
8E4
 10
915350.318
 20
7273645.451
 30
0.0
 11
915346.894
 21
7273535.464
 31
0.0
  0
LINE
  8
7
  6
CONTINUOUS
 62
     7
  5
8E5
 10
915377.805
 20
7273644.595
 30
0.0
 11
915374.381
 21
7273534.608
 31
0.0
  0
LINE
  8
7
  6
CONTINUOUS
 62
     7
  5
8E6
 10
915405.291
 20
7273643.74
 30
0.0
 11
915401.867
 21
7273533.753
 31
0.0
  0
LINE
  8
7
  6
CONTINUOUS
 62
     7
  5
8E7
 10
915432.778
 20
7273642.884
 30
0.0
 11
915429.354
 21
7273532.897
 31
0.0
  0
LINE
  8
7
  6
CONTINUOUS
 62
     7
  5
8E8
 10
915460.265
 20
7273642.028
 30
0.0
 11
915456.841
 21
7273532.041
 31
0.0
  0
LINE
  8
7
  6
CONTINUOUS
 62
     7
  5
8E9
 10
915487.751
 20
7273641.173
 30
0.0
 11
915484.327
 21
7273531.186
 31
0.0
  0
LINE
  8
7
  6
CONTINUOUS
 62
     7
  5
8EA
 10
915515.238
 20
7273640.317
 30
0.0
 11
915511.814
 21
7273530.33
 31
0.0
  0
LINE
  8
7
  6
CONTINUOUS
 62
     7
  5
8EB
 10
915542.725
 20
7273639.461
 30
0.0
 11
915539.301
 21
7273529.474
 31
0.0
  0
LINE
  8
7
  6
CONTINUOUS
 62
     7
  5
8EC
 10
915570.211
 20
7273638.606
 30
0.0
 11
915566.787
 21
7273528.619
 31
0.0
  0
LINE
  8
7
  6
CONTINUOUS
 62
     7
  5
8ED
 10
915597.698
 20
7273637.75
 30
0.0
 11
915594.274
 21
7273527.763
 31
0.0
  0
LINE
  8
7
  6
CONTINUOUS
 62
     7
  5
8EE
 10
915625.185
 20
7273636.894
 30
0.0
 11
915621.761
 21
7273526.907
 31
0.0
  0
TEXT
  8
11
  6
CONTINUOUS
 62
     7
  5
8EF
 10
915593.778
 20
7273531.465
 30
0.0
 40
8.0
  1
27.5'
 50
356.474078
  7
txt
 72
     4
 11
915609.678312
 21
7273534.49286
 31
0.0
210
0.0
220
0.0
230
1.0
  0
TEXT
  8
11
  6
CONTINUOUS
 62
     7
  5
8F0
 10
915347.591
 20
7273538.955
 30
0.0
 40
8.0
  1
27.5'
 50
356.474078
  7
txt
 72
     4
 11
915363.491312
 21
7273541.98286
 31
0.0
210
0.0
220
0.0
230
1.0
  0
TEXT
  8
11
  6
CONTINUOUS
 62
     7
  5
8F1
 10
915317.645
 20
7273539.865
 30
0.0
 40
8.0
  1
32.5'
 50
356.474078
  7
txt
 72
     4
 11
915333.515369
 21
7273542.894705
 31
0.0
210
0.0
220
0.0
230
1.0
  0
TEXT
  8
11
  6
CONTINUOUS
 62
     7
  5
8F2
 10
915626.336
 20
7273530.474
 30
0.0
 40
8.0
  1
32.5'
 50
356.474078
  7
txt
 72
     4
 11
915642.206369
 21
7273533.503705
 31
0.0
210
0.0
220
0.0
230
1.0
  0
TEXT
  8
11
  6
CONTINUOUS
 62
     7
  5
8F3
 10
915629.047
 20
7273626.83
 30
0.0
 40
8.0
  1
47.5'
 50
356.474078
  7
txt
 72
     4
 11
915645.136952
 21
7273629.846175
 31
0.0
210
0.0
220
0.0
230
1.0
  0
TEXT
  8
11
  6
CONTINUOUS
 62
     7
  5
8F4
 10
915286.315
 20
7273538.264
 30
0.0
 40
8.0
  1
28.5'
 50
356.474078
  7
txt
 72
     4
 11
915302.185369
 21
7273541.293705
 31
0.0
210
0.0
220
0.0
230
1.0
  0
TEXT
  8
10
  6
CONTINUOUS
 62
   134
  5
8F5
 10
915610.464
 20
7273556.015
 30
0.0
 40
13.999
  1
85-B-1
 50
88.2167
  7
ROMANS
 11
915596.47178
 21
7273556.450641
 31
0.0
210
0.0
220
0.0
230
1.0
 73
     3
  0
TEXT
  8
10
  6
CONTINUOUS
 62
   134
  5
8F6
 10
915582.72
 20
7273556.861
 30
0.0
 40
13.999
  1
86-A-1
 50
88.2167
  7
ROMANS
 11
915568.72778
 21
7273557.296641
 31
0.0
210
0.0
220
0.0
230
1.0
 73
     3
  0
TEXT
  8
10
  6
CONTINUOUS
 62
   134
  5
8F7
 10
915555.932
 20
7273557.675
 30
0.0
 40
13.999
  1
86-B-1
 50
88.2167
  7
ROMANS
 11
915541.93978
 21
7273558.110641
 31
0.0
210
0.0
220
0.0
230
1.0
 73
     3
  0
TEXT
  8
10
  6
CONTINUOUS
 62
   134
  5
8F8
 10
915528.189
 20
7273558.519
 30
0.0
 40
13.999
  1
87-A-1
 50
88.2167
  7
ROMANS
 11
915514.19678
 21
7273558.954641
 31
0.0
210
0.0
220
0.0
230
1.0
 73
     3
  0
TEXT
  8
10
  6
CONTINUOUS
 62
   134
  5
8F9
 10
915501.401
 20
7273559.334
 30
0.0
 40
13.999
  1
87-B-1
 50
88.2167
  7
ROMANS
 11
915487.40878
 21
7273559.769641
 31
0.0
210
0.0
220
0.0
230
1.0
 73
     3
  0
TEXT
  8
10
  6
CONTINUOUS
 62
   134
  5
8FA
 10
915472.7
 20
7273560.207
 30
0.0
 40
13.999
  1
88-A-1
 50
88.2167
  7
ROMANS
 11
915458.70778
 21
7273560.642641
 31
0.0
210
0.0
220
0.0
230
1.0
 73
     3
  0
TEXT
  8
10
  6
CONTINUOUS
 62
   134
  5
8FB
 10
915444.957
 20
7273561.049
 30
0.0
 40
13.999
  1
88-B-1
 50
88.2167
  7
ROMANS
 11
915430.96478
 21
7273561.484641
 31
0.0
210
0.0
220
0.0
230
1.0
 73
     3
  0
TEXT
  8
10
  6
CONTINUOUS
 62
   134
  5
8FC
 10
915418.169
 20
7273561.865
 30
0.0
 40
13.999
  1
89-A-1
 50
88.2167
  7
ROMANS
 11
915404.17678
 21
7273562.300641
 31
0.0
210
0.0
220
0.0
230
1.0
 73
     3
  0
TEXT
  8
10
  6
CONTINUOUS
 62
   134
  5
8FD
 10
915390.426
 20
7273562.709
 30
0.0
 40
13.999
  1
89-B-1
 50
88.2167
  7
ROMANS
 11
915376.43378
 21
7273563.144641
 31
0.0
210
0.0
220
0.0
230
1.0
 73
     3
  0
TEXT
  8
10
  6
CONTINUOUS
 62
   134
  5
8FE
 10
915362.045
 20
7273563.572
 30
0.0
 40
13.999
  1
90-A-1
 50
88.2167
  7
ROMANS
 11
915348.05278
 21
7273564.007641
 31
0.0
210
0.0
220
0.0
230
1.0
 73
     3
  0
TEXT
  8
10
  6
CONTINUOUS
 62
   134
  5
8FF
 10
915335.258
 20
7273564.388
 30
0.0
 40
13.999
  1
89-B-1
 50
88.2167
  7
ROMANS
 11
915321.26578
 21
7273564.823641
 31
0.0
210
0.0
220
0.0
230
1.0
 73
     3
  0
TEXT
  8
10
  6
CONTINUOUS
 62
   134
  5
900
 10
915639.309
 20
7273549.391
 30
0.0
 40
13.999
  1
85-A-1
 50
88.2167
  7
ROMANS
 11
915625.31678
 21
7273549.826641
 31
0.0
210
0.0
220
0.0
230
1.0
 73
     3
  0
TEXT
  8
11
  6
CONTINUOUS
 62
     7
  5
901
 10
915669.311
 20
7273577.991
 30
0.0
 40
8.0
  1
95'
 50
88.216908
  7
txt
 72
     1
 11
915669.604982
 21
7273587.434425
 31
0.0
210
0.0
220
0.0
230
1.0
  0
TEXT
  8
11
  6
CONTINUOUS
 62
     7
  5
902
 10
915619.949
 20
7273565.117
 30
0.0
 40
8.0
  1
110.04'
 50
88.216903
  7
txt
 72
     1
 11
915620.600691
 21
7273586.050859
 31
0.0
210
0.0
220
0.0
230
1.0
  0
TEXT
  8
11
  6
CONTINUOUS
 62
     7
  5
903
 10
915592.446
 20
7273565.474
 30
0.0
 40
8.0
  1
110.07'
 50
88.216903
  7
txt
 72
     1
 11
915593.092775
 21
7273586.249935
 31
0.0
210
0.0
220
0.0
230
1.0
  0
TEXT
  8
11
  6
CONTINUOUS
 62
     7
  5
904
 10
915564.946
 20
7273565.891
 30
0.0
 40
8.0
  1
110.09'
 50
88.216903
  7
txt
 72
     1
 11
915565.585929
 21
7273586.447042
 31
0.0
210
0.0
220
0.0
230
1.0
  0
TEXT
  8
11
  6
CONTINUOUS
 62
     7
  5
905
 10
915537.451
 20
7273566.47
 30
0.0
 40
8.0
  1
110.11'
 50
88.216903
  7
txt
 72
     1
 11
915538.009593
 21
7273584.413307
 31
0.0
210
0.0
220
0.0
230
1.0
  0
TEXT
  8
11
  6
CONTINUOUS
 62
     7
  5
906
 10
915509.913
 20
7273565.7
 30
0.0
 40
8.0
  1
110.14'
 50
88.216903
  7
txt
 72
     1
 11
915510.521565
 21
7273585.24853
 31
0.0
210
0.0
220
0.0
230
1.0
  0
TEXT
  8
11
  6
CONTINUOUS
 62
     7
  5
907
 10
915482.477
 20
7273568.191
 30
0.0
 40
8.0
  1
110.16'
 50
88.216903
  7
txt
 72
     1
 11
915483.073803
 21
7273587.361713
 31
0.0
210
0.0
220
0.0
230
1.0
  0
TEXT
  8
11
  6
CONTINUOUS
 62
     7
  5
908
 10
915454.981
 20
7273568.707
 30
0.0
 40
8.0
  1
110.19'
 50
88.216903
  7
txt
 72
     1
 11
915455.577803
 21
7273587.877713
 31
0.0
210
0.0
220
0.0
230
1.0
  0
TEXT
  8
11
  6
CONTINUOUS
 62
     7
  5
909
 10
915427.408
 20
7273566.802
 30
0.0
 40
8.0
  1
110.21'
 50
88.216903
  7
txt
 72
     1
 11
915428.010684
 21
7273586.161621
 31
0.0
210
0.0
220
0.0
230
1.0
  0
TEXT
  8
11
  6
CONTINUOUS
 62
     7
  5
90A
 10
915399.836
 20
7273564.946
 30
0.0
 40
8.0
  1
110.23'
 50
88.216903
  7
txt
 72
     1
 11
915400.482775
 21
7273585.721935
 31
0.0
210
0.0
220
0.0
230
1.0
  0
TEXT
  8
11
  6
CONTINUOUS
 62
     7
  5
90B
 10
915372.346
 20
7273565.654
 30
0.0
 40
8.0
  1
110.26'
 50
88.216903
  7
txt
 72
     1
 11
915372.986894
 21
7273586.241027
 31
0.0
210
0.0
220
0.0
230
1.0
  0
TEXT
  8
11
  6
CONTINUOUS
 62
     7
  5
90C
 10
915344.763
 20
7273563.43
 30
0.0
 40
8.0
  1
110.28'
 50
88.216903
  7
txt
 72
     1
 11
915345.409775
 21
7273584.205935
 31
0.0
210
0.0
220
0.0
230
1.0
  0
TEXT
  8
11
  6
CONTINUOUS
 62
     7
  5
90D
 10
915312.431
 20
7273569.343
 30
0.0
 40
8.0
  1
110.31'
 50
88.216903
  7
txt
 72
     1
 11
915313.033684
 21
7273588.702621
 31
0.0
210
0.0
220
0.0
230
1.0
  0
POLYLINE
  8
21
  6
DASHDOT
 62
     7
  5
90E
 66
     1
 10
0.0
 20
0.0
 30
0.0
 70
     1
  0
VERTEX
  8
21
  6
DASHDOT
 62
     7
  5
90F
 10
915317.834
 20
7273646.462
 30
0.0
  0
VERTEX
  8
21
  6
DASHDOT
 62
     7
  5
910
 10
915322.832
 20
7273646.306
 30
0.0
  0
VERTEX
  8
21
  6
DASHDOT
 62
     7
  5
911
 10
915319.408
 20
7273536.319
 30
0.0
  0
VERTEX
  8
21
  6
DASHDOT
 62
     7
  5
912
 10
915314.41
 20
7273536.475
 30
0.0
  0
SEQEND
  8
21
  6
DASHDOT
 62
     7
  5
913
  0
TEXT
  8
22
  6
CONTINUOUS
 62
     3
  5
914
 10
915321.425
 20
7273578.634
 30
0.0
 40
6.0
  1
5' UUE
 50
88.216903
  7
txt
 72
     1
 11
915321.839526
 21
7273591.949549
 31
0.0
210
0.0
220
0.0
230
1.0
  0
SOLID
  8
21
  6
DASHDOT
 62
     7
  5
915
 10
915431.781
 20
7273642.995
 30
0.0
 11
915431.659
 21
7273638.997
 31
0.0
 12
915437.778
 22
7273642.812
 32
0.0
 13
915437.656
 23
7273638.814
 33
0.0
  0
TEXT
  8
22
  6
CONTINUOUS
 62
     3
  5
916
 10
915439.218
 20
7273644.684
 30
0.0
 40
6.0
  1
TPE-SPS
 50
358.216689
  7
txt
 72
     1
 11
915458.530642
 21
7273644.082707
 31
0.0
210
0.0
220
0.0
230
1.0
  0
POLYLINE
  8
21
  6
DASHDOT
 62
     7
  5
917
 66
     1
 10
0.0
 20
0.0
 30
0.0
  0
VERTEX
  8
21
  6
DASHDOT
 62
     7
  5
918
 10
915655.68336
 20
7273525.890306
 30
0.0
 42
0.414214
  0
VERTEX
  8
21
  6
DASHDOT
 62
     7
  5
919
 10
915671.142887
 20
7273540.416249
 30
0.0
  0
VERTEX
  8
21
  6
DASHDOT
 62
     7
  5
91A
 10
915671.143
 20
7273540.416
 30
0.0
  0
VERTEX
  8
21
  6
DASHDOT
 62
     7
  5
91B
 10
915674.099
 20
7273635.37
 30
0.0
  0
VERTEX
  8
21
  6
DASHDOT
 62
     7
  5
91C
 10
915654.109
 20
7273635.992
 30
0.0
  0
VERTEX
  8
21
  6
DASHDOT
 62
     7
  5
91D
 10
915650.686
 20
7273526.046
 30
0.0
  0
VERTEX
  8
21
  6
DASHDOT
 62
     7
  5
91E
 10
915655.683
 20
7273525.89
 30
0.0
  0
SEQEND
  8
21
  6
DASHDOT
 62
     7
  5
91F
  0
TEXT
  8
22
  6
CONTINUOUS
 62
     3
  5
920
 10
915665.051
 20
7273537.103
 30
0.0
 40
6.0
  1
20' UUE
 50
88.216908
  7
txt
 72
     1
 11
915665.558125
 21
7273553.393108
 31
0.0
210
0.0
220
0.0
230
1.0
  0
ENDSEC
  0
EOF
