  0
SECTION
  2
HEADER
  9
$ACADVER
  1
AC1009
  9
$INSBASE
 10
0.0
 20
0.0
 30
0.0
  9
$EXTMIN
 10
946613.936
 20
7246769.895
 30
0.0
  9
$EXTMAX
 10
952061.337
 20
7252229.929
 30
0.0
  9
$LIMMIN
 10
0.0
 20
0.0
  9
$LIMMAX
 10
12.0
 20
9.0
  9
$ORTHOMODE
 70
     0
  9
$REGENMODE
 70
     1
  9
$FILLMODE
 70
     1
  9
$QTEXTMODE
 70
     0
  9
$MIRRTEXT
 70
     1
  9
$DRAGMODE
 70
     2
  9
$LTSCALE
 40
1.0
  9
$OSMODE
 70
     0
  9
$ATTMODE
 70
     1
  9
$TEXTSIZE
 40
0.2
  9
$TRACEWID
 40
0.05
  9
$TEXTSTYLE
  7
STANDARD
  9
$CLAYER
  8
0
  9
$CELTYPE
  6
CONTINUOUS
  9
$CECOLOR
 62
   256
  9
$DIMSCALE
 40
1.0
  9
$DIMASZ
 40
0.18
  9
$DIMEXO
 40
0.0625
  9
$DIMDLI
 40
0.38
  9
$DIMRND
 40
0.0
  9
$DIMDLE
 40
0.0
  9
$DIMEXE
 40
0.18
  9
$DIMTP
 40
0.0
  9
$DIMTM
 40
0.0
  9
$DIMTXT
 40
0.18
  9
$DIMCEN
 40
0.09
  9
$DIMTSZ
 40
0.0
  9
$DIMTOL
 70
     0
  9
$DIMLIM
 70
     0
  9
$DIMTIH
 70
     1
  9
$DIMTOH
 70
     1
  9
$DIMSE1
 70
     0
  9
$DIMSE2
 70
     0
  9
$DIMTAD
 70
     0
  9
$DIMZIN
 70
     0
  9
$DIMBLK
  1

  9
$DIMASO
 70
     1
  9
$DIMSHO
 70
     1
  9
$DIMPOST
  1

  9
$DIMAPOST
  1

  9
$DIMALT
 70
     0
  9
$DIMALTD
 70
     2
  9
$DIMALTF
 40
25.4
  9
$DIMLFAC
 40
1.0
  9
$DIMTOFL
 70
     0
  9
$DIMTVP
 40
0.0
  9
$DIMTIX
 70
     0
  9
$DIMSOXD
 70
     0
  9
$DIMSAH
 70
     0
  9
$DIMBLK1
  1

  9
$DIMBLK2
  1

  9
$DIMSTYLE
  2
STANDARD
  9
$DIMCLRD
 70
     0
  9
$DIMCLRE
 70
     0
  9
$DIMCLRT
 70
     0
  9
$DIMTFAC
 40
1.0
  9
$DIMGAP
 40
0.09
  9
$LUNITS
 70
     2
  9
$LUPREC
 70
     4
  9
$AXISMODE
 70
     0
  9
$AXISUNIT
 10
0.0
 20
0.0
  9
$SKETCHINC
 40
0.1
  9
$FILLETRAD
 40
0.0
  9
$AUNITS
 70
     0
  9
$AUPREC
 70
     0
  9
$MENU
  1
acad
  9
$ELEVATION
 40
0.0
  9
$PELEVATION
 40
0.0
  9
$THICKNESS
 40
0.0
  9
$LIMCHECK
 70
     0
  9
$BLIPMODE
 70
     1
  9
$CHAMFERA
 40
0.0
  9
$CHAMFERB
 40
0.0
  9
$SKPOLY
 70
     0
  9
$TDCREATE
 40
2453013.902349537
  9
$TDUPDATE
 40
2453013.902349537
  9
$TDINDWG
 40
0.0000000000
  9
$TDUSRTIMER
 40
0.0000000000
  9
$USRTIMER
 70
     1
  9
$ANGBASE
 50
0.0
  9
$ANGDIR
 70
     0
  9
$PDMODE
 70
     0
  9
$PDSIZE
 40
0.0
  9
$PLINEWID
 40
0.0
  9
$COORDS
 70
     0
  9
$SPLFRAME
 70
     0
  9
$SPLINETYPE
 70
     6
  9
$SPLINESEGS
 70
    10
  9
$ATTDIA
 70
     0
  9
$ATTREQ
 70
     1
  9
$HANDLING
 70
     1
  9
$HANDSEED
  5
5E1
  9
$SURFTAB1
 70
     6
  9
$SURFTAB2
 70
     6
  9
$SURFTYPE
 70
     6
  9
$SURFU
 70
     6
  9
$SURFV
 70
     6
  9
$UCSNAME
  2

  9
$UCSORG
 10
0.0
 20
0.0
 30
0.0
  9
$UCSXDIR
 10
1.0
 20
0.0
 30
0.0
  9
$UCSYDIR
 10
0.0
 20
1.0
 30
0.0
  9
$PUCSNAME
  2

  9
$PUCSORG
 10
0.0
 20
0.0
 30
0.0
  9
$PUCSXDIR
 10
1.0
 20
0.0
 30
0.0
  9
$PUCSYDIR
 10
0.0
 20
1.0
 30
0.0
  9
$USERI1
 70
     0
  9
$USERI2
 70
     0
  9
$USERI3
 70
     0
  9
$USERI4
 70
     0
  9
$USERI5
 70
     0
  9
$USERR1
 40
0.0
  9
$USERR2
 40
0.0
  9
$USERR3
 40
0.0
  9
$USERR4
 40
0.0
  9
$USERR5
 40
0.0
  9
$WORLDVIEW
 70
     1
  9
$SHADEDGE
 70
     3
  9
$SHADEDIF
 70
    70
  9
$TILEMODE
 70
     1
  9
$MAXACTVP
 70
    16
  9
$PINSBASE
 10
0.0
 20
0.0
 30
0.0
  9
$PLIMCHECK
 70
     0
  9
$PEXTMIN
 10
-1.000000E+20
 20
-1.000000E+20
 30
-1.000000E+20
  9
$PEXTMAX
 10
-1.000000E+20
 20
-1.000000E+20
 30
-1.000000E+20
  9
$PLIMMIN
 10
0.0
 20
0.0
  9
$PLIMMAX
 10
12.0
 20
9.0
  9
$UNITMODE
 70
     0
  9
$VISRETAIN
 70
     0
  9
$PLINEGEN
 70
     1
  9
$PSLTSCALE
 70
     0
  9
$TREEDEPTH
 70
  3020
  9
$DWGCODEPAGE
  3
ansi_1252
  0
ENDSEC
  0
SECTION
  2
TABLES
  0
TABLE
  2
VPORT
 70
     1
  0
VPORT
  2
*ACTIVE
 70
     0
 10
0.0
 20
0.0
 11
1.0
 21
1.0
 12
0.0
 22
0.0
 13
0.0
 23
0.0
 14
0.0
 24
0.0
 15
0.0
 25
0.0
 16
0.0
 26
0.0
 36
1.0
 17
949013.997818
 27
7249382.033515
 37
0.0
 40
5369.265
 41
1.225627
 42
50.0
 43
0.004
 44
0.0
 50
1.752604
 51
0.0
 71
     0
 72
   100
 73
     1
 74
     0
 75
     0
 76
     0
 77
     0
 78
     0
  0
ENDTAB
  0
TABLE
  2
LTYPE
 70
     7
  0
LTYPE
  2
CONTINUOUS
 70
     0
  3
Solid line
 72
    65
 73
     0
 40
0.0
  0
LTYPE
  2
DOT
 70
    64
  3
. . . . . . . . . . . . . . . . . . . . . . . . . . . . . . . . .
 72
    65
 73
     2
 40
0.25
 49
0.0
 49
-0.25
  0
LTYPE
  2
HIDDEN
 70
    64
  3
__ __ __ __ __ __ __ __ __ __ __ __ __ __ __ __ __ __ __ __ __ 
 72
    65
 73
     2
 40
0.375
 49
0.25
 49
-0.125
  0
LTYPE
  2
DASHED
 70
    64
  3
__ __ __ __ __ __ __ __ __ __ __ __ __ __ __ __ __ __ __ __ __
 72
    65
 73
     2
 40
0.75
 49
0.5
 49
-0.25
  0
LTYPE
  2
DASHDOT
 70
    64
  3
__ . __ . __ . __ . __ . __ . __ . __ . __ . __ . __ . __ . _
 72
    65
 73
     4
 40
1.0
 49
0.5
 49
-0.25
 49
0.0
 49
-0.25
  0
LTYPE
  2
DIVIDE
 70
    64
  3
____ . . ____ . . ____ . . ____ . . ____ . . ____ . . ____ . .
 72
    65
 73
     6
 40
1.25
 49
0.5
 49
-0.25
 49
0.0
 49
-0.25
 49
0.0
 49
-0.25
  0
LTYPE
  2
CENTER
 70
    64
  3
____ _ ____ _ ____ _ ____ _ ____ _ ____ _ ____ _ ____ _ ____ _
 72
    65
 73
     4
 40
2.0
 49
1.25
 49
-0.25
 49
0.25
 49
-0.25
  0
ENDTAB
  0
TABLE
  2
LAYER
 70
    15
  0
LAYER
  2
0
 70
     0
 62
     7
  6
CONTINUOUS
  0
LAYER
  2
CONSTRUCTION_CLASS
 70
     1
 62
     7
  6
CONTINUOUS
  0
LAYER
  2
PATTERN_CLASS
 70
     0
 62
     7
  6
CONTINUOUS
  0
LAYER
  2
6
 70
    64
 62
     7
  6
CONTINUOUS
  0
LAYER
  2
7
 70
    64
 62
     7
  6
CONTINUOUS
  0
LAYER
  2
10
 70
    64
 62
     7
  6
CONTINUOUS
  0
LAYER
  2
11
 70
    64
 62
     7
  6
CONTINUOUS
  0
LAYER
  2
15
 70
    64
 62
     7
  6
CONTINUOUS
  0
LAYER
  2
19
 70
    64
 62
     7
  6
CONTINUOUS
  0
LAYER
  2
21
 70
    64
 62
     7
  6
CONTINUOUS
  0
LAYER
  2
22
 70
    64
 62
     7
  6
CONTINUOUS
  0
LAYER
  2
1
 70
    64
 62
     7
  6
CONTINUOUS
  0
LAYER
  2
13
 70
    64
 62
     7
  6
CONTINUOUS
  0
LAYER
  2
8
 70
    64
 62
     7
  6
CONTINUOUS
  0
LAYER
  2
58
 70
    64
 62
     7
  6
CONTINUOUS
  0
ENDTAB
  0
TABLE
  2
STYLE
 70
     4
  0
STYLE
  2
STANDARD
 70
     0
 40
0.0
 41
1.0
 50
0.0
 71
     0
 42
0.0
  3
txt
  4

  0
STYLE
  2
ROMANS
 70
     0
 40
0.2
 41
1.0
 50
0.0
 71
     0
 42
0.2
  3
ROMANS
  4

  0
STYLE
  2
txt
 70
     0
 40
0.2
 41
1.0
 50
0.0
 71
     0
 42
0.2
  3
TXT
  4

  0
STYLE
  2
ROMANC
 70
     0
 40
0.2
 41
1.0
 50
0.0
 71
     0
 42
0.2
  3
ROMANC
  4

  0
ENDTAB
  0
TABLE
  2
VIEW
 70
     0
  0
ENDTAB
  0
TABLE
  2
UCS
 70
     0
  0
ENDTAB
  0
TABLE
  2
APPID
 70
     1
  0
APPID
  2
ACAD
 70
     0
  0
ENDTAB
  0
TABLE
  2
DIMSTYLE
 70
     1
  0
DIMSTYLE
  2
STANDARD
 70
     0
  3

  4

  5

  6

  7

 40
1.0
 41
0.18
 42
0.0625
 43
0.38
 44
0.18
 45
0.0
 46
0.0
 47
0.0
 48
0.0
140
0.18
141
0.09
142
0.0
143
25.4
144
1.0
145
0.0
146
1.0
147
0.09
 71
     0
 72
     0
 73
     1
 74
     1
 75
     0
 76
     0
 77
     0
 78
     0
170
     0
171
     2
172
     0
173
     0
174
     0
175
     0
176
     0
177
     0
178
     0
  0
ENDTAB
  0
ENDSEC
  0
SECTION
  2
BLOCKS
  0
ENDSEC
  0
SECTION
  2
ENTITIES
  0
LINE
  8
6
  6
CONTINUOUS
 62
     7
  5
29
 10
951065.442
 20
7251843.184
 30
0.0
 11
951080.436
 21
7251842.736
 31
0.0
  0
LINE
  8
6
  6
CONTINUOUS
 62
     7
  5
2A
 10
951080.436
 20
7251842.736
 30
0.0
 11
951079.836
 21
7251822.745
 31
0.0
  0
LINE
  8
6
  6
CONTINUOUS
 62
     7
  5
2B
 10
951079.836
 20
7251822.745
 30
0.0
 11
951069.543
 21
7251813.05
 31
0.0
  0
LINE
  8
6
  6
CONTINUOUS
 62
     7
  5
2C
 10
951069.543
 20
7251813.05
 30
0.0
 11
951037.636
 21
7250748.598
 31
0.0
  0
LINE
  8
6
  6
CONTINUOUS
 62
     7
  5
2D
 10
951037.636
 20
7250748.598
 30
0.0
 11
951047.33
 21
7250738.305
 31
0.0
  0
LINE
  8
6
  6
CONTINUOUS
 62
     7
  5
2E
 10
951047.33
 20
7250738.305
 30
0.0
 11
951046.731
 21
7250718.314
 31
0.0
  0
LINE
  8
6
  6
CONTINUOUS
 62
     7
  5
2F
 10
951046.731
 20
7250718.314
 30
0.0
 11
949632.366
 21
7250760.709
 31
0.0
  0
LINE
  8
6
  6
CONTINUOUS
 62
     7
  5
30
 10
949692.897
 20
7251884.329
 30
0.0
 11
950100.713
 21
7251872.106
 31
0.0
  0
LINE
  8
6
  6
CONTINUOUS
 62
     7
  5
31
 10
951049.552
 20
7251813.654
 30
0.0
 11
951017.645
 21
7250749.199
 31
0.0
  0
LINE
  8
6
  6
CONTINUOUS
 62
     7
  5
32
 10
950769.977
 20
7251832.038
 30
0.0
 11
950750.051
 21
7251167.339
 31
0.0
  0
LINE
  8
6
  6
CONTINUOUS
 62
     7
  5
33
 10
950773.545
 20
7251952.01
 30
0.0
 11
950770.374
 21
7251852.035
 31
0.0
  0
LINE
  8
6
  6
CONTINUOUS
 62
     7
  5
34
 10
950340.763
 20
7251979.963
 30
0.0
 11
950684.033
 21
7251969.674
 31
0.0
  0
LINE
  8
6
  6
CONTINUOUS
 62
     7
  5
35
 10
950788.987
 20
7251966.527
 30
0.0
 11
951068.887
 21
7251958.137
 31
0.0
  0
LINE
  8
6
  6
CONTINUOUS
 62
     7
  5
36
 10
950770.374
 20
7251852.035
 30
0.0
 11
951065.441
 21
7251843.189
 31
0.0
  0
LINE
  8
7
  6
CONTINUOUS
 62
     7
  5
38
 10
950763.235
 20
7251607.141
 30
0.0
 11
951043.111
 21
7251598.751
 31
0.0
  0
ARC
  8
6
  6
CONTINUOUS
 62
     7
  5
39
 10
950788.537245
 20
7251951.534086
 30
0.0
 40
15.0
 50
88.283028
 51
178.1831
210
0.0
220
0.0
230
1.0
  0
LINE
  8
6
  6
CONTINUOUS
 62
     7
  5
3A
 10
951039.856
 20
7251823.948
 30
0.0
 11
951049.552
 21
7251813.654
 31
0.0
  0
LINE
  8
7
  6
CONTINUOUS
 62
     7
  5
3B
 10
950558.117
 20
7251973.448
 30
0.0
 11
950554.478
 21
7251858.752
 31
0.0
  0
ARC
  8
6
  6
CONTINUOUS
 62
     7
  5
3C
 10
950683.584242
 20
7251954.680594
 30
0.0
 40
15.0
 50
358.1831
 51
88.28195
210
0.0
220
0.0
230
1.0
  0
LINE
  8
6
  6
CONTINUOUS
 62
     7
  5
3D
 10
950695.011
 20
7251834.285
 30
0.0
 11
950675.086
 21
7251169.585
 31
0.0
  0
LINE
  8
6
  6
CONTINUOUS
 62
     7
  5
3E
 10
950105.04
 20
7251494.333
 30
0.0
 11
950095.826
 21
7251186.948
 31
0.0
  0
LINE
  8
6
  6
CONTINUOUS
 62
     7
  5
3F
 10
950030.878
 20
7251523.417
 30
0.0
 11
950020.859
 21
7251189.196
 31
0.0
  0
LINE
  8
6
  6
CONTINUOUS
 62
     7
  5
40
 10
950245.051
 20
7251847.773
 30
0.0
 11
950400.143
 21
7251843.123
 31
0.0
  0
LINE
  8
7
  6
CONTINUOUS
 62
     7
  5
41
 10
950426.758
 20
7251729.776
 30
0.0
 11
950691.64
 21
7251721.836
 31
0.0
  0
LINE
  8
6
  6
CONTINUOUS
 62
     7
  5
42
 10
950400.143
 20
7251843.123
 30
0.0
 11
950409.838
 21
7251832.829
 31
0.0
  0
LINE
  8
6
  6
CONTINUOUS
 62
     7
  5
43
 10
950440.125
 20
7251841.925
 30
0.0
 11
950429.829
 21
7251832.23
 31
0.0
  0
LINE
  8
6
  6
CONTINUOUS
 62
     7
  5
44
 10
950245.449
 20
7251867.768
 30
0.0
 11
950695.407
 21
7251854.281
 31
0.0
  0
ARC
  8
6
  6
CONTINUOUS
 62
     7
  5
45
 10
950170.791911
 20
7251184.700675
 30
0.0
 40
75.0
 50
178.282992
 51
268.282994
210
0.0
220
0.0
230
1.0
  0
ARC
  8
6
  6
CONTINUOUS
 62
     7
  5
46
 10
950600.119675
 20
7251171.831969
 30
0.0
 40
75.0
 50
268.282714
 51
358.28305
210
0.0
220
0.0
230
1.0
  0
LINE
  8
6
  6
CONTINUOUS
 62
     7
  5
47
 10
950168.545
 20
7251109.735
 30
0.0
 11
950387.966
 21
7251103.158
 31
0.0
  0
LINE
  8
6
  6
CONTINUOUS
 62
     7
  5
48
 10
950407.957
 20
7251102.559
 30
0.0
 11
950597.872
 21
7251096.866
 31
0.0
  0
LINE
  8
6
  6
CONTINUOUS
 62
     7
  5
49
 10
950409.838
 20
7251832.829
 30
0.0
 11
950387.966
 21
7251103.158
 31
0.0
  0
LINE
  8
6
  6
CONTINUOUS
 62
     7
  5
4A
 10
950429.829
 20
7251832.23
 30
0.0
 11
950407.957
 21
7251102.559
 31
0.0
  0
LINE
  8
6
  6
CONTINUOUS
 62
     7
  5
4B
 10
950405.71
 20
7251027.593
 30
0.0
 11
950397.922
 21
7250767.775
 31
0.0
  0
LINE
  8
6
  6
CONTINUOUS
 62
     7
  5
4C
 10
951007.349
 20
7250739.503
 30
0.0
 11
951017.645
 21
7250749.199
 31
0.0
  0
LINE
  8
6
  6
CONTINUOUS
 62
     7
  5
4D
 10
951007.349
 20
7250739.503
 30
0.0
 11
950407.617
 21
7250757.481
 31
0.0
  0
LINE
  8
6
  6
CONTINUOUS
 62
     7
  5
4E
 10
950367.635
 20
7250758.678
 30
0.0
 11
949633.441
 21
7250780.686
 31
0.0
  0
LINE
  8
6
  6
CONTINUOUS
 62
     7
  5
4F
 10
950397.922
 20
7250767.775
 30
0.0
 11
950407.617
 21
7250757.481
 31
0.0
  0
LINE
  8
6
  6
CONTINUOUS
 62
     7
  5
50
 10
950367.635
 20
7250758.678
 30
0.0
 11
950377.931
 21
7250768.373
 31
0.0
  0
LINE
  8
6
  6
CONTINUOUS
 62
     7
  5
51
 10
950405.71
 20
7251027.593
 30
0.0
 11
950595.625
 21
7251021.901
 31
0.0
  0
LINE
  8
6
  6
CONTINUOUS
 62
     7
  5
52
 10
950166.298
 20
7251034.769
 30
0.0
 11
950385.72
 21
7251028.193
 31
0.0
  0
ARC
  8
6
  6
CONTINUOUS
 62
     7
  5
53
 10
950600.11934
 20
7251171.833117
 30
0.0
 40
150.0
 50
268.283272
 51
358.283231
210
0.0
220
0.0
230
1.0
  0
ARC
  8
6
  6
CONTINUOUS
 62
     7
  5
54
 10
950170.791374
 20
7251184.701485
 30
0.0
 40
150.0
 50
178.283103
 51
268.283197
210
0.0
220
0.0
230
1.0
  0
LINE
  8
6
  6
CONTINUOUS
 62
     7
  5
55
 10
950245.449
 20
7251867.768
 30
0.0
 11
950248.581
 21
7251972.295
 31
0.0
  0
LINE
  8
6
  6
CONTINUOUS
 62
     7
  5
56
 10
950100.713
 20
7251872.106
 30
0.0
 11
950167.166
 21
7251850.105
 31
0.0
  0
LINE
  8
6
  6
CONTINUOUS
 62
     7
  5
57
 10
950167.166
 20
7251850.105
 30
0.0
 11
950170.084
 21
7251850.017
 31
0.0
  0
LINE
  8
6
  6
CONTINUOUS
 62
     7
  5
58
 10
950101.313
 20
7251892.097
 30
0.0
 11
950170.456
 21
7251869.205
 31
0.0
  0
LINE
  8
6
  6
CONTINUOUS
 62
     7
  5
59
 10
950174.023
 20
7251981.656
 30
0.0
 11
950170.456
 21
7251869.205
 31
0.0
  0
LINE
  8
6
  6
CONTINUOUS
 62
     7
  5
5A
 10
950104.609
 20
7252002.088
 30
0.0
 11
950160.375
 21
7251997.071
 31
0.0
  0
ARC
  8
6
  6
CONTINUOUS
 62
     7
  5
5B
 10
950159.030893
 20
7251982.132231
 30
0.0
 40
15.0
 50
358.1831
 51
84.859053
210
0.0
220
0.0
230
1.0
  0
ARC
  8
6
  6
CONTINUOUS
 62
     7
  5
5C
 10
949945.317717
 20
7251857.146887
 30
0.0
 40
299.88
 50
317.0764
 51
358.208667
210
0.0
220
0.0
230
1.0
  0
ARC
  8
6
  6
CONTINUOUS
 62
     7
  5
5D
 10
949945.317717
 20
7251857.146887
 30
0.0
 40
224.88
 50
317.0764
 51
358.1831
210
0.0
220
0.0
230
1.0
  0
ARC
  8
6
  6
CONTINUOUS
 62
     7
  5
5E
 10
950329.846415
 20
7251500.06066
 30
0.0
 40
299.88
 50
137.151261
 51
175.532911
210
0.0
220
0.0
230
1.0
  0
ARC
  8
6
  6
CONTINUOUS
 62
     7
  5
5F
 10
950329.846415
 20
7251500.06066
 30
0.0
 40
224.88
 50
137.151261
 51
181.459456
210
0.0
220
0.0
230
1.0
  0
LINE
  8
6
  6
CONTINUOUS
 62
     7
  5
60
 10
949693.53
 20
7251904.319
 30
0.0
 11
950101.313
 21
7251892.097
 31
0.0
  0
LINE
  8
6
  6
CONTINUOUS
 62
     7
  5
61
 10
949712.746
 20
7252037.805
 30
0.0
 11
950105.327
 21
7252026.036
 31
0.0
  0
LINE
  8
6
  6
CONTINUOUS
 62
     7
  5
62
 10
949693.53
 20
7251904.319
 30
0.0
 11
949697.304
 21
7252023.287
 31
0.0
  0
ARC
  8
6
  6
CONTINUOUS
 62
     7
  5
63
 10
949712.297037
 20
7252022.81084
 30
0.0
 40
15.0
 50
88.282928
 51
178.1831
210
0.0
220
0.0
230
1.0
  0
LINE
  8
7
  6
CONTINUOUS
 62
     7
  5
64
 10
949859.447
 20
7251899.057
 30
0.0
 11
949863.705
 21
7252033.279
 31
0.0
  0
LINE
  8
6
  6
CONTINUOUS
 62
     7
  5
65
 10
951065.441
 20
7251843.185
 30
0.0
 11
951070.07
 21
7251997.641
 31
0.0
  0
LINE
  8
7
  6
CONTINUOUS
 62
     7
  5
66
 10
950850.538
 20
7251849.627
 30
0.0
 11
950853.984
 21
7251964.579
 31
0.0
  0
LINE
  8
7
  6
CONTINUOUS
 62
     7
  5
67
 10
951065.442
 20
7251843.184
 30
0.0
 11
951068.887
 21
7251958.137
 31
0.0
  0
LINE
  8
7
  6
CONTINUOUS
 62
     7
  5
68
 10
950920.506
 20
7251847.53
 30
0.0
 11
950923.952
 21
7251962.483
 31
0.0
  0
LINE
  8
7
  6
CONTINUOUS
 62
     7
  5
69
 10
950990.475
 20
7251845.433
 30
0.0
 11
950993.92
 21
7251960.385
 31
0.0
  0
LINE
  8
6
  6
CONTINUOUS
 62
     7
  5
6A
 10
950769.977
 20
7251832.038
 30
0.0
 11
951039.856
 21
7251823.948
 31
0.0
  0
LINE
  8
7
  6
CONTINUOUS
 62
     7
  5
6B
 10
950766.606
 20
7251719.591
 30
0.0
 11
951046.48
 21
7251711.201
 31
0.0
  0
LINE
  8
7
  6
CONTINUOUS
 62
     7
  5
6C
 10
950759.865
 20
7251494.692
 30
0.0
 11
951039.739
 21
7251486.302
 31
0.0
  0
LINE
  8
7
  6
CONTINUOUS
 62
     7
  5
6D
 10
950755.894
 20
7251362.253
 30
0.0
 11
951035.768
 21
7251353.863
 31
0.0
  0
LINE
  8
7
  6
CONTINUOUS
 62
     7
  5
6E
 10
951024.786
 20
7250974.315
 30
0.0
 11
950744.983
 21
7251132.913
 31
0.0
  0
LINE
  8
7
  6
CONTINUOUS
 62
     7
  5
6F
 10
950957.371
 20
7250741.001
 30
0.0
 11
950692.499
 21
7251053.654
 31
0.0
  0
LINE
  8
6
  6
CONTINUOUS
 62
     7
  5
70
 10
950440.125
 20
7251841.925
 30
0.0
 11
950695.011
 21
7251834.285
 31
0.0
  0
LINE
  8
7
  6
CONTINUOUS
 62
     7
  5
71
 10
950423.388
 20
7251617.328
 30
0.0
 11
950688.269
 21
7251609.388
 31
0.0
  0
LINE
  8
7
  6
CONTINUOUS
 62
     7
  5
72
 10
950420.016
 20
7251504.879
 30
0.0
 11
950684.898
 21
7251496.939
 31
0.0
  0
LINE
  8
7
  6
CONTINUOUS
 62
     7
  5
73
 10
950101.668
 20
7251381.864
 30
0.0
 11
950396.057
 21
7251373.039
 31
0.0
  0
LINE
  8
7
  6
CONTINUOUS
 62
     7
  5
74
 10
950416.048
 20
7251372.439
 30
0.0
 11
950680.927
 21
7251364.499
 31
0.0
  0
LINE
  8
7
  6
CONTINUOUS
 62
     7
  5
75
 10
950143.354
 20
7251625.725
 30
0.0
 11
950403.398
 21
7251617.929
 31
0.0
  0
LINE
  8
6
  6
CONTINUOUS
 62
     7
  5
76
 10
950695.407
 20
7251854.281
 30
0.0
 11
950698.577
 21
7251954.205
 31
0.0
  0
LINE
  8
7
  6
CONTINUOUS
 62
     7
  5
77
 10
950628.084
 20
7251971.351
 30
0.0
 11
950624.443
 21
7251856.532
 31
0.0
  0
LINE
  8
7
  6
CONTINUOUS
 62
     7
  5
78
 10
950488.148
 20
7251975.546
 30
0.0
 11
950484.513
 21
7251860.971
 31
0.0
  0
LINE
  8
7
  6
CONTINUOUS
 62
     7
  5
79
 10
950418.019
 20
7251977.647
 30
0.0
 11
950414.388
 21
7251863.196
 31
0.0
  0
LINE
  8
7
  6
CONTINUOUS
 62
     7
  5
7A
 10
950348.05
 20
7251979.744
 30
0.0
 11
950344.424
 21
7251865.415
 31
0.0
  0
LINE
  8
6
  6
CONTINUOUS
 62
     7
  5
7B
 10
950340.763
 20
7251979.963
 30
0.0
 11
950264.918
 21
7251986.784
 31
0.0
  0
ARC
  8
6
  6
CONTINUOUS
 62
     7
  5
7C
 10
950263.573876
 20
7251971.845104
 30
0.0
 40
15.0
 50
84.860769
 51
178.281969
210
0.0
220
0.0
230
1.0
  0
LINE
  8
6
  6
CONTINUOUS
 62
     7
  5
7D
 10
950385.72
 20
7251028.193
 30
0.0
 11
950377.931
 21
7250768.373
 31
0.0
  0
LINE
  8
7
  6
CONTINUOUS
 62
     7
  5
7E
 10
950052.535
 20
7251092.424
 30
0.0
 11
950042.821
 21
7250768.414
 31
0.0
  0
LINE
  8
7
  6
CONTINUOUS
 62
     7
  5
7F
 10
950025.956
 20
7251359.245
 30
0.0
 11
949665.192
 21
7251370.059
 31
0.0
  0
LINE
  8
7
  6
CONTINUOUS
 62
     7
  5
80
 10
950021.461
 20
7251209.314
 30
0.0
 11
949657.12
 21
7251220.235
 31
0.0
  0
LINE
  8
7
  6
CONTINUOUS
 62
     7
  5
81
 10
950030.45
 20
7251509.179
 30
0.0
 11
949673.264
 21
7251519.885
 31
0.0
  0
LINE
  8
7
  6
CONTINUOUS
 62
     7
  5
82
 10
950095.609
 20
7251687.306
 30
0.0
 11
949678.656
 21
7251699.804
 31
0.0
  0
TEXT
  8
10
  6
CONTINUOUS
 62
   134
  5
85
 10
950135.446
 20
7251930.425
 30
0.0
 40
13.999
  1
1
 50
358.1831
  7
ROMANS
 11
950135.889846
 21
7251944.416962
 31
0.0
210
0.0
220
0.0
230
1.0
 73
     3
  0
TEXT
  8
10
  6
CONTINUOUS
 62
   134
  5
86
 10
950295.895
 20
7251925.336
 30
0.0
 40
13.999
  1
2
 50
358.1831
  7
ROMANS
 11
950296.338846
 21
7251939.327962
 31
0.0
210
0.0
220
0.0
230
1.0
 73
     3
  0
TEXT
  8
10
  6
CONTINUOUS
 62
   134
  5
87
 10
950378.445
 20
7251922.717
 30
0.0
 40
13.999
  1
3
 50
358.1831
  7
ROMANS
 11
950378.888846
 21
7251936.708962
 31
0.0
210
0.0
220
0.0
230
1.0
 73
     3
  0
TEXT
  8
10
  6
CONTINUOUS
 62
   134
  5
88
 10
950445.879
 20
7251920.578
 30
0.0
 40
13.999
  1
4
 50
358.1831
  7
ROMANS
 11
950446.322846
 21
7251934.569962
 31
0.0
210
0.0
220
0.0
230
1.0
 73
     3
  0
TEXT
  8
10
  6
CONTINUOUS
 62
   134
  5
89
 10
950516.801
 20
7251918.329
 30
0.0
 40
13.999
  1
5
 50
358.1831
  7
ROMANS
 11
950517.244846
 21
7251932.320962
 31
0.0
210
0.0
220
0.0
230
1.0
 73
     3
  0
TEXT
  8
10
  6
CONTINUOUS
 62
   134
  5
8A
 10
950586.561
 20
7251916.115
 30
0.0
 40
13.999
  1
6
 50
358.1831
  7
ROMANS
 11
950587.004846
 21
7251930.106962
 31
0.0
210
0.0
220
0.0
230
1.0
 73
     3
  0
TEXT
  8
10
  6
CONTINUOUS
 62
   134
  5
8B
 10
950651.671
 20
7251914.05
 30
0.0
 40
13.999
  1
7
 50
358.1831
  7
ROMANS
 11
950652.114846
 21
7251928.041962
 31
0.0
210
0.0
220
0.0
230
1.0
 73
     3
  0
TEXT
  8
10
  6
CONTINUOUS
 62
   134
  5
8C
 10
950809.795
 20
7251909.035
 30
0.0
 40
13.999
  1
8
 50
358.1831
  7
ROMANS
 11
950810.238846
 21
7251923.026962
 31
0.0
210
0.0
220
0.0
230
1.0
 73
     3
  0
TEXT
  8
10
  6
CONTINUOUS
 62
   134
  5
8D
 10
950881.881
 20
7251906.747
 30
0.0
 40
13.999
  1
9
 50
358.1831
  7
ROMANS
 11
950882.324846
 21
7251920.738962
 31
0.0
210
0.0
220
0.0
230
1.0
 73
     3
  0
TEXT
  8
10
  6
CONTINUOUS
 62
   134
  5
8E
 10
950950.476
 20
7251904.572
 30
0.0
 40
13.999
  1
10
 50
358.1831
  7
ROMANS
 11
950950.919846
 21
7251918.563962
 31
0.0
210
0.0
220
0.0
230
1.0
 73
     3
  0
TEXT
  8
10
  6
CONTINUOUS
 62
   134
  5
8F
 10
951014.242
 20
7251902.549
 30
0.0
 40
13.999
  1
11
 50
358.1831
  7
ROMANS
 11
951014.685846
 21
7251916.540962
 31
0.0
210
0.0
220
0.0
230
1.0
 73
     3
  0
TEXT
  8
10
  6
CONTINUOUS
 62
   134
  5
90
 10
950892.497
 20
7251770.192
 30
0.0
 40
13.999
  1
12
 50
358.1831
  7
ROMANS
 11
950892.940846
 21
7251784.183962
 31
0.0
210
0.0
220
0.0
230
1.0
 73
     3
  0
TEXT
  8
10
  6
CONTINUOUS
 62
   134
  5
91
 10
950888.77
 20
7251652.7
 30
0.0
 40
13.999
  1
13
 50
358.1831
  7
ROMANS
 11
950889.213846
 21
7251666.691962
 31
0.0
210
0.0
220
0.0
230
1.0
 73
     3
  0
TEXT
  8
10
  6
CONTINUOUS
 62
   134
  5
92
 10
950885.396
 20
7251546.338
 30
0.0
 40
13.999
  1
14
 50
358.1831
  7
ROMANS
 11
950885.839846
 21
7251560.329962
 31
0.0
210
0.0
220
0.0
230
1.0
 73
     3
  0
TEXT
  8
10
  6
CONTINUOUS
 62
   134
  5
93
 10
950881.558
 20
7251425.356
 30
0.0
 40
13.999
  1
15
 50
358.1831
  7
ROMANS
 11
950882.001846
 21
7251439.347962
 31
0.0
210
0.0
220
0.0
230
1.0
 73
     3
  0
TEXT
  8
10
  6
CONTINUOUS
 62
   134
  5
94
 10
950875.063
 20
7251220.616
 30
0.0
 40
13.999
  1
16
 50
358.1831
  7
ROMANS
 11
950875.506846
 21
7251234.607962
 31
0.0
210
0.0
220
0.0
230
1.0
 73
     3
  0
TEXT
  8
10
  6
CONTINUOUS
 62
   134
  5
95
 10
950866.777
 20
7250959.365
 30
0.0
 40
13.999
  1
17
 50
358.1831
  7
ROMANS
 11
950867.220846
 21
7250973.356962
 31
0.0
210
0.0
220
0.0
230
1.0
 73
     3
  0
TEXT
  8
10
  6
CONTINUOUS
 62
   134
  5
96
 10
950735.891
 20
7250869.195
 30
0.0
 40
13.999
  1
18
 50
358.1831
  7
ROMANS
 11
950736.334846
 21
7250883.186962
 31
0.0
210
0.0
220
0.0
230
1.0
 73
     3
  0
TEXT
  8
10
  6
CONTINUOUS
 62
   134
  5
97
 10
950513.6
 20
7250869.26
 30
0.0
 40
13.999
  1
19
 50
358.1831
  7
ROMANS
 11
950514.043846
 21
7250883.251962
 31
0.0
210
0.0
220
0.0
230
1.0
 73
     3
  0
TEXT
  8
10
  6
CONTINUOUS
 62
   134
  5
98
 10
950200.325
 20
7250879.197
 30
0.0
 40
13.999
  1
20
 50
358.1831
  7
ROMANS
 11
950200.768846
 21
7250893.188962
 31
0.0
210
0.0
220
0.0
230
1.0
 73
     3
  0
TEXT
  8
10
  6
CONTINUOUS
 62
   134
  5
99
 10
949828.748
 20
7250979.434
 30
0.0
 40
13.999
  1
21
 50
358.1831
  7
ROMANS
 11
949829.191846
 21
7250993.425962
 31
0.0
210
0.0
220
0.0
230
1.0
 73
     3
  0
TEXT
  8
10
  6
CONTINUOUS
 62
   134
  5
9A
 10
949838.368
 20
7251282.699
 30
0.0
 40
13.999
  1
22
 50
358.1831
  7
ROMANS
 11
949838.811846
 21
7251296.690962
 31
0.0
210
0.0
220
0.0
230
1.0
 73
     3
  0
TEXT
  8
10
  6
CONTINUOUS
 62
   134
  5
9B
 10
949843.202
 20
7251435.09
 30
0.0
 40
13.999
  1
23
 50
358.1831
  7
ROMANS
 11
949843.645846
 21
7251449.081962
 31
0.0
210
0.0
220
0.0
230
1.0
 73
     3
  0
TEXT
  8
10
  6
CONTINUOUS
 62
   134
  5
9C
 10
949848.11
 20
7251589.809
 30
0.0
 40
13.999
  1
24
 50
358.1831
  7
ROMANS
 11
949848.553846
 21
7251603.800962
 31
0.0
210
0.0
220
0.0
230
1.0
 73
     3
  0
TEXT
  8
10
  6
CONTINUOUS
 62
   134
  5
9D
 10
949854.481
 20
7251790.657
 30
0.0
 40
13.999
  1
25
 50
358.1831
  7
ROMANS
 11
949854.924846
 21
7251804.648962
 31
0.0
210
0.0
220
0.0
230
1.0
 73
     3
  0
TEXT
  8
10
  6
CONTINUOUS
 62
   134
  5
9E
 10
950299.313
 20
7251727.639
 30
0.0
 40
13.999
  1
26
 50
358.1831
  7
ROMANS
 11
950299.756846
 21
7251741.630962
 31
0.0
210
0.0
220
0.0
230
1.0
 73
     3
  0
TEXT
  8
10
  6
CONTINUOUS
 62
   134
  5
9F
 10
950253.603
 20
7251497.361
 30
0.0
 40
13.999
  1
27
 50
358.1831
  7
ROMANS
 11
950254.046846
 21
7251511.352962
 31
0.0
210
0.0
220
0.0
230
1.0
 73
     3
  0
TEXT
  8
10
  6
CONTINUOUS
 62
   134
  5
A0
 10
950245.197
 20
7251232.384
 30
0.0
 40
13.999
  1
28
 50
358.1831
  7
ROMANS
 11
950245.640846
 21
7251246.375962
 31
0.0
210
0.0
220
0.0
230
1.0
 73
     3
  0
TEXT
  8
10
  6
CONTINUOUS
 62
   134
  5
A1
 10
950527.454
 20
7251223.431
 30
0.0
 40
13.999
  1
29
 50
358.1831
  7
ROMANS
 11
950527.897846
 21
7251237.422962
 31
0.0
210
0.0
220
0.0
230
1.0
 73
     3
  0
TEXT
  8
10
  6
CONTINUOUS
 62
   134
  5
A2
 10
950534.133
 20
7251433.986
 30
0.0
 40
13.999
  1
30
 50
358.1831
  7
ROMANS
 11
950534.576846
 21
7251447.977962
 31
0.0
210
0.0
220
0.0
230
1.0
 73
     3
  0
TEXT
  8
10
  6
CONTINUOUS
 62
   134
  5
A3
 10
950537.676
 20
7251545.662
 30
0.0
 40
13.999
  1
31
 50
358.1831
  7
ROMANS
 11
950538.119846
 21
7251559.653962
 31
0.0
210
0.0
220
0.0
230
1.0
 73
     3
  0
TEXT
  8
10
  6
CONTINUOUS
 62
   134
  5
A4
 10
950541.439
 20
7251664.319
 30
0.0
 40
13.999
  1
32
 50
358.1831
  7
ROMANS
 11
950541.882846
 21
7251678.310962
 31
0.0
210
0.0
220
0.0
230
1.0
 73
     3
  0
TEXT
  8
10
  6
CONTINUOUS
 62
   134
  5
A5
 10
950544.909
 20
7251773.667
 30
0.0
 40
13.999
  1
33
 50
358.1831
  7
ROMANS
 11
950545.352846
 21
7251787.658962
 31
0.0
210
0.0
220
0.0
230
1.0
 73
     3
  0
LINE
  8
7
  6
CONTINUOUS
 62
     7
  5
A6
 10
950692.49
 20
7250748.941
 30
0.0
 11
950603.112
 21
7251021.863
 31
0.0
  0
POLYLINE
  8
6
  6
CONTINUOUS
 62
     7
  5
A7
 66
     1
 10
0.0
 20
0.0
 30
0.0
 70
     1
  0
VERTEX
  8
6
  6
CONTINUOUS
 62
     7
  5
A8
 10
946801.981
 20
7251975.145
 30
0.0
  0
VERTEX
  8
6
  6
CONTINUOUS
 62
     7
  5
A9
 10
947406.676
 20
7251955.964
 30
0.0
  0
VERTEX
  8
6
  6
CONTINUOUS
 62
     7
  5
AA
 10
947402.079
 20
7251811.036
 30
0.0
  0
VERTEX
  8
6
  6
CONTINUOUS
 62
     7
  5
AB
 10
946797.383
 20
7251830.219
 30
0.0
  0
SEQEND
  8
6
  6
CONTINUOUS
 62
     7
  5
AC
  0
POLYLINE
  8
6
  6
CONTINUOUS
 62
     7
  5
AD
 66
     1
 10
0.0
 20
0.0
 30
0.0
 70
     1
  0
VERTEX
  8
6
  6
CONTINUOUS
 62
     7
  5
AE
 10
946795.798
 20
7251780.244
 30
0.0
  0
VERTEX
  8
6
  6
CONTINUOUS
 62
     7
  5
AF
 10
947400.494
 20
7251761.061
 30
0.0
  0
VERTEX
  8
6
  6
CONTINUOUS
 62
     7
  5
B0
 10
947395.897
 20
7251616.135
 30
0.0
  0
VERTEX
  8
6
  6
CONTINUOUS
 62
     7
  5
B1
 10
946791.2
 20
7251635.316
 30
0.0
  0
SEQEND
  8
6
  6
CONTINUOUS
 62
     7
  5
B2
  0
POLYLINE
  8
6
  6
CONTINUOUS
 62
     7
  5
B3
 66
     1
 10
0.0
 20
0.0
 30
0.0
 70
     1
  0
VERTEX
  8
6
  6
CONTINUOUS
 62
     7
  5
B4
 10
946790.725
 20
7251620.324
 30
0.0
  0
VERTEX
  8
6
  6
CONTINUOUS
 62
     7
  5
B5
 10
947395.421
 20
7251601.142
 30
0.0
  0
VERTEX
  8
6
  6
CONTINUOUS
 62
     7
  5
B6
 10
947390.824
 20
7251456.215
 30
0.0
  0
VERTEX
  8
6
  6
CONTINUOUS
 62
     7
  5
B7
 10
946786.128
 20
7251475.397
 30
0.0
  0
SEQEND
  8
6
  6
CONTINUOUS
 62
     7
  5
B8
  0
POLYLINE
  8
6
  6
CONTINUOUS
 62
     7
  5
B9
 66
     1
 10
0.0
 20
0.0
 30
0.0
 70
     1
  0
VERTEX
  8
6
  6
CONTINUOUS
 62
     7
  5
BA
 10
947456.651
 20
7251954.378
 30
0.0
  0
VERTEX
  8
6
  6
CONTINUOUS
 62
     7
  5
BB
 10
948066.345
 20
7251935.037
 30
0.0
  0
VERTEX
  8
6
  6
CONTINUOUS
 62
     7
  5
BC
 10
948061.747
 20
7251790.111
 30
0.0
  0
VERTEX
  8
6
  6
CONTINUOUS
 62
     7
  5
BD
 10
947452.054
 20
7251809.452
 30
0.0
  0
SEQEND
  8
6
  6
CONTINUOUS
 62
     7
  5
BE
  0
POLYLINE
  8
6
  6
CONTINUOUS
 62
     7
  5
BF
 66
     1
 10
0.0
 20
0.0
 30
0.0
 70
     1
  0
VERTEX
  8
6
  6
CONTINUOUS
 62
     7
  5
C0
 10
947450.469
 20
7251759.477
 30
0.0
  0
VERTEX
  8
6
  6
CONTINUOUS
 62
     7
  5
C1
 10
948060.162
 20
7251740.136
 30
0.0
  0
VERTEX
  8
6
  6
CONTINUOUS
 62
     7
  5
C2
 10
948055.565
 20
7251595.209
 30
0.0
  0
VERTEX
  8
6
  6
CONTINUOUS
 62
     7
  5
C3
 10
947445.872
 20
7251614.549
 30
0.0
  0
SEQEND
  8
6
  6
CONTINUOUS
 62
     7
  5
C4
  0
POLYLINE
  8
6
  6
CONTINUOUS
 62
     7
  5
C5
 66
     1
 10
0.0
 20
0.0
 30
0.0
 70
     1
  0
VERTEX
  8
6
  6
CONTINUOUS
 62
     7
  5
C6
 10
947445.396
 20
7251599.557
 30
0.0
  0
VERTEX
  8
6
  6
CONTINUOUS
 62
     7
  5
C7
 10
948055.089
 20
7251580.216
 30
0.0
  0
VERTEX
  8
6
  6
CONTINUOUS
 62
     7
  5
C8
 10
948050.492
 20
7251435.29
 30
0.0
  0
VERTEX
  8
6
  6
CONTINUOUS
 62
     7
  5
C9
 10
947440.799
 20
7251454.629
 30
0.0
  0
SEQEND
  8
6
  6
CONTINUOUS
 62
     7
  5
CA
  0
POLYLINE
  8
6
  6
CONTINUOUS
 62
     7
  5
CB
 66
     1
 10
0.0
 20
0.0
 30
0.0
 70
     1
  0
VERTEX
  8
6
  6
CONTINUOUS
 62
     7
  5
CC
 10
948116.32
 20
7251933.453
 30
0.0
  0
VERTEX
  8
6
  6
CONTINUOUS
 62
     7
  5
CD
 10
948726.013
 20
7251914.112
 30
0.0
  0
VERTEX
  8
6
  6
CONTINUOUS
 62
     7
  5
CE
 10
948721.415
 20
7251769.185
 30
0.0
  0
VERTEX
  8
6
  6
CONTINUOUS
 62
     7
  5
CF
 10
948111.722
 20
7251788.526
 30
0.0
  0
SEQEND
  8
6
  6
CONTINUOUS
 62
     7
  5
D0
  0
POLYLINE
  8
6
  6
CONTINUOUS
 62
     7
  5
D1
 66
     1
 10
0.0
 20
0.0
 30
0.0
 70
     1
  0
VERTEX
  8
6
  6
CONTINUOUS
 62
     7
  5
D2
 10
948110.137
 20
7251738.551
 30
0.0
  0
VERTEX
  8
6
  6
CONTINUOUS
 62
     7
  5
D3
 10
948719.831
 20
7251719.21
 30
0.0
  0
VERTEX
  8
6
  6
CONTINUOUS
 62
     7
  5
D4
 10
948715.233
 20
7251574.283
 30
0.0
  0
VERTEX
  8
6
  6
CONTINUOUS
 62
     7
  5
D5
 10
948105.539
 20
7251593.624
 30
0.0
  0
SEQEND
  8
6
  6
CONTINUOUS
 62
     7
  5
D6
  0
POLYLINE
  8
6
  6
CONTINUOUS
 62
     7
  5
D7
 66
     1
 10
0.0
 20
0.0
 30
0.0
 70
     1
  0
VERTEX
  8
6
  6
CONTINUOUS
 62
     7
  5
D8
 10
948105.064
 20
7251578.632
 30
0.0
  0
VERTEX
  8
6
  6
CONTINUOUS
 62
     7
  5
D9
 10
948714.758
 20
7251559.291
 30
0.0
  0
VERTEX
  8
6
  6
CONTINUOUS
 62
     7
  5
DA
 10
948710.16
 20
7251414.364
 30
0.0
  0
VERTEX
  8
6
  6
CONTINUOUS
 62
     7
  5
DB
 10
948100.467
 20
7251433.704
 30
0.0
  0
SEQEND
  8
6
  6
CONTINUOUS
 62
     7
  5
DC
  0
POLYLINE
  8
6
  6
CONTINUOUS
 62
     7
  5
DD
 66
     1
 10
0.0
 20
0.0
 30
0.0
 70
     1
  0
VERTEX
  8
6
  6
CONTINUOUS
 62
     7
  5
DE
 10
948775.988
 20
7251912.527
 30
0.0
  0
VERTEX
  8
6
  6
CONTINUOUS
 62
     7
  5
DF
 10
949180.784
 20
7251899.686
 30
0.0
  0
VERTEX
  8
6
  6
CONTINUOUS
 62
     7
  5
E0
 10
949176.187
 20
7251754.759
 30
0.0
  0
VERTEX
  8
6
  6
CONTINUOUS
 62
     7
  5
E1
 10
948771.39
 20
7251767.6
 30
0.0
  0
SEQEND
  8
6
  6
CONTINUOUS
 62
     7
  5
E2
  0
POLYLINE
  8
6
  6
CONTINUOUS
 62
     7
  5
E3
 66
     1
 10
0.0
 20
0.0
 30
0.0
 70
     1
  0
VERTEX
  8
6
  6
CONTINUOUS
 62
     7
  5
E4
 10
948769.805
 20
7251717.625
 30
0.0
  0
VERTEX
  8
6
  6
CONTINUOUS
 62
     7
  5
E5
 10
949174.601
 20
7251704.784
 30
0.0
  0
VERTEX
  8
6
  6
CONTINUOUS
 62
     7
  5
E6
 10
949170.005
 20
7251559.858
 30
0.0
  0
VERTEX
  8
6
  6
CONTINUOUS
 62
     7
  5
E7
 10
948765.208
 20
7251572.698
 30
0.0
  0
SEQEND
  8
6
  6
CONTINUOUS
 62
     7
  5
E8
  0
POLYLINE
  8
6
  6
CONTINUOUS
 62
     7
  5
E9
 66
     1
 10
0.0
 20
0.0
 30
0.0
 70
     1
  0
VERTEX
  8
6
  6
CONTINUOUS
 62
     7
  5
EA
 10
948764.732
 20
7251557.705
 30
0.0
  0
VERTEX
  8
6
  6
CONTINUOUS
 62
     7
  5
EB
 10
949169.528
 20
7251544.865
 30
0.0
  0
VERTEX
  8
6
  6
CONTINUOUS
 62
     7
  5
EC
 10
949164.932
 20
7251399.938
 30
0.0
  0
VERTEX
  8
6
  6
CONTINUOUS
 62
     7
  5
ED
 10
948760.135
 20
7251412.778
 30
0.0
  0
SEQEND
  8
6
  6
CONTINUOUS
 62
     7
  5
EE
  0
POLYLINE
  8
6
  6
CONTINUOUS
 62
     7
  5
EF
 66
     1
 10
0.0
 20
0.0
 30
0.0
 70
     1
  0
VERTEX
  8
6
  6
CONTINUOUS
 62
     7
  5
F0
 10
949195.776
 20
7251899.211
 30
0.0
  0
VERTEX
  8
6
  6
CONTINUOUS
 62
     7
  5
F1
 10
949360.694
 20
7251893.979
 30
0.0
  0
VERTEX
  8
6
  6
CONTINUOUS
 62
     7
  5
F2
 10
949356.096
 20
7251749.052
 30
0.0
  0
VERTEX
  8
6
  6
CONTINUOUS
 62
     7
  5
F3
 10
949191.179
 20
7251754.284
 30
0.0
  0
SEQEND
  8
6
  6
CONTINUOUS
 62
     7
  5
F4
  0
LINE
  8
6
  6
CONTINUOUS
 62
     7
  5
F5
 10
949189.594
 20
7251704.309
 30
0.0
 11
949349.414
 21
7251699.239
 31
0.0
  0
LINE
  8
6
  6
CONTINUOUS
 62
     7
  5
F6
 10
949189.594
 20
7251704.309
 30
0.0
 11
949184.997
 21
7251559.382
 31
0.0
  0
LINE
  8
6
  6
CONTINUOUS
 62
     7
  5
F7
 10
949184.997
 20
7251559.382
 30
0.0
 11
949333.646
 21
7251554.666
 31
0.0
  0
LINE
  8
6
  6
CONTINUOUS
 62
     7
  5
F8
 10
949184.521
 20
7251544.39
 30
0.0
 11
949329.448
 21
7251539.792
 31
0.0
  0
LINE
  8
6
  6
CONTINUOUS
 62
     7
  5
F9
 10
949179.924
 20
7251399.462
 30
0.0
 11
949324.851
 21
7251394.865
 31
0.0
  0
LINE
  8
6
  6
CONTINUOUS
 62
     7
  5
FA
 10
949184.521
 20
7251544.39
 30
0.0
 11
949179.924
 21
7251399.462
 31
0.0
  0
LINE
  8
6
  6
CONTINUOUS
 62
     7
  5
FB
 10
949329.448
 20
7251539.792
 30
0.0
 11
949324.851
 21
7251394.865
 31
0.0
  0
LINE
  8
6
  6
CONTINUOUS
 62
     7
  5
FC
 10
949333.646
 20
7251554.666
 30
0.0
 11
949349.414
 21
7251699.239
 31
0.0
  0
LINE
  8
6
  6
CONTINUOUS
 62
     7
  5
FD
 10
949322.949
 20
7251334.895
 30
0.0
 11
949299.486
 21
7250595.267
 31
0.0
  0
LINE
  8
7
  6
CONTINUOUS
 62
     7
  5
FE
 10
946956.661
 20
7252120.315
 30
0.0
 11
946952.381
 21
7251985.382
 31
0.0
  0
LINE
  8
7
  6
CONTINUOUS
 62
     7
  5
FF
 10
946876.943
 20
7251972.768
 30
0.0
 11
946872.346
 21
7251827.84
 31
0.0
  0
LINE
  8
7
  6
CONTINUOUS
 62
     7
  5
100
 10
946881.699
 20
7252122.692
 30
0.0
 11
946877.419
 21
7251987.76
 31
0.0
  0
LINE
  8
7
  6
CONTINUOUS
 62
     7
  5
101
 10
947031.623
 20
7252117.936
 30
0.0
 11
947027.343
 21
7251983.004
 31
0.0
  0
LINE
  8
7
  6
CONTINUOUS
 62
     7
  5
102
 10
947106.052
 20
7252098.75
 30
0.0
 11
947102.305
 21
7251980.626
 31
0.0
  0
LINE
  8
7
  6
CONTINUOUS
 62
     7
  5
103
 10
947181.015
 20
7252096.372
 30
0.0
 11
947177.268
 21
7251978.248
 31
0.0
  0
LINE
  8
7
  6
CONTINUOUS
 62
     7
  5
104
 10
947255.977
 20
7252093.994
 30
0.0
 11
947252.23
 21
7251975.871
 31
0.0
  0
LINE
  8
7
  6
CONTINUOUS
 62
     7
  5
105
 10
947330.941
 20
7252091.681
 30
0.0
 11
947327.193
 21
7251973.493
 31
0.0
  0
LINE
  8
7
  6
CONTINUOUS
 62
     7
  5
106
 10
946951.905
 20
7251970.39
 30
0.0
 11
946947.308
 21
7251825.462
 31
0.0
  0
LINE
  8
7
  6
CONTINUOUS
 62
     7
  5
107
 10
947026.867
 20
7251968.011
 30
0.0
 11
947022.27
 21
7251823.085
 31
0.0
  0
LINE
  8
7
  6
CONTINUOUS
 62
     7
  5
108
 10
947101.83
 20
7251965.634
 30
0.0
 11
947097.232
 21
7251820.707
 31
0.0
  0
LINE
  8
7
  6
CONTINUOUS
 62
     7
  5
109
 10
947176.792
 20
7251963.256
 30
0.0
 11
947172.195
 21
7251818.329
 31
0.0
  0
LINE
  8
7
  6
CONTINUOUS
 62
     7
  5
10A
 10
947251.755
 20
7251960.878
 30
0.0
 11
947247.157
 21
7251815.951
 31
0.0
  0
LINE
  8
7
  6
CONTINUOUS
 62
     7
  5
10B
 10
947326.717
 20
7251958.5
 30
0.0
 11
947322.12
 21
7251813.573
 31
0.0
  0
LINE
  8
7
  6
CONTINUOUS
 62
     7
  5
10C
 10
946870.76
 20
7251777.865
 30
0.0
 11
946866.163
 21
7251632.939
 31
0.0
  0
LINE
  8
7
  6
CONTINUOUS
 62
     7
  5
10D
 10
946865.687
 20
7251617.946
 30
0.0
 11
946861.09
 21
7251473.019
 31
0.0
  0
LINE
  8
7
  6
CONTINUOUS
 62
     7
  5
10E
 10
946945.723
 20
7251775.488
 30
0.0
 11
946941.125
 21
7251630.561
 31
0.0
  0
LINE
  8
7
  6
CONTINUOUS
 62
     7
  5
10F
 10
947020.685
 20
7251773.11
 30
0.0
 11
947016.088
 21
7251628.182
 31
0.0
  0
LINE
  8
7
  6
CONTINUOUS
 62
     7
  5
110
 10
947095.647
 20
7251770.732
 30
0.0
 11
947091.05
 21
7251625.805
 31
0.0
  0
LINE
  8
7
  6
CONTINUOUS
 62
     7
  5
111
 10
947170.609
 20
7251768.354
 30
0.0
 11
947166.012
 21
7251623.427
 31
0.0
  0
LINE
  8
7
  6
CONTINUOUS
 62
     7
  5
112
 10
947245.572
 20
7251765.976
 30
0.0
 11
947240.974
 21
7251621.049
 31
0.0
  0
LINE
  8
7
  6
CONTINUOUS
 62
     7
  5
113
 10
947320.534
 20
7251763.598
 30
0.0
 11
947315.937
 21
7251618.671
 31
0.0
  0
LINE
  8
7
  6
CONTINUOUS
 62
     7
  5
114
 10
946940.65
 20
7251615.568
 30
0.0
 11
946936.053
 21
7251470.641
 31
0.0
  0
LINE
  8
7
  6
CONTINUOUS
 62
     7
  5
115
 10
947015.612
 20
7251613.19
 30
0.0
 11
947011.015
 21
7251468.263
 31
0.0
  0
LINE
  8
7
  6
CONTINUOUS
 62
     7
  5
116
 10
947090.574
 20
7251610.813
 30
0.0
 11
947085.977
 21
7251465.885
 31
0.0
  0
LINE
  8
7
  6
CONTINUOUS
 62
     7
  5
117
 10
947165.536
 20
7251608.434
 30
0.0
 11
947160.939
 21
7251463.507
 31
0.0
  0
LINE
  8
7
  6
CONTINUOUS
 62
     7
  5
118
 10
947240.499
 20
7251606.056
 30
0.0
 11
947235.901
 21
7251461.13
 31
0.0
  0
LINE
  8
7
  6
CONTINUOUS
 62
     7
  5
119
 10
947315.461
 20
7251603.679
 30
0.0
 11
947310.864
 21
7251458.751
 31
0.0
  0
LINE
  8
7
  6
CONTINUOUS
 62
     7
  5
11A
 10
947616.327
 20
7252099.304
 30
0.0
 11
947612.049
 21
7251964.457
 31
0.0
  0
LINE
  8
7
  6
CONTINUOUS
 62
     7
  5
11B
 10
947536.611
 20
7251951.842
 30
0.0
 11
947532.014
 21
7251806.915
 31
0.0
  0
LINE
  8
7
  6
CONTINUOUS
 62
     7
  5
11C
 10
947541.362
 20
7252101.622
 30
0.0
 11
947537.087
 21
7251966.834
 31
0.0
  0
LINE
  8
7
  6
CONTINUOUS
 62
     7
  5
11D
 10
947691.291
 20
7252096.989
 30
0.0
 11
947687.012
 21
7251962.079
 31
0.0
  0
LINE
  8
7
  6
CONTINUOUS
 62
     7
  5
11E
 10
947765.731
 20
7252078.176
 30
0.0
 11
947761.974
 21
7251959.7
 31
0.0
  0
LINE
  8
7
  6
CONTINUOUS
 62
     7
  5
11F
 10
947840.696
 20
7252075.879
 30
0.0
 11
947836.935
 21
7251957.323
 31
0.0
  0
LINE
  8
7
  6
CONTINUOUS
 62
     7
  5
120
 10
947916.178
 20
7252089.877
 30
0.0
 11
947911.898
 21
7251954.945
 31
0.0
  0
LINE
  8
7
  6
CONTINUOUS
 62
     7
  5
121
 10
947991.141
 20
7252087.499
 30
0.0
 11
947986.86
 21
7251952.566
 31
0.0
  0
LINE
  8
7
  6
CONTINUOUS
 62
     7
  5
122
 10
947611.574
 20
7251949.464
 30
0.0
 11
947606.976
 21
7251804.537
 31
0.0
  0
LINE
  8
7
  6
CONTINUOUS
 62
     7
  5
123
 10
947686.536
 20
7251947.086
 30
0.0
 11
947681.939
 21
7251802.159
 31
0.0
  0
LINE
  8
7
  6
CONTINUOUS
 62
     7
  5
124
 10
947761.498
 20
7251944.708
 30
0.0
 11
947756.901
 21
7251799.781
 31
0.0
  0
LINE
  8
7
  6
CONTINUOUS
 62
     7
  5
125
 10
947836.46
 20
7251942.331
 30
0.0
 11
947831.863
 21
7251797.403
 31
0.0
  0
LINE
  8
7
  6
CONTINUOUS
 62
     7
  5
126
 10
947911.422
 20
7251939.952
 30
0.0
 11
947906.825
 21
7251795.025
 31
0.0
  0
LINE
  8
7
  6
CONTINUOUS
 62
     7
  5
127
 10
947986.385
 20
7251937.574
 30
0.0
 11
947981.788
 21
7251792.647
 31
0.0
  0
LINE
  8
7
  6
CONTINUOUS
 62
     7
  5
128
 10
947605.391
 20
7251754.562
 30
0.0
 11
947600.793
 21
7251609.635
 31
0.0
  0
LINE
  8
7
  6
CONTINUOUS
 62
     7
  5
129
 10
947525.355
 20
7251597.02
 30
0.0
 11
947520.758
 21
7251452.093
 31
0.0
  0
LINE
  8
7
  6
CONTINUOUS
 62
     7
  5
12A
 10
947530.428
 20
7251756.94
 30
0.0
 11
947525.831
 21
7251612.013
 31
0.0
  0
LINE
  8
7
  6
CONTINUOUS
 62
     7
  5
12B
 10
947680.353
 20
7251752.184
 30
0.0
 11
947675.756
 21
7251607.257
 31
0.0
  0
LINE
  8
7
  6
CONTINUOUS
 62
     7
  5
12C
 10
947755.316
 20
7251749.806
 30
0.0
 11
947750.718
 21
7251604.879
 31
0.0
  0
LINE
  8
7
  6
CONTINUOUS
 62
     7
  5
12D
 10
947830.278
 20
7251747.428
 30
0.0
 11
947825.681
 21
7251602.502
 31
0.0
  0
LINE
  8
7
  6
CONTINUOUS
 62
     7
  5
12E
 10
947905.24
 20
7251745.051
 30
0.0
 11
947900.643
 21
7251600.123
 31
0.0
  0
LINE
  8
7
  6
CONTINUOUS
 62
     7
  5
12F
 10
947980.202
 20
7251742.673
 30
0.0
 11
947975.605
 21
7251597.745
 31
0.0
  0
LINE
  8
7
  6
CONTINUOUS
 62
     7
  5
130
 10
947600.318
 20
7251594.642
 30
0.0
 11
947595.72
 21
7251449.716
 31
0.0
  0
LINE
  8
7
  6
CONTINUOUS
 62
     7
  5
131
 10
947675.28
 20
7251592.265
 30
0.0
 11
947670.683
 21
7251447.337
 31
0.0
  0
LINE
  8
7
  6
CONTINUOUS
 62
     7
  5
132
 10
947750.243
 20
7251589.886
 30
0.0
 11
947745.645
 21
7251444.96
 31
0.0
  0
LINE
  8
7
  6
CONTINUOUS
 62
     7
  5
133
 10
947825.205
 20
7251587.509
 30
0.0
 11
947820.608
 21
7251442.582
 31
0.0
  0
LINE
  8
7
  6
CONTINUOUS
 62
     7
  5
134
 10
947900.167
 20
7251585.131
 30
0.0
 11
947895.57
 21
7251440.203
 31
0.0
  0
LINE
  8
7
  6
CONTINUOUS
 62
     7
  5
135
 10
947975.129
 20
7251582.753
 30
0.0
 11
947970.532
 21
7251437.826
 31
0.0
  0
LINE
  8
7
  6
CONTINUOUS
 62
     7
  5
136
 10
948275.998
 20
7252078.463
 30
0.0
 11
948271.717
 21
7251943.531
 31
0.0
  0
LINE
  8
7
  6
CONTINUOUS
 62
     7
  5
137
 10
948196.279
 20
7251930.917
 30
0.0
 11
948191.682
 21
7251785.989
 31
0.0
  0
LINE
  8
7
  6
CONTINUOUS
 62
     7
  5
138
 10
948201.035
 20
7252080.84
 30
0.0
 11
948196.755
 21
7251945.909
 31
0.0
  0
LINE
  8
7
  6
CONTINUOUS
 62
     7
  5
139
 10
948350.959
 20
7252076.085
 30
0.0
 11
948346.679
 21
7251941.152
 31
0.0
  0
LINE
  8
7
  6
CONTINUOUS
 62
     7
  5
13A
 10
948425.922
 20
7252073.707
 30
0.0
 11
948421.642
 21
7251938.775
 31
0.0
  0
LINE
  8
7
  6
CONTINUOUS
 62
     7
  5
13B
 10
948500.884
 20
7252071.329
 30
0.0
 11
948496.604
 21
7251936.397
 31
0.0
  0
LINE
  8
7
  6
CONTINUOUS
 62
     7
  5
13C
 10
948575.847
 20
7252068.951
 30
0.0
 11
948571.567
 21
7251934.02
 31
0.0
  0
LINE
  8
7
  6
CONTINUOUS
 62
     7
  5
13D
 10
948650.809
 20
7252066.574
 30
0.0
 11
948646.528
 21
7251931.641
 31
0.0
  0
LINE
  8
7
  6
CONTINUOUS
 62
     7
  5
13E
 10
948271.241
 20
7251928.538
 30
0.0
 11
948266.644
 21
7251783.611
 31
0.0
  0
LINE
  8
7
  6
CONTINUOUS
 62
     7
  5
13F
 10
948346.204
 20
7251926.16
 30
0.0
 11
948341.606
 21
7251781.233
 31
0.0
  0
LINE
  8
7
  6
CONTINUOUS
 62
     7
  5
140
 10
948421.166
 20
7251923.783
 30
0.0
 11
948416.569
 21
7251778.855
 31
0.0
  0
LINE
  8
7
  6
CONTINUOUS
 62
     7
  5
141
 10
948496.129
 20
7251921.404
 30
0.0
 11
948491.531
 21
7251776.478
 31
0.0
  0
LINE
  8
7
  6
CONTINUOUS
 62
     7
  5
142
 10
948571.091
 20
7251919.027
 30
0.0
 11
948566.494
 21
7251774.1
 31
0.0
  0
LINE
  8
7
  6
CONTINUOUS
 62
     7
  5
143
 10
948646.053
 20
7251916.649
 30
0.0
 11
948641.455
 21
7251771.721
 31
0.0
  0
LINE
  8
7
  6
CONTINUOUS
 62
     7
  5
144
 10
948265.059
 20
7251733.637
 30
0.0
 11
948260.462
 21
7251588.709
 31
0.0
  0
LINE
  8
7
  6
CONTINUOUS
 62
     7
  5
145
 10
948185.024
 20
7251576.095
 30
0.0
 11
948180.427
 21
7251431.168
 31
0.0
  0
LINE
  8
7
  6
CONTINUOUS
 62
     7
  5
146
 10
948190.097
 20
7251736.014
 30
0.0
 11
948185.499
 21
7251591.088
 31
0.0
  0
LINE
  8
7
  6
CONTINUOUS
 62
     7
  5
147
 10
948340.021
 20
7251731.259
 30
0.0
 11
948335.424
 21
7251586.331
 31
0.0
  0
LINE
  8
7
  6
CONTINUOUS
 62
     7
  5
148
 10
948414.983
 20
7251728.88
 30
0.0
 11
948410.386
 21
7251583.954
 31
0.0
  0
LINE
  8
7
  6
CONTINUOUS
 62
     7
  5
149
 10
948489.946
 20
7251726.503
 30
0.0
 11
948485.348
 21
7251581.575
 31
0.0
  0
LINE
  8
7
  6
CONTINUOUS
 62
     7
  5
14A
 10
948564.908
 20
7251724.125
 30
0.0
 11
948560.311
 21
7251579.197
 31
0.0
  0
LINE
  8
7
  6
CONTINUOUS
 62
     7
  5
14B
 10
948639.871
 20
7251721.746
 30
0.0
 11
948635.273
 21
7251576.82
 31
0.0
  0
LINE
  8
7
  6
CONTINUOUS
 62
     7
  5
14C
 10
948259.986
 20
7251573.717
 30
0.0
 11
948255.389
 21
7251428.789
 31
0.0
  0
LINE
  8
7
  6
CONTINUOUS
 62
     7
  5
14D
 10
948334.948
 20
7251571.339
 30
0.0
 11
948330.352
 21
7251426.412
 31
0.0
  0
LINE
  8
7
  6
CONTINUOUS
 62
     7
  5
14E
 10
948409.91
 20
7251568.961
 30
0.0
 11
948405.313
 21
7251424.034
 31
0.0
  0
LINE
  8
7
  6
CONTINUOUS
 62
     7
  5
14F
 10
948484.873
 20
7251566.583
 30
0.0
 11
948480.275
 21
7251421.656
 31
0.0
  0
LINE
  8
7
  6
CONTINUOUS
 62
     7
  5
150
 10
948559.835
 20
7251564.205
 30
0.0
 11
948555.238
 21
7251419.278
 31
0.0
  0
LINE
  8
7
  6
CONTINUOUS
 62
     7
  5
151
 10
948634.798
 20
7251561.827
 30
0.0
 11
948630.2
 21
7251416.9
 31
0.0
  0
LINE
  8
7
  6
CONTINUOUS
 62
     7
  5
152
 10
948780.743
 20
7252062.452
 30
0.0
 11
948771.39
 21
7251767.6
 31
0.0
  0
LINE
  8
7
  6
CONTINUOUS
 62
     7
  5
153
 10
948855.706
 20
7252060.073
 30
0.0
 11
948851.426
 21
7251925.142
 31
0.0
  0
LINE
  8
7
  6
CONTINUOUS
 62
     7
  5
154
 10
948850.95
 20
7251910.15
 30
0.0
 11
948846.353
 21
7251765.222
 31
0.0
  0
LINE
  8
7
  6
CONTINUOUS
 62
     7
  5
155
 10
948930.668
 20
7252057.696
 30
0.0
 11
948926.388
 21
7251922.764
 31
0.0
  0
LINE
  8
7
  6
CONTINUOUS
 62
     7
  5
156
 10
948925.913
 20
7251907.771
 30
0.0
 11
948921.315
 21
7251762.844
 31
0.0
  0
LINE
  8
7
  6
CONTINUOUS
 62
     7
  5
157
 10
948990.638
 20
7252055.793
 30
0.0
 11
948986.358
 21
7251920.861
 31
0.0
  0
LINE
  8
7
  6
CONTINUOUS
 62
     7
  5
158
 10
949050.608
 20
7252053.891
 30
0.0
 11
949046.328
 21
7251918.959
 31
0.0
  0
LINE
  8
7
  6
CONTINUOUS
 62
     7
  5
159
 10
949110.578
 20
7252051.989
 30
0.0
 11
949106.297
 21
7251917.056
 31
0.0
  0
LINE
  8
7
  6
CONTINUOUS
 62
     7
  5
15A
 10
948985.883
 20
7251905.868
 30
0.0
 11
948981.285
 21
7251760.942
 31
0.0
  0
LINE
  8
7
  6
CONTINUOUS
 62
     7
  5
15B
 10
949045.852
 20
7251903.967
 30
0.0
 11
949041.255
 21
7251759.039
 31
0.0
  0
LINE
  8
7
  6
CONTINUOUS
 62
     7
  5
15C
 10
949105.822
 20
7251902.064
 30
0.0
 11
949101.224
 21
7251757.137
 31
0.0
  0
LINE
  8
7
  6
CONTINUOUS
 62
     7
  5
15D
 10
948844.767
 20
7251715.247
 30
0.0
 11
948840.17
 21
7251570.32
 31
0.0
  0
LINE
  8
7
  6
CONTINUOUS
 62
     7
  5
15E
 10
948839.694
 20
7251555.327
 30
0.0
 11
948835.097
 21
7251410.401
 31
0.0
  0
LINE
  8
7
  6
CONTINUOUS
 62
     7
  5
15F
 10
948919.73
 20
7251712.869
 30
0.0
 11
948915.132
 21
7251567.942
 31
0.0
  0
LINE
  8
7
  6
CONTINUOUS
 62
     7
  5
160
 10
948914.657
 20
7251552.95
 30
0.0
 11
948910.059
 21
7251408.022
 31
0.0
  0
LINE
  8
7
  6
CONTINUOUS
 62
     7
  5
161
 10
948979.7
 20
7251710.967
 30
0.0
 11
948975.102
 21
7251566.04
 31
0.0
  0
LINE
  8
7
  6
CONTINUOUS
 62
     7
  5
162
 10
949039.67
 20
7251709.064
 30
0.0
 11
949035.072
 21
7251564.138
 31
0.0
  0
LINE
  8
7
  6
CONTINUOUS
 62
     7
  5
163
 10
949099.64
 20
7251707.162
 30
0.0
 11
949095.042
 21
7251562.235
 31
0.0
  0
LINE
  8
7
  6
CONTINUOUS
 62
     7
  5
164
 10
948974.627
 20
7251551.047
 30
0.0
 11
948970.029
 21
7251406.121
 31
0.0
  0
LINE
  8
7
  6
CONTINUOUS
 62
     7
  5
165
 10
949034.597
 20
7251549.145
 30
0.0
 11
949029.999
 21
7251404.218
 31
0.0
  0
LINE
  8
7
  6
CONTINUOUS
 62
     7
  5
166
 10
949094.567
 20
7251547.242
 30
0.0
 11
949089.969
 21
7251402.316
 31
0.0
  0
LINE
  8
7
  6
CONTINUOUS
 62
     7
  5
167
 10
949198.551
 20
7251986.666
 30
0.0
 11
949363.468
 21
7251981.435
 31
0.0
  0
LINE
  8
7
  6
CONTINUOUS
 62
     7
  5
168
 10
949193.478
 20
7251826.747
 30
0.0
 11
949358.395
 21
7251821.515
 31
0.0
  0
LINE
  8
7
  6
CONTINUOUS
 62
     7
  5
169
 10
949187.295
 20
7251631.845
 30
0.0
 11
949341.53
 21
7251626.953
 31
0.0
  0
LINE
  8
7
  6
CONTINUOUS
 62
     7
  5
16A
 10
949182.222
 20
7251471.926
 30
0.0
 11
949327.15
 21
7251467.328
 31
0.0
  0
TEXT
  8
10
  6
CONTINUOUS
 62
   134
  5
16B
 10
949253.719
 20
7252002.973
 30
0.0
 40
13.999
  1
 1
 50
358.1831
  7
ROMANS
 11
949254.162846
 21
7252016.964962
 31
0.0
210
0.0
220
0.0
230
1.0
 73
     3
  0
TEXT
  8
10
  6
CONTINUOUS
 62
   134
  5
16C
 10
949251.826
 20
7251943.345
 30
0.0
 40
13.999
  1
 2
 50
358.1831
  7
ROMANS
 11
949252.269846
 21
7251957.336962
 31
0.0
210
0.0
220
0.0
230
1.0
 73
     3
  0
TEXT
  8
10
  6
CONTINUOUS
 62
   134
  5
16D
 10
949131.488
 20
7251982.642
 30
0.0
 40
13.999
  1
 3
 50
358.1831
  7
ROMANS
 11
949131.931846
 21
7251996.633962
 31
0.0
210
0.0
220
0.0
230
1.0
 73
     3
  0
TEXT
  8
10
  6
CONTINUOUS
 62
   134
  5
16E
 10
949061.9
 20
7251984.85
 30
0.0
 40
13.999
  1
 4
 50
358.1831
  7
ROMANS
 11
949062.343846
 21
7251998.841962
 31
0.0
210
0.0
220
0.0
230
1.0
 73
     3
  0
TEXT
  8
10
  6
CONTINUOUS
 62
   134
  5
16F
 10
949001.17
 20
7251986.775
 30
0.0
 40
13.999
  1
 5
 50
358.1831
  7
ROMANS
 11
949001.613846
 21
7252000.766962
 31
0.0
210
0.0
220
0.0
230
1.0
 73
     3
  0
TEXT
  8
10
  6
CONTINUOUS
 62
   134
  5
170
 10
948942.97
 20
7251988.622
 30
0.0
 40
13.999
  1
 6
 50
358.1831
  7
ROMANS
 11
948943.413846
 21
7252002.613962
 31
0.0
210
0.0
220
0.0
230
1.0
 73
     3
  0
TEXT
  8
10
  6
CONTINUOUS
 62
   134
  5
171
 10
948875.912
 20
7251990.749
 30
0.0
 40
13.999
  1
 7
 50
358.1831
  7
ROMANS
 11
948876.355846
 21
7252004.740962
 31
0.0
210
0.0
220
0.0
230
1.0
 73
     3
  0
TEXT
  8
10
  6
CONTINUOUS
 62
   134
  5
172
 10
948801.263
 20
7251993.117
 30
0.0
 40
13.999
  1
 8
 50
358.1831
  7
ROMANS
 11
948801.706846
 21
7252007.108962
 31
0.0
210
0.0
220
0.0
230
1.0
 73
     3
  0
TEXT
  8
10
  6
CONTINUOUS
 62
   134
  5
173
 10
948796.244
 20
7251834.886
 30
0.0
 40
13.999
  1
 9
 50
358.1831
  7
ROMANS
 11
948796.687846
 21
7251848.877962
 31
0.0
210
0.0
220
0.0
230
1.0
 73
     3
  0
TEXT
  8
10
  6
CONTINUOUS
 62
   134
  5
174
 10
948864.567
 20
7251832.719
 30
0.0
 40
13.999
  1
 10
 50
358.1831
  7
ROMANS
 11
948865.010846
 21
7251846.710962
 31
0.0
210
0.0
220
0.0
230
1.0
 73
     3
  0
TEXT
  8
10
  6
CONTINUOUS
 62
   134
  5
175
 10
948927.828
 20
7251830.712
 30
0.0
 40
13.999
  1
 11
 50
358.1831
  7
ROMANS
 11
948928.271846
 21
7251844.703962
 31
0.0
210
0.0
220
0.0
230
1.0
 73
     3
  0
TEXT
  8
10
  6
CONTINUOUS
 62
   134
  5
176
 10
948986.029
 20
7251828.865
 30
0.0
 40
13.999
  1
 12
 50
358.1831
  7
ROMANS
 11
948986.472846
 21
7251842.856962
 31
0.0
210
0.0
220
0.0
230
1.0
 73
     3
  0
TEXT
  8
10
  6
CONTINUOUS
 62
   134
  5
177
 10
949048.025
 20
7251826.899
 30
0.0
 40
13.999
  1
 13
 50
358.1831
  7
ROMANS
 11
949048.468846
 21
7251840.890962
 31
0.0
210
0.0
220
0.0
230
1.0
 73
     3
  0
TEXT
  8
10
  6
CONTINUOUS
 62
   134
  5
178
 10
949108.756
 20
7251824.972
 30
0.0
 40
13.999
  1
 14
 50
358.1831
  7
ROMANS
 11
949109.199846
 21
7251838.963962
 31
0.0
210
0.0
220
0.0
230
1.0
 73
     3
  0
TEXT
  8
10
  6
CONTINUOUS
 62
   134
  5
179
 10
949245.421
 20
7251861.185
 30
0.0
 40
13.999
  1
 15
 50
358.1831
  7
ROMANS
 11
949245.864846
 21
7251875.176962
 31
0.0
210
0.0
220
0.0
230
1.0
 73
     3
  0
TEXT
  8
10
  6
CONTINUOUS
 62
   134
  5
17A
 10
949242.811
 20
7251778.904
 30
0.0
 40
13.999
  1
 16
 50
358.1831
  7
ROMANS
 11
949243.254846
 21
7251792.895962
 31
0.0
210
0.0
220
0.0
230
1.0
 73
     3
  0
TEXT
  8
10
  6
CONTINUOUS
 62
   134
  5
17B
 10
949257.935
 20
7251656.78
 30
0.0
 40
13.999
  1
1
 50
358.1831
  7
ROMANS
 11
949258.378846
 21
7251670.771962
 31
0.0
210
0.0
220
0.0
230
1.0
 73
     3
  0
TEXT
  8
10
  6
CONTINUOUS
 62
   134
  5
17C
 10
948673.539
 20
7251639.838
 30
0.0
 40
13.999
  1
1
 50
358.1831
  7
ROMANS
 11
948673.982846
 21
7251653.829962
 31
0.0
210
0.0
220
0.0
230
1.0
 73
     3
  0
TEXT
  8
10
  6
CONTINUOUS
 62
   134
  5
17D
 10
948686.047
 20
7251994.239
 30
0.0
 40
13.999
  1
1
 50
358.1831
  7
ROMANS
 11
948686.490846
 21
7252008.230962
 31
0.0
210
0.0
220
0.0
230
1.0
 73
     3
  0
TEXT
  8
10
  6
CONTINUOUS
 62
   134
  5
17E
 10
948027.729
 20
7252013.853
 30
0.0
 40
13.999
  1
1
 50
358.1831
  7
ROMANS
 11
948028.172846
 21
7252027.844962
 31
0.0
210
0.0
220
0.0
230
1.0
 73
     3
  0
TEXT
  8
10
  6
CONTINUOUS
 62
   134
  5
17F
 10
948015.02
 20
7251653.123
 30
0.0
 40
13.999
  1
1
 50
358.1831
  7
ROMANS
 11
948015.463846
 21
7251667.114962
 31
0.0
210
0.0
220
0.0
230
1.0
 73
     3
  0
TEXT
  8
10
  6
CONTINUOUS
 62
   134
  5
180
 10
947364.111
 20
7252031.069
 30
0.0
 40
13.999
  1
1
 50
358.1831
  7
ROMANS
 11
947364.554846
 21
7252045.060962
 31
0.0
210
0.0
220
0.0
230
1.0
 73
     3
  0
TEXT
  8
10
  6
CONTINUOUS
 62
   134
  5
181
 10
947355.56
 20
7251681.612
 30
0.0
 40
13.999
  1
1
 50
358.1831
  7
ROMANS
 11
947356.003846
 21
7251695.603962
 31
0.0
210
0.0
220
0.0
230
1.0
 73
     3
  0
TEXT
  8
10
  6
CONTINUOUS
 62
   134
  5
182
 10
947290.727
 20
7252033.397
 30
0.0
 40
13.999
  1
2
 50
358.1831
  7
ROMANS
 11
947291.170846
 21
7252047.388962
 31
0.0
210
0.0
220
0.0
230
1.0
 73
     3
  0
TEXT
  8
10
  6
CONTINUOUS
 62
   134
  5
183
 10
947213.548
 20
7252035.845
 30
0.0
 40
13.999
  1
3
 50
358.1831
  7
ROMANS
 11
947213.991846
 21
7252049.836962
 31
0.0
210
0.0
220
0.0
230
1.0
 73
     3
  0
TEXT
  8
10
  6
CONTINUOUS
 62
   134
  5
184
 10
947141.43
 20
7252038.133
 30
0.0
 40
13.999
  1
4
 50
358.1831
  7
ROMANS
 11
947141.873846
 21
7252052.124962
 31
0.0
210
0.0
220
0.0
230
1.0
 73
     3
  0
TEXT
  8
10
  6
CONTINUOUS
 62
   134
  5
185
 10
947065.517
 20
7252040.541
 30
0.0
 40
13.999
  1
5
 50
358.1831
  7
ROMANS
 11
947065.960846
 21
7252054.532962
 31
0.0
210
0.0
220
0.0
230
1.0
 73
     3
  0
TEXT
  8
10
  6
CONTINUOUS
 62
   134
  5
186
 10
946987.072
 20
7252043.029
 30
0.0
 40
13.999
  1
6
 50
358.1831
  7
ROMANS
 11
946987.515846
 21
7252057.020962
 31
0.0
210
0.0
220
0.0
230
1.0
 73
     3
  0
TEXT
  8
10
  6
CONTINUOUS
 62
   134
  5
187
 10
946912.423
 20
7252045.397
 30
0.0
 40
13.999
  1
7
 50
358.1831
  7
ROMANS
 11
946912.866846
 21
7252059.388962
 31
0.0
210
0.0
220
0.0
230
1.0
 73
     3
  0
TEXT
  8
10
  6
CONTINUOUS
 62
   134
  5
188
 10
946852.021
 20
7252047.602
 30
0.0
 40
13.999
  1
8
 50
358.1831
  7
ROMANS
 11
946852.464846
 21
7252061.593962
 31
0.0
210
0.0
220
0.0
230
1.0
 73
     3
  0
TEXT
  8
10
  6
CONTINUOUS
 62
   134
  5
189
 10
946834.302
 20
7251898.354
 30
0.0
 40
13.999
  1
9
 50
358.1831
  7
ROMANS
 11
946834.745846
 21
7251912.345962
 31
0.0
210
0.0
220
0.0
230
1.0
 73
     3
  0
TEXT
  8
10
  6
CONTINUOUS
 62
   134
  5
18A
 10
946903.889
 20
7251896.147
 30
0.0
 40
13.999
  1
10
 50
358.1831
  7
ROMANS
 11
946904.332846
 21
7251910.138962
 31
0.0
210
0.0
220
0.0
230
1.0
 73
     3
  0
TEXT
  8
10
  6
CONTINUOUS
 62
   134
  5
18B
 10
946974.743
 20
7251893.899
 30
0.0
 40
13.999
  1
11
 50
358.1831
  7
ROMANS
 11
946975.186846
 21
7251907.890962
 31
0.0
210
0.0
220
0.0
230
1.0
 73
     3
  0
TEXT
  8
10
  6
CONTINUOUS
 62
   134
  5
18C
 10
947053.187
 20
7251891.411
 30
0.0
 40
13.999
  1
12
 50
358.1831
  7
ROMANS
 11
947053.630846
 21
7251905.402962
 31
0.0
210
0.0
220
0.0
230
1.0
 73
     3
  0
TEXT
  8
10
  6
CONTINUOUS
 62
   134
  5
18D
 10
947126.57
 20
7251889.083
 30
0.0
 40
13.999
  1
13
 50
358.1831
  7
ROMANS
 11
947127.013846
 21
7251903.074962
 31
0.0
210
0.0
220
0.0
230
1.0
 73
     3
  0
TEXT
  8
10
  6
CONTINUOUS
 62
   134
  5
18E
 10
947202.484
 20
7251886.675
 30
0.0
 40
13.999
  1
14
 50
358.1831
  7
ROMANS
 11
947202.927846
 21
7251900.666962
 31
0.0
210
0.0
220
0.0
230
1.0
 73
     3
  0
TEXT
  8
10
  6
CONTINUOUS
 62
   134
  5
18F
 10
947278.398
 20
7251884.267
 30
0.0
 40
13.999
  1
15
 50
358.1831
  7
ROMANS
 11
947278.841846
 21
7251898.258962
 31
0.0
210
0.0
220
0.0
230
1.0
 73
     3
  0
TEXT
  8
10
  6
CONTINUOUS
 62
   134
  5
190
 10
947353.046
 20
7251881.899
 30
0.0
 40
13.999
  1
16
 50
358.1831
  7
ROMANS
 11
947353.489846
 21
7251895.890962
 31
0.0
210
0.0
220
0.0
230
1.0
 73
     3
  0
TEXT
  8
10
  6
CONTINUOUS
 62
   134
  5
191
 10
947279.646
 20
7251684.02
 30
0.0
 40
13.999
  1
2
 50
358.1831
  7
ROMANS
 11
947280.089846
 21
7251698.011962
 31
0.0
210
0.0
220
0.0
230
1.0
 73
     3
  0
TEXT
  8
10
  6
CONTINUOUS
 62
   134
  5
192
 10
947206.262
 20
7251686.347
 30
0.0
 40
13.999
  1
3
 50
358.1831
  7
ROMANS
 11
947206.705846
 21
7251700.338962
 31
0.0
210
0.0
220
0.0
230
1.0
 73
     3
  0
TEXT
  8
10
  6
CONTINUOUS
 62
   134
  5
193
 10
947129.083
 20
7251688.796
 30
0.0
 40
13.999
  1
4
 50
358.1831
  7
ROMANS
 11
947129.526846
 21
7251702.787962
 31
0.0
210
0.0
220
0.0
230
1.0
 73
     3
  0
TEXT
  8
10
  6
CONTINUOUS
 62
   134
  5
194
 10
947053.169
 20
7251691.204
 30
0.0
 40
13.999
  1
5
 50
358.1831
  7
ROMANS
 11
947053.612846
 21
7251705.195962
 31
0.0
210
0.0
220
0.0
230
1.0
 73
     3
  0
TEXT
  8
10
  6
CONTINUOUS
 62
   134
  5
195
 10
946978.521
 20
7251693.572
 30
0.0
 40
13.999
  1
6
 50
358.1831
  7
ROMANS
 11
946978.964846
 21
7251707.563962
 31
0.0
210
0.0
220
0.0
230
1.0
 73
     3
  0
TEXT
  8
10
  6
CONTINUOUS
 62
   134
  5
196
 10
946906.402
 20
7251695.86
 30
0.0
 40
13.999
  1
7
 50
358.1831
  7
ROMANS
 11
946906.845846
 21
7251709.851962
 31
0.0
210
0.0
220
0.0
230
1.0
 73
     3
  0
TEXT
  8
10
  6
CONTINUOUS
 62
   134
  5
197
 10
946830.488
 20
7251698.267
 30
0.0
 40
13.999
  1
8
 50
358.1831
  7
ROMANS
 11
946830.931846
 21
7251712.258962
 31
0.0
210
0.0
220
0.0
230
1.0
 73
     3
  0
TEXT
  8
10
  6
CONTINUOUS
 62
   134
  5
198
 10
946825.71
 20
7251547.631
 30
0.0
 40
13.999
  1
9
 50
358.1831
  7
ROMANS
 11
946826.153846
 21
7251561.622962
 31
0.0
210
0.0
220
0.0
230
1.0
 73
     3
  0
TEXT
  8
10
  6
CONTINUOUS
 62
   134
  5
199
 10
946892.768
 20
7251545.504
 30
0.0
 40
13.999
  1
10
 50
358.1831
  7
ROMANS
 11
946893.211846
 21
7251559.495962
 31
0.0
210
0.0
220
0.0
230
1.0
 73
     3
  0
TEXT
  8
10
  6
CONTINUOUS
 62
   134
  5
19A
 10
946963.62
 20
7251543.255
 30
0.0
 40
13.999
  1
11
 50
358.1831
  7
ROMANS
 11
946964.063846
 21
7251557.246962
 31
0.0
210
0.0
220
0.0
230
1.0
 73
     3
  0
TEXT
  8
10
  6
CONTINUOUS
 62
   134
  5
19B
 10
947033.207
 20
7251541.048
 30
0.0
 40
13.999
  1
12
 50
358.1831
  7
ROMANS
 11
947033.650846
 21
7251555.039962
 31
0.0
210
0.0
220
0.0
230
1.0
 73
     3
  0
TEXT
  8
10
  6
CONTINUOUS
 62
   134
  5
19C
 10
947114.183
 20
7251538.48
 30
0.0
 40
13.999
  1
13
 50
358.1831
  7
ROMANS
 11
947114.626846
 21
7251552.471962
 31
0.0
210
0.0
220
0.0
230
1.0
 73
     3
  0
TEXT
  8
10
  6
CONTINUOUS
 62
   134
  5
19D
 10
947187.566
 20
7251536.151
 30
0.0
 40
13.999
  1
14
 50
358.1831
  7
ROMANS
 11
947188.009846
 21
7251550.142962
 31
0.0
210
0.0
220
0.0
230
1.0
 73
     3
  0
TEXT
  8
10
  6
CONTINUOUS
 62
   134
  5
19E
 10
947255.889
 20
7251533.984
 30
0.0
 40
13.999
  1
15
 50
358.1831
  7
ROMANS
 11
947256.332846
 21
7251547.975962
 31
0.0
210
0.0
220
0.0
230
1.0
 73
     3
  0
TEXT
  8
10
  6
CONTINUOUS
 62
   134
  5
19F
 10
947338.128
 20
7251531.375
 30
0.0
 40
13.999
  1
16
 50
358.1831
  7
ROMANS
 11
947338.571846
 21
7251545.366962
 31
0.0
210
0.0
220
0.0
230
1.0
 73
     3
  0
TEXT
  8
10
  6
CONTINUOUS
 62
   134
  5
1A0
 10
947935.311
 20
7251655.652
 30
0.0
 40
13.999
  1
2
 50
358.1831
  7
ROMANS
 11
947935.754846
 21
7251669.643962
 31
0.0
210
0.0
220
0.0
230
1.0
 73
     3
  0
TEXT
  8
10
  6
CONTINUOUS
 62
   134
  5
1A1
 10
947864.457
 20
7251657.9
 30
0.0
 40
13.999
  1
3
 50
358.1831
  7
ROMANS
 11
947864.900846
 21
7251671.891962
 31
0.0
210
0.0
220
0.0
230
1.0
 73
     3
  0
TEXT
  8
10
  6
CONTINUOUS
 62
   134
  5
1A2
 10
947788.543
 20
7251660.307
 30
0.0
 40
13.999
  1
4
 50
358.1831
  7
ROMANS
 11
947788.986846
 21
7251674.298962
 31
0.0
210
0.0
220
0.0
230
1.0
 73
     3
  0
TEXT
  8
10
  6
CONTINUOUS
 62
   134
  5
1A3
 10
947711.364
 20
7251662.756
 30
0.0
 40
13.999
  1
5
 50
358.1831
  7
ROMANS
 11
947711.807846
 21
7251676.747962
 31
0.0
210
0.0
220
0.0
230
1.0
 73
     3
  0
TEXT
  8
10
  6
CONTINUOUS
 62
   134
  5
1A4
 10
947637.981
 20
7251665.084
 30
0.0
 40
13.999
  1
6
 50
358.1831
  7
ROMANS
 11
947638.424846
 21
7251679.075962
 31
0.0
210
0.0
220
0.0
230
1.0
 73
     3
  0
TEXT
  8
10
  6
CONTINUOUS
 62
   134
  5
1A5
 10
947567.128
 20
7251667.331
 30
0.0
 40
13.999
  1
7
 50
358.1831
  7
ROMANS
 11
947567.571846
 21
7251681.322962
 31
0.0
210
0.0
220
0.0
230
1.0
 73
     3
  0
TEXT
  8
10
  6
CONTINUOUS
 62
   134
  5
1A6
 10
947486.154
 20
7251669.9
 30
0.0
 40
13.999
  1
8
 50
358.1831
  7
ROMANS
 11
947486.597846
 21
7251683.891962
 31
0.0
210
0.0
220
0.0
230
1.0
 73
     3
  0
TEXT
  8
10
  6
CONTINUOUS
 62
   134
  5
1A7
 10
947481.376
 20
7251519.262
 30
0.0
 40
13.999
  1
9
 50
358.1831
  7
ROMANS
 11
947481.819846
 21
7251533.253962
 31
0.0
210
0.0
220
0.0
230
1.0
 73
     3
  0
TEXT
  8
10
  6
CONTINUOUS
 62
   134
  5
1A8
 10
947557.289
 20
7251516.855
 30
0.0
 40
13.999
  1
10
 50
358.1831
  7
ROMANS
 11
947557.732846
 21
7251530.846962
 31
0.0
210
0.0
220
0.0
230
1.0
 73
     3
  0
TEXT
  8
10
  6
CONTINUOUS
 62
   134
  5
1A9
 10
947620.55
 20
7251514.848
 30
0.0
 40
13.999
  1
11
 50
358.1831
  7
ROMANS
 11
947620.993846
 21
7251528.839962
 31
0.0
210
0.0
220
0.0
230
1.0
 73
     3
  0
TEXT
  8
10
  6
CONTINUOUS
 62
   134
  5
1AA
 10
947697.729
 20
7251512.4
 30
0.0
 40
13.999
  1
12
 50
358.1831
  7
ROMANS
 11
947698.172846
 21
7251526.391962
 31
0.0
210
0.0
220
0.0
230
1.0
 73
     3
  0
TEXT
  8
10
  6
CONTINUOUS
 62
   134
  5
1AB
 10
947769.847
 20
7251510.112
 30
0.0
 40
13.999
  1
13
 50
358.1831
  7
ROMANS
 11
947770.290846
 21
7251524.103962
 31
0.0
210
0.0
220
0.0
230
1.0
 73
     3
  0
TEXT
  8
10
  6
CONTINUOUS
 62
   134
  5
1AC
 10
947845.761
 20
7251507.704
 30
0.0
 40
13.999
  1
14
 50
358.1831
  7
ROMANS
 11
947846.204846
 21
7251521.695962
 31
0.0
210
0.0
220
0.0
230
1.0
 73
     3
  0
TEXT
  8
10
  6
CONTINUOUS
 62
   134
  5
1AD
 10
947931.796
 20
7251504.975
 30
0.0
 40
13.999
  1
15
 50
358.1831
  7
ROMANS
 11
947932.239846
 21
7251518.966962
 31
0.0
210
0.0
220
0.0
230
1.0
 73
     3
  0
TEXT
  8
10
  6
CONTINUOUS
 62
   134
  5
1AE
 10
948002.65
 20
7251502.727
 30
0.0
 40
13.999
  1
16
 50
358.1831
  7
ROMANS
 11
948003.093846
 21
7251516.718962
 31
0.0
210
0.0
220
0.0
230
1.0
 73
     3
  0
TEXT
  8
10
  6
CONTINUOUS
 62
   134
  5
1AF
 10
947946.754
 20
7252016.421
 30
0.0
 40
13.999
  1
2
 50
358.1831
  7
ROMANS
 11
947947.197846
 21
7252030.412962
 31
0.0
210
0.0
220
0.0
230
1.0
 73
     3
  0
TEXT
  8
10
  6
CONTINUOUS
 62
   134
  5
1B0
 10
947875.901
 20
7252018.669
 30
0.0
 40
13.999
  1
3
 50
358.1831
  7
ROMANS
 11
947876.344846
 21
7252032.660962
 31
0.0
210
0.0
220
0.0
230
1.0
 73
     3
  0
TEXT
  8
10
  6
CONTINUOUS
 62
   134
  5
1B1
 10
947802.517
 20
7252020.997
 30
0.0
 40
13.999
  1
4
 50
358.1831
  7
ROMANS
 11
947802.960846
 21
7252034.988962
 31
0.0
210
0.0
220
0.0
230
1.0
 73
     3
  0
TEXT
  8
10
  6
CONTINUOUS
 62
   134
  5
1B2
 10
947722.808
 20
7252023.525
 30
0.0
 40
13.999
  1
5
 50
358.1831
  7
ROMANS
 11
947723.251846
 21
7252037.516962
 31
0.0
210
0.0
220
0.0
230
1.0
 73
     3
  0
TEXT
  8
10
  6
CONTINUOUS
 62
   134
  5
1B3
 10
947650.69
 20
7252025.814
 30
0.0
 40
13.999
  1
6
 50
358.1831
  7
ROMANS
 11
947651.133846
 21
7252039.805962
 31
0.0
210
0.0
220
0.0
230
1.0
 73
     3
  0
TEXT
  8
10
  6
CONTINUOUS
 62
   134
  5
1B4
 10
947572.245
 20
7252028.302
 30
0.0
 40
13.999
  1
7
 50
358.1831
  7
ROMANS
 11
947572.688846
 21
7252042.293962
 31
0.0
210
0.0
220
0.0
230
1.0
 73
     3
  0
TEXT
  8
10
  6
CONTINUOUS
 62
   134
  5
1B5
 10
947501.393
 20
7252030.549
 30
0.0
 40
13.999
  1
8
 50
358.1831
  7
ROMANS
 11
947501.836846
 21
7252044.540962
 31
0.0
210
0.0
220
0.0
230
1.0
 73
     3
  0
TEXT
  8
10
  6
CONTINUOUS
 62
   134
  5
1B6
 10
947496.414
 20
7251873.583
 30
0.0
 40
13.999
  1
9
 50
358.1831
  7
ROMANS
 11
947496.857846
 21
7251887.574962
 31
0.0
210
0.0
220
0.0
230
1.0
 73
     3
  0
TEXT
  8
10
  6
CONTINUOUS
 62
   134
  5
1B7
 10
947573.593
 20
7251871.134
 30
0.0
 40
13.999
  1
10
 50
358.1831
  7
ROMANS
 11
947574.036846
 21
7251885.125962
 31
0.0
210
0.0
220
0.0
230
1.0
 73
     3
  0
TEXT
  8
10
  6
CONTINUOUS
 62
   134
  5
1B8
 10
947643.18
 20
7251868.927
 30
0.0
 40
13.999
  1
11
 50
358.1831
  7
ROMANS
 11
947643.623846
 21
7251882.918962
 31
0.0
210
0.0
220
0.0
230
1.0
 73
     3
  0
TEXT
  8
10
  6
CONTINUOUS
 62
   134
  5
1B9
 10
947710.237
 20
7251866.8
 30
0.0
 40
13.999
  1
12
 50
358.1831
  7
ROMANS
 11
947710.680846
 21
7251880.791962
 31
0.0
210
0.0
220
0.0
230
1.0
 73
     3
  0
TEXT
  8
10
  6
CONTINUOUS
 62
   134
  5
1BA
 10
947784.886
 20
7251864.433
 30
0.0
 40
13.999
  1
13
 50
358.1831
  7
ROMANS
 11
947785.329846
 21
7251878.424962
 31
0.0
210
0.0
220
0.0
230
1.0
 73
     3
  0
TEXT
  8
10
  6
CONTINUOUS
 62
   134
  5
1BB
 10
947862.064
 20
7251861.984
 30
0.0
 40
13.999
  1
14
 50
358.1831
  7
ROMANS
 11
947862.507846
 21
7251875.975962
 31
0.0
210
0.0
220
0.0
230
1.0
 73
     3
  0
TEXT
  8
10
  6
CONTINUOUS
 62
   134
  5
1BC
 10
947931.653
 20
7251859.777
 30
0.0
 40
13.999
  1
15
 50
358.1831
  7
ROMANS
 11
947932.096846
 21
7251873.768962
 31
0.0
210
0.0
220
0.0
230
1.0
 73
     3
  0
TEXT
  8
10
  6
CONTINUOUS
 62
   134
  5
1BD
 10
948011.363
 20
7251857.248
 30
0.0
 40
13.999
  1
16
 50
358.1831
  7
ROMANS
 11
948011.806846
 21
7251871.239962
 31
0.0
210
0.0
220
0.0
230
1.0
 73
     3
  0
TEXT
  8
10
  6
CONTINUOUS
 62
   134
  5
1BE
 10
948608.868
 20
7251996.687
 30
0.0
 40
13.999
  1
2
 50
358.1831
  7
ROMANS
 11
948609.311846
 21
7252010.678962
 31
0.0
210
0.0
220
0.0
230
1.0
 73
     3
  0
TEXT
  8
10
  6
CONTINUOUS
 62
   134
  5
1BF
 10
948535.485
 20
7251999.015
 30
0.0
 40
13.999
  1
3
 50
358.1831
  7
ROMANS
 11
948535.928846
 21
7252013.006962
 31
0.0
210
0.0
220
0.0
230
1.0
 73
     3
  0
TEXT
  8
10
  6
CONTINUOUS
 62
   134
  5
1C0
 10
948459.571
 20
7252001.423
 30
0.0
 40
13.999
  1
4
 50
358.1831
  7
ROMANS
 11
948460.014846
 21
7252015.414962
 31
0.0
210
0.0
220
0.0
230
1.0
 73
     3
  0
TEXT
  8
10
  6
CONTINUOUS
 62
   134
  5
1C1
 10
948378.597
 20
7252003.991
 30
0.0
 40
13.999
  1
5
 50
358.1831
  7
ROMANS
 11
948379.040846
 21
7252017.982962
 31
0.0
210
0.0
220
0.0
230
1.0
 73
     3
  0
TEXT
  8
10
  6
CONTINUOUS
 62
   134
  5
1C2
 10
948307.743
 20
7252006.239
 30
0.0
 40
13.999
  1
6
 50
358.1831
  7
ROMANS
 11
948308.186846
 21
7252020.230962
 31
0.0
210
0.0
220
0.0
230
1.0
 73
     3
  0
TEXT
  8
10
  6
CONTINUOUS
 62
   134
  5
1C3
 10
948236.89
 20
7252008.487
 30
0.0
 40
13.999
  1
7
 50
358.1831
  7
ROMANS
 11
948237.333846
 21
7252022.478962
 31
0.0
210
0.0
220
0.0
230
1.0
 73
     3
  0
TEXT
  8
10
  6
CONTINUOUS
 62
   134
  5
1C4
 10
948158.446
 20
7252010.975
 30
0.0
 40
13.999
  1
8
 50
358.1831
  7
ROMANS
 11
948158.889846
 21
7252024.966962
 31
0.0
210
0.0
220
0.0
230
1.0
 73
     3
  0
TEXT
  8
10
  6
CONTINUOUS
 62
   134
  5
1C5
 10
948153.508
 20
7251855.274
 30
0.0
 40
13.999
  1
9
 50
358.1831
  7
ROMANS
 11
948153.951846
 21
7251869.265962
 31
0.0
210
0.0
220
0.0
230
1.0
 73
     3
  0
TEXT
  8
10
  6
CONTINUOUS
 62
   134
  5
1C6
 10
948221.83
 20
7251853.107
 30
0.0
 40
13.999
  1
10
 50
358.1831
  7
ROMANS
 11
948222.273846
 21
7251867.098962
 31
0.0
210
0.0
220
0.0
230
1.0
 73
     3
  0
TEXT
  8
10
  6
CONTINUOUS
 62
   134
  5
1C7
 10
948292.682
 20
7251850.859
 30
0.0
 40
13.999
  1
11
 50
358.1831
  7
ROMANS
 11
948293.125846
 21
7251864.850962
 31
0.0
210
0.0
220
0.0
230
1.0
 73
     3
  0
TEXT
  8
10
  6
CONTINUOUS
 62
   134
  5
1C8
 10
948366.065
 20
7251848.532
 30
0.0
 40
13.999
  1
12
 50
358.1831
  7
ROMANS
 11
948366.508846
 21
7251862.523962
 31
0.0
210
0.0
220
0.0
230
1.0
 73
     3
  0
TEXT
  8
10
  6
CONTINUOUS
 62
   134
  5
1C9
 10
948440.715
 20
7251846.163
 30
0.0
 40
13.999
  1
13
 50
358.1831
  7
ROMANS
 11
948441.158846
 21
7251860.154962
 31
0.0
210
0.0
220
0.0
230
1.0
 73
     3
  0
TEXT
  8
10
  6
CONTINUOUS
 62
   134
  5
1CA
 10
948519.159
 20
7251843.675
 30
0.0
 40
13.999
  1
14
 50
358.1831
  7
ROMANS
 11
948519.602846
 21
7251857.666962
 31
0.0
210
0.0
220
0.0
230
1.0
 73
     3
  0
TEXT
  8
10
  6
CONTINUOUS
 62
   134
  5
1CB
 10
948590.012
 20
7251841.428
 30
0.0
 40
13.999
  1
15
 50
358.1831
  7
ROMANS
 11
948590.455846
 21
7251855.419962
 31
0.0
210
0.0
220
0.0
230
1.0
 73
     3
  0
TEXT
  8
10
  6
CONTINUOUS
 62
   134
  5
1CC
 10
948672.252
 20
7251838.819
 30
0.0
 40
13.999
  1
16
 50
358.1831
  7
ROMANS
 11
948672.695846
 21
7251852.810962
 31
0.0
210
0.0
220
0.0
230
1.0
 73
     3
  0
TEXT
  8
10
  6
CONTINUOUS
 62
   134
  5
1CD
 10
948591.298
 20
7251642.447
 30
0.0
 40
13.999
  1
2
 50
358.1831
  7
ROMANS
 11
948591.741846
 21
7251656.438962
 31
0.0
210
0.0
220
0.0
230
1.0
 73
     3
  0
TEXT
  8
10
  6
CONTINUOUS
 62
   134
  5
1CE
 10
948520.445
 20
7251644.694
 30
0.0
 40
13.999
  1
3
 50
358.1831
  7
ROMANS
 11
948520.888846
 21
7251658.685962
 31
0.0
210
0.0
220
0.0
230
1.0
 73
     3
  0
TEXT
  8
10
  6
CONTINUOUS
 62
   134
  5
1CF
 10
948449.592
 20
7251646.942
 30
0.0
 40
13.999
  1
4
 50
358.1831
  7
ROMANS
 11
948450.035846
 21
7251660.933962
 31
0.0
210
0.0
220
0.0
230
1.0
 73
     3
  0
TEXT
  8
10
  6
CONTINUOUS
 62
   134
  5
1D0
 10
948369.882
 20
7251649.471
 30
0.0
 40
13.999
  1
5
 50
358.1831
  7
ROMANS
 11
948370.325846
 21
7251663.462962
 31
0.0
210
0.0
220
0.0
230
1.0
 73
     3
  0
TEXT
  8
10
  6
CONTINUOUS
 62
   134
  5
1D1
 10
948295.233
 20
7251651.838
 30
0.0
 40
13.999
  1
6
 50
358.1831
  7
ROMANS
 11
948295.676846
 21
7251665.829962
 31
0.0
210
0.0
220
0.0
230
1.0
 73
     3
  0
TEXT
  8
10
  6
CONTINUOUS
 62
   134
  5
1D2
 10
948220.586
 20
7251654.207
 30
0.0
 40
13.999
  1
7
 50
358.1831
  7
ROMANS
 11
948221.029846
 21
7251668.198962
 31
0.0
210
0.0
220
0.0
230
1.0
 73
     3
  0
TEXT
  8
10
  6
CONTINUOUS
 62
   134
  5
1D3
 10
948139.61
 20
7251656.775
 30
0.0
 40
13.999
  1
8
 50
358.1831
  7
ROMANS
 11
948140.053846
 21
7251670.766962
 31
0.0
210
0.0
220
0.0
230
1.0
 73
     3
  0
TEXT
  8
10
  6
CONTINUOUS
 62
   134
  5
1D4
 10
948134.511
 20
7251496.011
 30
0.0
 40
13.999
  1
9
 50
358.1831
  7
ROMANS
 11
948134.954846
 21
7251510.002962
 31
0.0
210
0.0
220
0.0
230
1.0
 73
     3
  0
TEXT
  8
10
  6
CONTINUOUS
 62
   134
  5
1D5
 10
948209.16
 20
7251493.643
 30
0.0
 40
13.999
  1
10
 50
358.1831
  7
ROMANS
 11
948209.603846
 21
7251507.634962
 31
0.0
210
0.0
220
0.0
230
1.0
 73
     3
  0
TEXT
  8
10
  6
CONTINUOUS
 62
   134
  5
1D6
 10
948283.808
 20
7251491.275
 30
0.0
 40
13.999
  1
11
 50
358.1831
  7
ROMANS
 11
948284.251846
 21
7251505.266962
 31
0.0
210
0.0
220
0.0
230
1.0
 73
     3
  0
TEXT
  8
10
  6
CONTINUOUS
 62
   134
  5
1D7
 10
948355.926
 20
7251488.988
 30
0.0
 40
13.999
  1
12
 50
358.1831
  7
ROMANS
 11
948356.369846
 21
7251502.979962
 31
0.0
210
0.0
220
0.0
230
1.0
 73
     3
  0
TEXT
  8
10
  6
CONTINUOUS
 62
   134
  5
1D8
 10
948433.105
 20
7251486.539
 30
0.0
 40
13.999
  1
13
 50
358.1831
  7
ROMANS
 11
948433.548846
 21
7251500.530962
 31
0.0
210
0.0
220
0.0
230
1.0
 73
     3
  0
TEXT
  8
10
  6
CONTINUOUS
 62
   134
  5
1D9
 10
948506.488
 20
7251484.211
 30
0.0
 40
13.999
  1
14
 50
358.1831
  7
ROMANS
 11
948506.931846
 21
7251498.202962
 31
0.0
210
0.0
220
0.0
230
1.0
 73
     3
  0
TEXT
  8
10
  6
CONTINUOUS
 62
   134
  5
1DA
 10
948583.668
 20
7251481.763
 30
0.0
 40
13.999
  1
15
 50
358.1831
  7
ROMANS
 11
948584.111846
 21
7251495.754962
 31
0.0
210
0.0
220
0.0
230
1.0
 73
     3
  0
TEXT
  8
10
  6
CONTINUOUS
 62
   134
  5
1DB
 10
948660.847
 20
7251479.315
 30
0.0
 40
13.999
  1
16
 50
358.1831
  7
ROMANS
 11
948661.290846
 21
7251493.306962
 31
0.0
210
0.0
220
0.0
230
1.0
 73
     3
  0
TEXT
  8
10
  6
CONTINUOUS
 62
   134
  5
1DC
 10
949255.726
 20
7251587.158
 30
0.0
 40
13.999
  1
2
 50
358.1831
  7
ROMANS
 11
949256.169846
 21
7251601.149962
 31
0.0
210
0.0
220
0.0
230
1.0
 73
     3
  0
TEXT
  8
10
  6
CONTINUOUS
 62
   134
  5
1DD
 10
949130.166
 20
7251621.553
 30
0.0
 40
13.999
  1
3
 50
358.1831
  7
ROMANS
 11
949130.609846
 21
7251635.544962
 31
0.0
210
0.0
220
0.0
230
1.0
 73
     3
  0
TEXT
  8
10
  6
CONTINUOUS
 62
   134
  5
1DE
 10
949063.109
 20
7251623.68
 30
0.0
 40
13.999
  1
4
 50
358.1831
  7
ROMANS
 11
949063.552846
 21
7251637.671962
 31
0.0
210
0.0
220
0.0
230
1.0
 73
     3
  0
TEXT
  8
10
  6
CONTINUOUS
 62
   134
  5
1DF
 10
949003.644
 20
7251625.566
 30
0.0
 40
13.999
  1
5
 50
358.1831
  7
ROMANS
 11
949004.087846
 21
7251639.557962
 31
0.0
210
0.0
220
0.0
230
1.0
 73
     3
  0
TEXT
  8
10
  6
CONTINUOUS
 62
   134
  5
1E0
 10
948945.443
 20
7251627.411
 30
0.0
 40
13.999
  1
6
 50
358.1831
  7
ROMANS
 11
948945.886846
 21
7251641.402962
 31
0.0
210
0.0
220
0.0
230
1.0
 73
     3
  0
TEXT
  8
10
  6
CONTINUOUS
 62
   134
  5
1E1
 10
948875.855
 20
7251629.62
 30
0.0
 40
13.999
  1
7
 50
358.1831
  7
ROMANS
 11
948876.298846
 21
7251643.611962
 31
0.0
210
0.0
220
0.0
230
1.0
 73
     3
  0
TEXT
  8
10
  6
CONTINUOUS
 62
   134
  5
1E2
 10
948798.676
 20
7251632.068
 30
0.0
 40
13.999
  1
8
 50
358.1831
  7
ROMANS
 11
948799.119846
 21
7251646.059962
 31
0.0
210
0.0
220
0.0
230
1.0
 73
     3
  0
TEXT
  8
10
  6
CONTINUOUS
 62
   134
  5
1E3
 10
948793.858
 20
7251480.165
 30
0.0
 40
13.999
  1
9
 50
358.1831
  7
ROMANS
 11
948794.301846
 21
7251494.156962
 31
0.0
210
0.0
220
0.0
230
1.0
 73
     3
  0
TEXT
  8
10
  6
CONTINUOUS
 62
   134
  5
1E4
 10
948867.24
 20
7251477.837
 30
0.0
 40
13.999
  1
10
 50
358.1831
  7
ROMANS
 11
948867.683846
 21
7251491.828962
 31
0.0
210
0.0
220
0.0
230
1.0
 73
     3
  0
TEXT
  8
10
  6
CONTINUOUS
 62
   134
  5
1E5
 10
948931.768
 20
7251475.791
 30
0.0
 40
13.999
  1
11
 50
358.1831
  7
ROMANS
 11
948932.211846
 21
7251489.782962
 31
0.0
210
0.0
220
0.0
230
1.0
 73
     3
  0
TEXT
  8
10
  6
CONTINUOUS
 62
   134
  5
1E6
 10
948988.703
 20
7251473.984
 30
0.0
 40
13.999
  1
12
 50
358.1831
  7
ROMANS
 11
948989.146846
 21
7251487.975962
 31
0.0
210
0.0
220
0.0
230
1.0
 73
     3
  0
TEXT
  8
10
  6
CONTINUOUS
 62
   134
  5
1E7
 10
949049.434
 20
7251472.058
 30
0.0
 40
13.999
  1
13
 50
358.1831
  7
ROMANS
 11
949049.877846
 21
7251486.049962
 31
0.0
210
0.0
220
0.0
230
1.0
 73
     3
  0
TEXT
  8
10
  6
CONTINUOUS
 62
   134
  5
1E8
 10
949119.022
 20
7251469.85
 30
0.0
 40
13.999
  1
14
 50
358.1831
  7
ROMANS
 11
949119.465846
 21
7251483.841962
 31
0.0
210
0.0
220
0.0
230
1.0
 73
     3
  0
TEXT
  8
10
  6
CONTINUOUS
 62
   134
  5
1E9
 10
949237.773
 20
7251500.296
 30
0.0
 40
13.999
  1
15
 50
358.1831
  7
ROMANS
 11
949238.216846
 21
7251514.287962
 31
0.0
210
0.0
220
0.0
230
1.0
 73
     3
  0
TEXT
  8
10
  6
CONTINUOUS
 62
   134
  5
1EA
 10
949235.444
 20
7251426.876
 30
0.0
 40
13.999
  1
16
 50
358.1831
  7
ROMANS
 11
949235.887846
 21
7251440.867962
 31
0.0
210
0.0
220
0.0
230
1.0
 73
     3
  0
LINE
  8
6
  6
CONTINUOUS
 62
     7
  5
1EB
 10
946960.808
 20
7247582.141
 30
0.0
 11
947982.264
 21
7247549.739
 31
0.0
  0
LINE
  8
6
  6
CONTINUOUS
 62
     7
  5
1EC
 10
946674.286
 20
7247634.252
 30
0.0
 11
947923.657
 21
7247594.62
 31
0.0
  0
LINE
  8
6
  6
CONTINUOUS
 62
     7
  5
1ED
 10
947923.657
 20
7247594.62
 30
0.0
 11
947941.19
 21
7248147.342
 31
0.0
  0
LINE
  8
6
  6
CONTINUOUS
 62
     7
  5
1EE
 10
946691.819
 20
7248186.974
 30
0.0
 11
947941.19
 21
7248147.342
 31
0.0
  0
LINE
  8
6
  6
CONTINUOUS
 62
     7
  5
1EF
 10
946693.721
 20
7248246.943
 30
0.0
 11
947943.093
 21
7248207.312
 31
0.0
  0
LINE
  8
6
  6
CONTINUOUS
 62
     7
  5
1F0
 10
946674.286
 20
7247634.252
 30
0.0
 11
946691.819
 21
7248186.974
 31
0.0
  0
LINE
  8
6
  6
CONTINUOUS
 62
     7
  5
1F1
 10
946712.745
 20
7248846.642
 30
0.0
 11
947962.116
 21
7248807.01
 31
0.0
  0
LINE
  8
6
  6
CONTINUOUS
 62
     7
  5
1F2
 10
946714.647
 20
7248906.612
 30
0.0
 11
948023.988
 21
7248865.078
 31
0.0
  0
LINE
  8
6
  6
CONTINUOUS
 62
     7
  5
1F3
 10
946693.721
 20
7248246.943
 30
0.0
 11
946712.745
 21
7248846.642
 31
0.0
  0
LINE
  8
6
  6
CONTINUOUS
 62
     7
  5
1F4
 10
946714.647
 20
7248906.612
 30
0.0
 11
946794.221
 21
7251415.11
 31
0.0
  0
LINE
  8
6
  6
CONTINUOUS
 62
     7
  5
1F5
 10
947943.093
 20
7248207.312
 30
0.0
 11
947962.116
 21
7248807.01
 31
0.0
  0
LINE
  8
6
  6
CONTINUOUS
 62
     7
  5
1F6
 10
947998.337
 20
7248056.425
 30
0.0
 11
949035.315
 21
7248023.53
 31
0.0
  0
LINE
  8
6
  6
CONTINUOUS
 62
     7
  5
1F7
 10
946692.501
 20
7247577.646
 30
0.0
 11
946960.396
 21
7247569.147
 31
0.0
  0
ARC
  8
6
  6
CONTINUOUS
 62
     7
  5
1F8
 10
946692.024753
 20
7247562.653356
 30
0.0
 40
15.0
 50
88.1831
 51
178.1831
210
0.0
220
0.0
230
1.0
  0
LINE
  8
7
  6
CONTINUOUS
 62
     7
  5
1F9
 10
946869.895
 20
7246950.878
 30
0.0
 11
946874.635
 21
7247100.303
 31
0.0
  0
LINE
  8
6
  6
CONTINUOUS
 62
     7
  5
1FA
 10
946652.813
 20
7246957.353
 30
0.0
 11
948912.483
 21
7246889.029
 31
0.0
  0
LINE
  8
7
  6
CONTINUOUS
 62
     7
  5
1FB
 10
946874.635
 20
7247100.303
 30
0.0
 11
946934.605
 21
7247098.4
 31
0.0
  0
LINE
  8
6
  6
CONTINUOUS
 62
     7
  5
1FC
 10
949015.674
 20
7247516.958
 30
0.0
 11
948960.603
 21
7246934.19
 31
0.0
  0
LINE
  8
6
  6
CONTINUOUS
 62
     7
  5
1FD
 10
949015.674
 20
7247516.958
 30
0.0
 11
949024.509
 21
7247682.862
 31
0.0
  0
LINE
  8
6
  6
CONTINUOUS
 62
     7
  5
1FE
 10
948960.603
 20
7246934.19
 30
0.0
 11
948912.483
 21
7246889.029
 31
0.0
  0
LINE
  8
6
  6
CONTINUOUS
 62
     7
  5
1FF
 10
949024.509
 20
7247682.862
 30
0.0
 11
949035.315
 21
7248023.53
 31
0.0
  0
LINE
  8
6
  6
CONTINUOUS
 62
     7
  5
200
 10
949035.95
 20
7248043.52
 30
0.0
 11
949042.799
 21
7248259.451
 31
0.0
  0
LINE
  8
6
  6
CONTINUOUS
 62
     7
  5
201
 10
949051.154
 20
7248522.839
 30
0.0
 11
949052.502
 21
7248565.337
 31
0.0
  0
ARC
  8
6
  6
CONTINUOUS
 62
     7
  5
202
 10
949030.660013
 20
7248349.881363
 30
0.0
 40
15.0
 50
268.1831
 51
358.1831
210
0.0
220
0.0
230
1.0
  0
ARC
  8
6
  6
CONTINUOUS
 62
     7
  5
203
 10
949027.806511
 20
7248259.92661
 30
0.0
 40
15.0
 50
358.1831
 51
88.1831
210
0.0
220
0.0
230
1.0
  0
LINE
  8
6
  6
CONTINUOUS
 62
     7
  5
204
 10
948861.075
 20
7248059.072
 30
0.0
 11
948868.082
 21
7248280.001
 31
0.0
  0
LINE
  8
6
  6
CONTINUOUS
 62
     7
  5
205
 10
948869.395
 20
7248339.989
 30
0.0
 11
948876.404
 21
7248560.919
 31
0.0
  0
LINE
  8
6
  6
CONTINUOUS
 62
     7
  5
206
 10
948841.085
 20
7248059.706
 30
0.0
 11
948848.092
 21
7248280.635
 31
0.0
  0
LINE
  8
6
  6
CONTINUOUS
 62
     7
  5
207
 10
948849.405
 20
7248340.624
 30
0.0
 11
948856.414
 21
7248561.552
 31
0.0
  0
LINE
  8
6
  6
CONTINUOUS
 62
     7
  5
208
 10
948321.287
 20
7248357.376
 30
0.0
 11
948849.405
 21
7248340.624
 31
0.0
  0
LINE
  8
6
  6
CONTINUOUS
 62
     7
  5
209
 10
948869.395
 20
7248339.989
 30
0.0
 11
949030.185
 21
7248334.889
 31
0.0
  0
LINE
  8
6
  6
CONTINUOUS
 62
     7
  5
20A
 10
948319.385
 20
7248297.406
 30
0.0
 11
948848.092
 21
7248280.635
 31
0.0
  0
LINE
  8
6
  6
CONTINUOUS
 62
     7
  5
20B
 10
948868.082
 20
7248280.001
 30
0.0
 11
949028.282
 21
7248274.919
 31
0.0
  0
LINE
  8
6
  6
CONTINUOUS
 62
     7
  5
20C
 10
948886.715
 20
7248570.596
 30
0.0
 11
949052.502
 21
7248565.337
 31
0.0
  0
LINE
  8
6
  6
CONTINUOUS
 62
     7
  5
20D
 10
948870.752
 20
7248048.76
 30
0.0
 11
949035.95
 21
7248043.52
 31
0.0
  0
LINE
  8
6
  6
CONTINUOUS
 62
     7
  5
20E
 10
947982.264
 20
7247549.739
 30
0.0
 11
948023.988
 21
7248865.078
 31
0.0
  0
LINE
  8
6
  6
CONTINUOUS
 62
     7
  5
20F
 10
948028.956
 20
7248075.463
 30
0.0
 11
948830.772
 21
7248050.028
 31
0.0
  0
LINE
  8
6
  6
CONTINUOUS
 62
     7
  5
210
 10
948028.956
 20
7248075.463
 30
0.0
 11
948019.278
 21
7248085.775
 31
0.0
  0
LINE
  8
6
  6
CONTINUOUS
 62
     7
  5
211
 10
948019.278
 20
7248085.775
 30
0.0
 11
948035.197
 21
7248587.603
 31
0.0
  0
ARC
  8
6
  6
CONTINUOUS
 62
     7
  5
212
 10
948257.121635
 20
7248329.396541
 30
0.0
 40
70.0
 50
23.560033
 51
332.806167
210
0.0
220
0.0
230
1.0
  0
LINE
  8
6
  6
CONTINUOUS
 62
     7
  5
213
 10
948846.735
 20
7248571.865
 30
0.0
 11
948045.508
 21
7248597.281
 31
0.0
  0
LINE
  8
6
  6
CONTINUOUS
 62
     7
  5
214
 10
948876.404
 20
7248560.919
 30
0.0
 11
948886.715
 21
7248570.596
 31
0.0
  0
LINE
  8
6
  6
CONTINUOUS
 62
     7
  5
215
 10
948856.414
 20
7248561.552
 30
0.0
 11
948846.735
 21
7248571.865
 31
0.0
  0
LINE
  8
6
  6
CONTINUOUS
 62
     7
  5
216
 10
948861.075
 20
7248059.072
 30
0.0
 11
948870.752
 21
7248048.76
 31
0.0
  0
LINE
  8
6
  6
CONTINUOUS
 62
     7
  5
217
 10
948830.772
 20
7248050.028
 30
0.0
 11
948841.085
 21
7248059.706
 31
0.0
  0
LINE
  8
6
  6
CONTINUOUS
 62
     7
  5
218
 10
948035.197
 20
7248587.603
 30
0.0
 11
948045.508
 21
7248597.281
 31
0.0
  0
LINE
  8
6
  6
CONTINUOUS
 62
     7
  5
219
 10
949045.653
 20
7248349.406
 30
0.0
 11
949051.154
 21
7248522.839
 31
0.0
  0
LINE
  8
6
  6
CONTINUOUS
 62
     7
  5
21A
 10
946737.017
 20
7249611.807
 30
0.0
 11
946752.686
 21
7250105.769
 31
0.0
  0
LINE
  8
6
  6
CONTINUOUS
 62
     7
  5
21B
 10
946794.221
 20
7251415.11
 30
0.0
 11
949322.949
 21
7251334.895
 31
0.0
  0
ARC
  8
6
  6
CONTINUOUS
 62
     7
  5
21C
 10
955661.019254
 20
7248313.163565
 30
0.0
 40
6613.19
 50
164.000942
 51
177.641428
210
0.0
220
0.0
230
1.0
  0
LINE
  8
6
  6
CONTINUOUS
 62
     7
  5
21D
 10
949303.983
 20
7250135.902
 30
0.0
 11
949299.486
 21
7250595.267
 31
0.0
  0
LINE
  8
6
  6
CONTINUOUS
 62
     7
  5
21E
 10
949320.241
 20
7251251.435
 30
0.0
 11
949299.486
 21
7250595.267
 31
0.0
  0
LINE
  8
6
  6
CONTINUOUS
 62
     7
  5
21F
 10
949361.016
 20
7249052.1
 30
0.0
 11
949452.775
 21
7249449.831
 31
0.0
  0
LINE
  8
6
  6
CONTINUOUS
 62
     7
  5
220
 10
949627.457
 20
7250669.591
 30
0.0
 11
949632.366
 21
7250760.709
 31
0.0
  0
ARC
  8
6
  6
CONTINUOUS
 62
     7
  5
221
 10
944132.902083
 20
7250834.078843
 30
0.0
 40
5497.016236
 50
345.414881
 51
358.285278
210
0.0
220
0.0
230
1.0
  0
LINE
  8
6
  6
CONTINUOUS
 62
     7
  5
222
 10
949517.188
 20
7246866.49
 30
0.0
 11
949387.255
 21
7246870.611
 31
0.0
  0
LINE
  8
6
  6
CONTINUOUS
 62
     7
  5
223
 10
949387.255
 20
7246870.611
 30
0.0
 11
949337.229
 21
7246923.914
 31
0.0
  0
LINE
  8
6
  6
CONTINUOUS
 62
     7
  5
224
 10
949337.229
 20
7246923.914
 30
0.0
 11
949323.132
 21
7247375.789
 31
0.0
  0
LINE
  8
6
  6
CONTINUOUS
 62
     7
  5
225
 10
949361.016
 20
7249052.1
 30
0.0
 11
949323.132
 21
7247375.789
 31
0.0
  0
LINE
  8
7
  6
CONTINUOUS
 62
     7
  5
226
 10
946664.082
 20
7247312.574
 30
0.0
 11
946941.132
 21
7247304.197
 31
0.0
  0
LINE
  8
6
  6
CONTINUOUS
 62
     7
  5
227
 10
946673.486
 20
7247451.345
 30
0.0
 11
946677.033
 21
7247563.129
 31
0.0
  0
LINE
  8
7
  6
CONTINUOUS
 62
     7
  5
228
 10
947783.77
 20
7248152.336
 30
0.0
 11
947766.236
 21
7247599.613
 31
0.0
  0
LINE
  8
7
  6
CONTINUOUS
 62
     7
  5
229
 10
947626.349
 20
7248157.329
 30
0.0
 11
947608.816
 21
7247604.607
 31
0.0
  0
LINE
  8
7
  6
CONTINUOUS
 62
     7
  5
22A
 10
947468.929
 20
7248162.322
 30
0.0
 11
947451.395
 21
7247609.601
 31
0.0
  0
LINE
  8
7
  6
CONTINUOUS
 62
     7
  5
22B
 10
947311.507
 20
7248167.316
 30
0.0
 11
947293.974
 21
7247614.594
 31
0.0
  0
LINE
  8
7
  6
CONTINUOUS
 62
     7
  5
22C
 10
947154.086
 20
7248172.31
 30
0.0
 11
947136.554
 21
7247619.588
 31
0.0
  0
LINE
  8
7
  6
CONTINUOUS
 62
     7
  5
22D
 10
946996.666
 20
7248177.304
 30
0.0
 11
946979.132
 21
7247624.582
 31
0.0
  0
LINE
  8
7
  6
CONTINUOUS
 62
     7
  5
22E
 10
946839.245
 20
7248182.298
 30
0.0
 11
946821.712
 21
7247629.575
 31
0.0
  0
LINE
  8
7
  6
CONTINUOUS
 62
     7
  5
22F
 10
946683.053
 20
7247910.612
 30
0.0
 11
947932.424
 21
7247870.981
 31
0.0
  0
LINE
  8
7
  6
CONTINUOUS
 62
     7
  5
230
 10
948873.058
 20
7248455.451
 30
0.0
 11
949048.839
 21
7248449.876
 31
0.0
  0
LINE
  8
7
  6
CONTINUOUS
 62
     7
  5
231
 10
948864.42
 20
7248164.539
 30
0.0
 11
949039.612
 21
7248158.981
 31
0.0
  0
LINE
  8
7
  6
CONTINUOUS
 62
     7
  5
232
 10
948556.869
 20
7248581.06
 30
0.0
 11
948549.816
 21
7248350.127
 31
0.0
  0
LINE
  8
7
  6
CONTINUOUS
 62
     7
  5
233
 10
948747.883
 20
7248283.813
 30
0.0
 11
948740.829
 21
7248052.881
 31
0.0
  0
LINE
  8
7
  6
CONTINUOUS
 62
     7
  5
234
 10
948656.818
 20
7248577.889
 30
0.0
 11
948649.764
 21
7248346.957
 31
0.0
  0
LINE
  8
7
  6
CONTINUOUS
 62
     7
  5
235
 10
948756.768
 20
7248574.721
 30
0.0
 11
948749.714
 21
7248343.786
 31
0.0
  0
LINE
  8
7
  6
CONTINUOUS
 62
     7
  5
236
 10
948456.919
 20
7248584.23
 30
0.0
 11
948449.866
 21
7248353.298
 31
0.0
  0
LINE
  8
7
  6
CONTINUOUS
 62
     7
  5
237
 10
948356.969
 20
7248587.401
 30
0.0
 11
948349.915
 21
7248356.468
 31
0.0
  0
LINE
  8
7
  6
CONTINUOUS
 62
     7
  5
238
 10
948257.02
 20
7248590.571
 30
0.0
 11
948251.173
 21
7248399.144
 31
0.0
  0
LINE
  8
7
  6
CONTINUOUS
 62
     7
  5
239
 10
948647.93
 20
7248286.868
 30
0.0
 11
948640.877
 21
7248055.935
 31
0.0
  0
LINE
  8
7
  6
CONTINUOUS
 62
     7
  5
23A
 10
948547.976
 20
7248289.92
 30
0.0
 11
948540.923
 21
7248058.988
 31
0.0
  0
LINE
  8
7
  6
CONTINUOUS
 62
     7
  5
23B
 10
948448.022
 20
7248292.973
 30
0.0
 11
948440.969
 21
7248062.04
 31
0.0
  0
LINE
  8
7
  6
CONTINUOUS
 62
     7
  5
23C
 10
948348.07
 20
7248296.026
 30
0.0
 11
948341.016
 21
7248065.094
 31
0.0
  0
LINE
  8
7
  6
CONTINUOUS
 62
     7
  5
23D
 10
948246.927
 20
7248260.143
 30
0.0
 11
948241.081
 21
7248068.734
 31
0.0
  0
LINE
  8
7
  6
CONTINUOUS
 62
     7
  5
23E
 10
948027.238
 20
7248336.688
 30
0.0
 11
948187.157
 21
7248331.616
 31
0.0
  0
TEXT
  8
10
  6
CONTINUOUS
 62
   134
  5
23F
 10
948951.35
 20
7248383.335
 30
0.0
 40
13.999
  1
1
 50
358.1831
  7
ROMANS
 11
948951.793846
 21
7248397.326962
 31
0.0
210
0.0
220
0.0
230
1.0
 73
     3
  0
TEXT
  8
10
  6
CONTINUOUS
 62
   134
  5
240
 10
948954.701
 20
7248488.978
 30
0.0
 40
13.999
  1
2
 50
358.1831
  7
ROMANS
 11
948955.144846
 21
7248502.969962
 31
0.0
210
0.0
220
0.0
230
1.0
 73
     3
  0
TEXT
  8
10
  6
CONTINUOUS
 62
   134
  5
241
 10
948798.367
 20
7248449.989
 30
0.0
 40
13.999
  1
3
 50
358.1831
  7
ROMANS
 11
948798.810846
 21
7248463.980962
 31
0.0
210
0.0
220
0.0
230
1.0
 73
     3
  0
TEXT
  8
10
  6
CONTINUOUS
 62
   134
  5
242
 10
948696.902
 20
7248453.207
 30
0.0
 40
13.999
  1
4
 50
358.1831
  7
ROMANS
 11
948697.345846
 21
7248467.198962
 31
0.0
210
0.0
220
0.0
230
1.0
 73
     3
  0
TEXT
  8
10
  6
CONTINUOUS
 62
   134
  5
243
 10
948596.808
 20
7248456.383
 30
0.0
 40
13.999
  1
5
 50
358.1831
  7
ROMANS
 11
948597.251846
 21
7248470.374962
 31
0.0
210
0.0
220
0.0
230
1.0
 73
     3
  0
TEXT
  8
10
  6
CONTINUOUS
 62
   134
  5
244
 10
948498.084
 20
7248459.514
 30
0.0
 40
13.999
  1
6
 50
358.1831
  7
ROMANS
 11
948498.527846
 21
7248473.505962
 31
0.0
210
0.0
220
0.0
230
1.0
 73
     3
  0
TEXT
  8
10
  6
CONTINUOUS
 62
   134
  5
245
 10
948400.732
 20
7248462.602
 30
0.0
 40
13.999
  1
7
 50
358.1831
  7
ROMANS
 11
948401.175846
 21
7248476.593962
 31
0.0
210
0.0
220
0.0
230
1.0
 73
     3
  0
TEXT
  8
10
  6
CONTINUOUS
 62
   134
  5
246
 10
948306.122
 20
7248465.603
 30
0.0
 40
13.999
  1
8
 50
358.1831
  7
ROMANS
 11
948306.565846
 21
7248479.594962
 31
0.0
210
0.0
220
0.0
230
1.0
 73
     3
  0
TEXT
  8
10
  6
CONTINUOUS
 62
   134
  5
247
 10
948204.635
 20
7248511.397
 30
0.0
 40
13.999
  1
9
 50
358.1831
  7
ROMANS
 11
948205.078846
 21
7248525.388962
 31
0.0
210
0.0
220
0.0
230
1.0
 73
     3
  0
TEXT
  8
10
  6
CONTINUOUS
 62
   134
  5
248
 10
948109.155
 20
7248486.959
 30
0.0
 40
13.999
  1
10
 50
358.1831
  7
ROMANS
 11
948109.598846
 21
7248500.950962
 31
0.0
210
0.0
220
0.0
230
1.0
 73
     3
  0
TEXT
  8
10
  6
CONTINUOUS
 62
   134
  5
249
 10
948074.528
 20
7248390.548
 30
0.0
 40
13.999
  1
11
 50
358.1831
  7
ROMANS
 11
948074.971846
 21
7248404.539962
 31
0.0
210
0.0
220
0.0
230
1.0
 73
     3
  0
TEXT
  8
10
  6
CONTINUOUS
 62
   134
  5
24A
 10
948070.655
 20
7248268.441
 30
0.0
 40
13.999
  1
12
 50
358.1831
  7
ROMANS
 11
948071.098846
 21
7248282.432962
 31
0.0
210
0.0
220
0.0
230
1.0
 73
     3
  0
TEXT
  8
10
  6
CONTINUOUS
 62
   134
  5
24B
 10
948092.114
 20
7248166.132
 30
0.0
 40
13.999
  1
13
 50
358.1831
  7
ROMANS
 11
948092.557846
 21
7248180.123962
 31
0.0
210
0.0
220
0.0
230
1.0
 73
     3
  0
TEXT
  8
10
  6
CONTINUOUS
 62
   134
  5
24C
 10
948190.62
 20
7248156.139
 30
0.0
 40
13.999
  1
14
 50
358.1831
  7
ROMANS
 11
948191.063846
 21
7248170.130962
 31
0.0
210
0.0
220
0.0
230
1.0
 73
     3
  0
TEXT
  8
10
  6
CONTINUOUS
 62
   134
  5
24D
 10
948281.682
 20
7248171.104
 30
0.0
 40
13.999
  1
15
 50
358.1831
  7
ROMANS
 11
948282.125846
 21
7248185.095962
 31
0.0
210
0.0
220
0.0
230
1.0
 73
     3
  0
TEXT
  8
10
  6
CONTINUOUS
 62
   134
  5
24E
 10
948383.148
 20
7248167.886
 30
0.0
 40
13.999
  1
16
 50
358.1831
  7
ROMANS
 11
948383.591846
 21
7248181.877962
 31
0.0
210
0.0
220
0.0
230
1.0
 73
     3
  0
TEXT
  8
10
  6
CONTINUOUS
 62
   134
  5
24F
 10
948483.243
 20
7248164.71
 30
0.0
 40
13.999
  1
17
 50
358.1831
  7
ROMANS
 11
948483.686846
 21
7248178.701962
 31
0.0
210
0.0
220
0.0
230
1.0
 73
     3
  0
TEXT
  8
10
  6
CONTINUOUS
 62
   134
  5
250
 10
948577.853
 20
7248161.709
 30
0.0
 40
13.999
  1
18
 50
358.1831
  7
ROMANS
 11
948578.296846
 21
7248175.700962
 31
0.0
210
0.0
220
0.0
230
1.0
 73
     3
  0
TEXT
  8
10
  6
CONTINUOUS
 62
   134
  5
251
 10
948676.575
 20
7248158.578
 30
0.0
 40
13.999
  1
19
 50
358.1831
  7
ROMANS
 11
948677.018846
 21
7248172.569962
 31
0.0
210
0.0
220
0.0
230
1.0
 73
     3
  0
TEXT
  8
10
  6
CONTINUOUS
 62
   134
  5
252
 10
948776.67
 20
7248155.402
 30
0.0
 40
13.999
  1
20
 50
358.1831
  7
ROMANS
 11
948777.113846
 21
7248169.393962
 31
0.0
210
0.0
220
0.0
230
1.0
 73
     3
  0
TEXT
  8
10
  6
CONTINUOUS
 62
   134
  5
253
 10
948937.073
 20
7248106.366
 30
0.0
 40
13.999
  1
21
 50
358.1831
  7
ROMANS
 11
948937.516846
 21
7248120.357962
 31
0.0
210
0.0
220
0.0
230
1.0
 73
     3
  0
TEXT
  8
10
  6
CONTINUOUS
 62
   134
  5
254
 10
948940.424
 20
7248212.01
 30
0.0
 40
13.999
  1
22
 50
358.1831
  7
ROMANS
 11
948940.867846
 21
7248226.001962
 31
0.0
210
0.0
220
0.0
230
1.0
 73
     3
  0
LINE
  8
6
  6
CONTINUOUS
 62
     7
  5
255
 10
948016.158
 20
7248618.221
 30
0.0
 11
949053.432
 21
7248585.317
 31
0.0
  0
LINE
  8
7
  6
CONTINUOUS
 62
     7
  5
256
 10
947718.639
 20
7248814.734
 30
0.0
 11
947699.616
 21
7248215.035
 31
0.0
  0
TEXT
  8
10
  6
CONTINUOUS
 62
   134
  5
257
 10
946746.357
 20
7247737.502
 30
0.0
 40
13.999
  1
1
 50
358.1831
  7
ROMANS
 11
946746.800846
 21
7247751.493962
 31
0.0
210
0.0
220
0.0
230
1.0
 73
     3
  0
LINE
  8
7
  6
CONTINUOUS
 62
     7
  5
258
 10
947573.512
 20
7248819.337
 30
0.0
 11
947554.489
 21
7248219.639
 31
0.0
  0
LINE
  8
7
  6
CONTINUOUS
 62
     7
  5
259
 10
947428.385
 20
7248823.94
 30
0.0
 11
947409.361
 21
7248224.243
 31
0.0
  0
LINE
  8
7
  6
CONTINUOUS
 62
     7
  5
25A
 10
947283.258
 20
7248828.544
 30
0.0
 11
947264.235
 21
7248228.846
 31
0.0
  0
LINE
  8
7
  6
CONTINUOUS
 62
     7
  5
25B
 10
947138.131
 20
7248833.148
 30
0.0
 11
947119.108
 21
7248233.45
 31
0.0
  0
LINE
  8
7
  6
CONTINUOUS
 62
     7
  5
25C
 10
946993.004
 20
7248837.752
 30
0.0
 11
946973.98
 21
7248238.053
 31
0.0
  0
LINE
  8
7
  6
CONTINUOUS
 62
     7
  5
25D
 10
946847.877
 20
7248842.355
 30
0.0
 11
946828.854
 21
7248242.657
 31
0.0
  0
LINE
  8
7
  6
CONTINUOUS
 62
     7
  5
25E
 10
947952.604
 20
7248507.161
 30
0.0
 11
946703.233
 21
7248546.793
 31
0.0
  0
TEXT
  8
10
  6
CONTINUOUS
 62
   134
  5
25F
 10
946902.502
 20
7247732.549
 30
0.0
 40
13.999
  1
2
 50
358.1831
  7
ROMANS
 11
946902.945846
 21
7247746.540962
 31
0.0
210
0.0
220
0.0
230
1.0
 73
     3
  0
TEXT
  8
10
  6
CONTINUOUS
 62
   134
  5
260
 10
947046.996
 20
7247727.965
 30
0.0
 40
13.999
  1
3
 50
358.1831
  7
ROMANS
 11
947047.439846
 21
7247741.956962
 31
0.0
210
0.0
220
0.0
230
1.0
 73
     3
  0
TEXT
  8
10
  6
CONTINUOUS
 62
   134
  5
261
 10
947205.472
 20
7247722.938
 30
0.0
 40
13.999
  1
4
 50
358.1831
  7
ROMANS
 11
947205.915846
 21
7247736.929962
 31
0.0
210
0.0
220
0.0
230
1.0
 73
     3
  0
TEXT
  8
10
  6
CONTINUOUS
 62
   134
  5
262
 10
947368.609
 20
7247717.763
 30
0.0
 40
13.999
  1
5
 50
358.1831
  7
ROMANS
 11
947369.052846
 21
7247731.754962
 31
0.0
210
0.0
220
0.0
230
1.0
 73
     3
  0
TEXT
  8
10
  6
CONTINUOUS
 62
   134
  5
263
 10
947520.094
 20
7247712.957
 30
0.0
 40
13.999
  1
6
 50
358.1831
  7
ROMANS
 11
947520.537846
 21
7247726.948962
 31
0.0
210
0.0
220
0.0
230
1.0
 73
     3
  0
TEXT
  8
10
  6
CONTINUOUS
 62
   134
  5
264
 10
947685.562
 20
7247707.709
 30
0.0
 40
13.999
  1
7
 50
358.1831
  7
ROMANS
 11
947686.005846
 21
7247721.700962
 31
0.0
210
0.0
220
0.0
230
1.0
 73
     3
  0
TEXT
  8
10
  6
CONTINUOUS
 62
   134
  5
265
 10
947846.368
 20
7247702.608
 30
0.0
 40
13.999
  1
8
 50
358.1831
  7
ROMANS
 11
947846.811846
 21
7247716.599962
 31
0.0
210
0.0
220
0.0
230
1.0
 73
     3
  0
TEXT
  8
10
  6
CONTINUOUS
 62
   134
  5
266
 10
947855.468
 20
7247989.448
 30
0.0
 40
13.999
  1
9
 50
358.1831
  7
ROMANS
 11
947855.911846
 21
7248003.439962
 31
0.0
210
0.0
220
0.0
230
1.0
 73
     3
  0
TEXT
  8
10
  6
CONTINUOUS
 62
   134
  5
267
 10
947701.653
 20
7247994.328
 30
0.0
 40
13.999
  1
10
 50
358.1831
  7
ROMANS
 11
947702.096846
 21
7248008.319962
 31
0.0
210
0.0
220
0.0
230
1.0
 73
     3
  0
TEXT
  8
10
  6
CONTINUOUS
 62
   134
  5
268
 10
947540.845
 20
7247999.429
 30
0.0
 40
13.999
  1
11
 50
358.1831
  7
ROMANS
 11
947541.288846
 21
7248013.420962
 31
0.0
210
0.0
220
0.0
230
1.0
 73
     3
  0
TEXT
  8
10
  6
CONTINUOUS
 62
   134
  5
269
 10
947377.708
 20
7248004.603
 30
0.0
 40
13.999
  1
12
 50
358.1831
  7
ROMANS
 11
947378.151846
 21
7248018.594962
 31
0.0
210
0.0
220
0.0
230
1.0
 73
     3
  0
TEXT
  8
10
  6
CONTINUOUS
 62
   134
  5
26A
 10
947219.231
 20
7248009.631
 30
0.0
 40
13.999
  1
13
 50
358.1831
  7
ROMANS
 11
947219.674846
 21
7248023.622962
 31
0.0
210
0.0
220
0.0
230
1.0
 73
     3
  0
TEXT
  8
10
  6
CONTINUOUS
 62
   134
  5
26B
 10
947063.087
 20
7248014.584
 30
0.0
 40
13.999
  1
14
 50
358.1831
  7
ROMANS
 11
947063.530846
 21
7248028.575962
 31
0.0
210
0.0
220
0.0
230
1.0
 73
     3
  0
TEXT
  8
10
  6
CONTINUOUS
 62
   134
  5
26C
 10
946902.279
 20
7248019.685
 30
0.0
 40
13.999
  1
15
 50
358.1831
  7
ROMANS
 11
946902.722846
 21
7248033.676962
 31
0.0
210
0.0
220
0.0
230
1.0
 73
     3
  0
TEXT
  8
10
  6
CONTINUOUS
 62
   134
  5
26D
 10
946755.456
 20
7248024.343
 30
0.0
 40
13.999
  1
16
 50
358.1831
  7
ROMANS
 11
946755.899846
 21
7248038.334962
 31
0.0
210
0.0
220
0.0
230
1.0
 73
     3
  0
TEXT
  8
10
  6
CONTINUOUS
 62
   134
  5
26E
 10
946766.478
 20
7248371.816
 30
0.0
 40
13.999
  1
17
 50
358.1831
  7
ROMANS
 11
946766.921846
 21
7248385.807962
 31
0.0
210
0.0
220
0.0
230
1.0
 73
     3
  0
TEXT
  8
10
  6
CONTINUOUS
 62
   134
  5
26F
 10
946896.987
 20
7248367.675
 30
0.0
 40
13.999
  1
18
 50
358.1831
  7
ROMANS
 11
946897.430846
 21
7248381.666962
 31
0.0
210
0.0
220
0.0
230
1.0
 73
     3
  0
TEXT
  8
10
  6
CONTINUOUS
 62
   134
  5
270
 10
947043.812
 20
7248363.018
 30
0.0
 40
13.999
  1
19
 50
358.1831
  7
ROMANS
 11
947044.255846
 21
7248377.009962
 31
0.0
210
0.0
220
0.0
230
1.0
 73
     3
  0
TEXT
  8
10
  6
CONTINUOUS
 62
   134
  5
271
 10
947185.974
 20
7248358.509
 30
0.0
 40
13.999
  1
20
 50
358.1831
  7
ROMANS
 11
947186.417846
 21
7248372.500962
 31
0.0
210
0.0
220
0.0
230
1.0
 73
     3
  0
TEXT
  8
10
  6
CONTINUOUS
 62
   134
  5
272
 10
947330.467
 20
7248353.925
 30
0.0
 40
13.999
  1
21
 50
358.1831
  7
ROMANS
 11
947330.910846
 21
7248367.916962
 31
0.0
210
0.0
220
0.0
230
1.0
 73
     3
  0
TEXT
  8
10
  6
CONTINUOUS
 62
   134
  5
273
 10
947470.299
 20
7248349.489
 30
0.0
 40
13.999
  1
22
 50
358.1831
  7
ROMANS
 11
947470.742846
 21
7248363.480962
 31
0.0
210
0.0
220
0.0
230
1.0
 73
     3
  0
TEXT
  8
10
  6
CONTINUOUS
 62
   134
  5
274
 10
947621.784
 20
7248344.684
 30
0.0
 40
13.999
  1
23
 50
358.1831
  7
ROMANS
 11
947622.227846
 21
7248358.675962
 31
0.0
210
0.0
220
0.0
230
1.0
 73
     3
  0
TEXT
  8
10
  6
CONTINUOUS
 62
   134
  5
275
 10
947815.219
 20
7248338.548
 30
0.0
 40
13.999
  1
24
 50
358.1831
  7
ROMANS
 11
947815.662846
 21
7248352.539962
 31
0.0
210
0.0
220
0.0
230
1.0
 73
     3
  0
TEXT
  8
10
  6
CONTINUOUS
 62
   134
  5
276
 10
947825.057
 20
7248648.708
 30
0.0
 40
13.999
  1
25
 50
358.1831
  7
ROMANS
 11
947825.500846
 21
7248662.699962
 31
0.0
210
0.0
220
0.0
230
1.0
 73
     3
  0
TEXT
  8
10
  6
CONTINUOUS
 62
   134
  5
277
 10
947640.945
 20
7248654.548
 30
0.0
 40
13.999
  1
26
 50
358.1831
  7
ROMANS
 11
947641.388846
 21
7248668.539962
 31
0.0
210
0.0
220
0.0
230
1.0
 73
     3
  0
TEXT
  8
10
  6
CONTINUOUS
 62
   134
  5
278
 10
947491.791
 20
7248659.28
 30
0.0
 40
13.999
  1
27
 50
358.1831
  7
ROMANS
 11
947492.234846
 21
7248673.271962
 31
0.0
210
0.0
220
0.0
230
1.0
 73
     3
  0
TEXT
  8
10
  6
CONTINUOUS
 62
   134
  5
279
 10
947349.628
 20
7248663.789
 30
0.0
 40
13.999
  1
28
 50
358.1831
  7
ROMANS
 11
947350.071846
 21
7248677.780962
 31
0.0
210
0.0
220
0.0
230
1.0
 73
     3
  0
TEXT
  8
10
  6
CONTINUOUS
 62
   134
  5
27A
 10
947202.805
 20
7248668.446
 30
0.0
 40
13.999
  1
29
 50
358.1831
  7
ROMANS
 11
947203.248846
 21
7248682.437962
 31
0.0
210
0.0
220
0.0
230
1.0
 73
     3
  0
TEXT
  8
10
  6
CONTINUOUS
 62
   134
  5
27B
 10
947058.311
 20
7248673.03
 30
0.0
 40
13.999
  1
30
 50
358.1831
  7
ROMANS
 11
947058.754846
 21
7248687.021962
 31
0.0
210
0.0
220
0.0
230
1.0
 73
     3
  0
TEXT
  8
10
  6
CONTINUOUS
 62
   134
  5
27C
 10
946909.157
 20
7248677.761
 30
0.0
 40
13.999
  1
31
 50
358.1831
  7
ROMANS
 11
946909.600846
 21
7248691.752962
 31
0.0
210
0.0
220
0.0
230
1.0
 73
     3
  0
TEXT
  8
10
  6
CONTINUOUS
 62
   134
  5
27D
 10
946778.647
 20
7248681.902
 30
0.0
 40
13.999
  1
32
 50
358.1831
  7
ROMANS
 11
946779.090846
 21
7248695.893962
 31
0.0
210
0.0
220
0.0
230
1.0
 73
     3
  0
LINE
  8
6
  6
CONTINUOUS
 62
     7
  5
27E
 10
946668.489
 20
7247451.503
 30
0.0
 11
946673.486
 21
7247451.345
 31
0.0
  0
LINE
  8
6
  6
CONTINUOUS
 62
     7
  5
27F
 10
946960.396
 20
7247569.147
 30
0.0
 11
946960.808
 21
7247582.141
 31
0.0
  0
LINE
  8
7
  6
CONTINUOUS
 62
     7
  5
280
 10
946934.605
 20
7247098.4
 30
0.0
 11
946941.132
 21
7247304.197
 31
0.0
  0
LINE
  8
7
  6
CONTINUOUS
 62
     7
  5
281
 10
950101.313
 20
7251892.097
 30
0.0
 11
950104.608
 21
7252002.088
 31
0.0
  0
LINE
  8
6
  6
CONTINUOUS
 62
     7
  5
282
 10
950104.609
 20
7252002.088
 30
0.0
 11
950105.327
 21
7252026.036
 31
0.0
  0
LINE
  8
6
  6
CONTINUOUS
 62
     7
  5
283
 10
949633.441
 20
7250780.686
 30
0.0
 11
949692.897
 21
7251884.329
 31
0.0
  0
LINE
  8
6
  6
CONTINUOUS
 62
     7
  5
284
 10
946668.489
 20
7247451.503
 30
0.0
 11
946664.082
 21
7247312.574
 31
0.0
  0
TEXT
  8
10
  6
CONTINUOUS
 62
   134
  5
285
 10
947937.699
 20
7250131.138
 30
0.0
 40
13.999
  1
UNSUBDIVIDED
 50
358.1831
  7
ROMANS
 11
947938.142846
 21
7250145.129962
 31
0.0
210
0.0
220
0.0
230
1.0
 73
     3
  0
TEXT
  8
10
  6
CONTINUOUS
 62
   134
  5
286
 10
950703.738
 20
7248905.024
 30
0.0
 40
13.999
  1
UNSUBDIVIDED
 50
358.1831
  7
ROMANS
 11
950704.181846
 21
7248919.015962
 31
0.0
210
0.0
220
0.0
230
1.0
 73
     3
  0
TEXT
  8
10
  6
CONTINUOUS
 62
   134
  5
287
 10
947918.428
 20
7247267.924
 30
0.0
 40
13.999
  1
UNSUBDIVIDED
 50
358.1831
  7
ROMANS
 11
947918.871846
 21
7247281.915962
 31
0.0
210
0.0
220
0.0
230
1.0
 73
     3
  0
TEXT
  8
10
  6
CONTINUOUS
 62
   134
  5
288
 10
946778.948
 20
7247116.461
 30
0.0
 40
13.999
  1
A
 50
358.1831
  7
ROMANS
 11
946779.391846
 21
7247130.452962
 31
0.0
210
0.0
220
0.0
230
1.0
 73
     3
  0
TEXT
  8
10
  6
CONTINUOUS
 62
   134
  5
289
 10
949777.283
 20
7251955.748
 30
0.0
 40
13.999
  1
A
 50
358.1831
  7
ROMANS
 11
949777.726846
 21
7251969.739962
 31
0.0
210
0.0
220
0.0
230
1.0
 73
     3
  0
TEXT
  8
10
  6
CONTINUOUS
 62
   134
  5
28A
 10
949891.883
 20
7251959.272
 30
0.0
 40
13.999
  1
UNSUBDIVIDED
 50
358.1831
  7
ROMANS
 11
949892.326846
 21
7251973.263962
 31
0.0
210
0.0
220
0.0
230
1.0
 73
     3
  0
LINE
  8
7
  6
CONTINUOUS
 62
     7
  5
28B
 10
948127.08
 20
7248594.54
 30
0.0
 11
948226.05
 21
7248392.122
 31
0.0
  0
LINE
  8
7
  6
CONTINUOUS
 62
     7
  5
28C
 10
948111.141
 20
7248072.704
 30
0.0
 11
948222.08
 21
7248268.799
 31
0.0
  0
LINE
  8
7
  6
CONTINUOUS
 62
     7
  5
28D
 10
948032.151
 20
7248491.611
 30
0.0
 11
948200.68
 21
7248370.8
 31
0.0
  0
LINE
  8
7
  6
CONTINUOUS
 62
     7
  5
28E
 10
948022.323
 20
7248181.767
 30
0.0
 11
948197.558
 21
7248292.624
 31
0.0
  0
TEXT
  8
11
  6
CONTINUOUS
 62
     7
  5
291
 10
949767.896
 20
7252024.286
 30
0.0
 40
8.0
  1
151'
 50
358.1831
  7
txt
 72
     4
 11
949778.819392
 21
7252027.941505
 31
0.0
210
0.0
220
0.0
230
1.0
  0
TEXT
  8
11
  6
CONTINUOUS
 62
     7
  5
292
 10
950115.536
 20
7251991.669
 30
0.0
 40
8.0
  1
55.99'
 50
356.1831
  7
txt
 72
     4
 11
950135.033521
 21
7251994.377092
 31
0.0
210
0.0
220
0.0
230
1.0
  0
TEXT
  8
11
  6
CONTINUOUS
 62
     7
  5
293
 10
950280.843
 20
7251971.056
 30
0.0
 40
8.0
  1
75.95'
 50
358.1831
  7
txt
 72
     4
 11
950300.455021
 21
7251974.435889
 31
0.0
210
0.0
220
0.0
230
1.0
  0
TEXT
  8
11
  6
CONTINUOUS
 62
     7
  5
294
 10
950374.306
 20
7251965.09
 30
0.0
 40
8.0
  1
70'
 50
358.1831
  7
txt
 72
     4
 11
950384.064977
 21
7251968.782442
 31
0.0
210
0.0
220
0.0
230
1.0
  0
TEXT
  8
11
  6
CONTINUOUS
 62
     7
  5
295
 10
950434.396
 20
7251965.104
 30
0.0
 40
8.0
  1
70.16'
 50
358.1831
  7
txt
 72
     4
 11
950452.55975
 21
7251968.52983
 31
0.0
210
0.0
220
0.0
230
1.0
  0
TEXT
  8
11
  6
CONTINUOUS
 62
     7
  5
296
 10
950513.463
 20
7251962.192
 30
0.0
 40
8.0
  1
70'
 50
358.1831
  7
txt
 72
     4
 11
950523.221977
 21
7251965.884442
 31
0.0
210
0.0
220
0.0
230
1.0
  0
TEXT
  8
11
  6
CONTINUOUS
 62
     7
  5
297
 10
950581.232
 20
7251960.977
 30
0.0
 40
8.0
  1
70'
 50
358.1831
  7
txt
 72
     4
 11
950590.990977
 21
7251964.669442
 31
0.0
210
0.0
220
0.0
230
1.0
  0
TEXT
  8
11
  6
CONTINUOUS
 62
     7
  5
298
 10
950806.27
 20
7251955.706
 30
0.0
 40
8.0
  1
65'
 50
358.1831
  7
txt
 72
     4
 11
950815.840072
 21
7251959.404435
 31
0.0
210
0.0
220
0.0
230
1.0
  0
TEXT
  8
11
  6
CONTINUOUS
 62
     7
  5
299
 10
950875.732
 20
7251953.502
 30
0.0
 40
8.0
  1
75'
 50
358.1831
  7
txt
 72
     4
 11
950885.522961
 21
7251957.193428
 31
0.0
210
0.0
220
0.0
230
1.0
  0
TEXT
  8
11
  6
CONTINUOUS
 62
     7
  5
29A
 10
950951.507
 20
7251951.098
 30
0.0
 40
8.0
  1
70'
 50
358.1831
  7
txt
 72
     4
 11
950961.265977
 21
7251954.790442
 31
0.0
210
0.0
220
0.0
230
1.0
  0
TEXT
  8
11
  6
CONTINUOUS
 62
     7
  5
29B
 10
951025.23
 20
7251948.759
 30
0.0
 40
8.0
  1
70'
 50
358.1831
  7
txt
 72
     4
 11
951034.988977
 21
7251952.451442
 31
0.0
210
0.0
220
0.0
230
1.0
  0
TEXT
  8
11
  6
CONTINUOUS
 62
     7
  5
29C
 10
951059.194
 20
7251904.665
 30
0.0
 40
8.0
  1
115'
 50
88.1831
  7
txt
 72
     4
 11
951055.538495
 21
7251915.588392
 31
0.0
210
0.0
220
0.0
230
1.0
  0
TEXT
  8
11
  6
CONTINUOUS
 62
     7
  5
29D
 10
950782.734
 20
7251910.434
 30
0.0
 40
8.0
  1
100'
 50
88.1831
  7
txt
 72
     4
 11
950779.121424
 21
7251922.710711
 31
0.0
210
0.0
220
0.0
230
1.0
  0
TEXT
  8
11
  6
CONTINUOUS
 62
     7
  5
29E
 10
950691.428
 20
7251915.701
 30
0.0
 40
8.0
  1
100'
 50
88.1831
  7
txt
 72
     4
 11
950687.815424
 21
7251927.977711
 31
0.0
210
0.0
220
0.0
230
1.0
  0
TEXT
  8
11
  6
CONTINUOUS
 62
     7
  5
29F
 10
950638.592
 20
7251920.755
 30
0.0
 40
8.0
  1
115'
 50
88.1831
  7
txt
 72
     4
 11
950634.936495
 21
7251931.678392
 31
0.0
210
0.0
220
0.0
230
1.0
  0
TEXT
  8
11
  6
CONTINUOUS
 62
     7
  5
2A0
 10
950341.425
 20
7251934.922
 30
0.0
 40
8.0
  1
115'
 50
88.1831
  7
txt
 72
     4
 11
950337.769495
 21
7251945.845392
 31
0.0
210
0.0
220
0.0
230
1.0
  0
TEXT
  8
11
  6
CONTINUOUS
 62
     7
  5
2A1
 10
950259.055
 20
7251927.833
 30
0.0
 40
8.0
  1
104.57'
 50
88.1831
  7
txt
 72
     4
 11
950255.767977
 21
7251950.372549
 31
0.0
210
0.0
220
0.0
230
1.0
  0
TEXT
  8
11
  6
CONTINUOUS
 62
     7
  5
2A2
 10
950169.446
 20
7251913.932
 30
0.0
 40
8.0
  1
110.84'
 50
88.1831
  7
txt
 72
     4
 11
950166.113067
 21
7251935.024277
 31
0.0
210
0.0
220
0.0
230
1.0
  0
TEXT
  8
11
  6
CONTINUOUS
 62
     7
  5
2A3
 10
950107.036
 20
7252005.446
 30
0.0
 40
8.0
  1
S86%%d40'37"E
 50
354.860044
  7
txt
 72
     4
 11
950146.786314
 21
7252005.886586
 31
0.0
210
0.0
220
0.0
230
1.0
  0
TEXT
  8
11
  6
CONTINUOUS
 62
     7
  5
2A4
 10
950132.149
 20
7251880.726
 30
0.0
 40
8.0
  1
70'
 50
341.681553
  7
txt
 72
     4
 11
950142.554831
 21
7251881.494406
 31
0.0
210
0.0
220
0.0
230
1.0
  0
TEXT
  8
11
  6
CONTINUOUS
 62
     7
  5
2A5
 10
950281.203
 20
7251868.461
 30
0.0
 40
8.0
  1
99'
 50
358.1831
  7
txt
 72
     4
 11
950290.584167
 21
7251872.165427
 31
0.0
210
0.0
220
0.0
230
1.0
  0
TEXT
  8
11
  6
CONTINUOUS
 62
     7
  5
2A6
 10
950654.862
 20
7251856.608
 30
0.0
 40
8.0
  1
71'
 50
358.1831
  7
txt
 72
     4
 11
950663.236674
 21
7251860.344355
 31
0.0
210
0.0
220
0.0
230
1.0
  0
TEXT
  8
11
  6
CONTINUOUS
 62
     7
  5
2A7
 10
950797.925
 20
7251852.069
 30
0.0
 40
8.0
  1
80'
 50
358.1831
  7
txt
 72
     4
 11
950807.652993
 21
7251855.762425
 31
0.0
210
0.0
220
0.0
230
1.0
  0
TEXT
  8
11
  6
CONTINUOUS
 62
     7
  5
2A8
 10
951025.12
 20
7251844.863
 30
0.0
 40
8.0
  1
70'
 50
358.1831
  7
txt
 72
     4
 11
951034.878977
 21
7251848.555442
 31
0.0
210
0.0
220
0.0
230
1.0
  0
TEXT
  8
11
  6
CONTINUOUS
 62
     7
  5
2A9
 10
950198.599
 20
7251922.416
 30
0.0
 40
8.0
  1
75'
 50
358.1831
  7
txt
 72
     4
 11
950208.389961
 21
7251926.107428
 31
0.0
210
0.0
220
0.0
230
1.0
  0
TEXT
  8
11
  6
CONTINUOUS
 62
     7
  5
2AA
 10
950723.142
 20
7251911.406
 30
0.0
 40
8.0
  1
75'
 50
358.1831
  7
txt
 72
     4
 11
950732.932961
 21
7251915.097428
 31
0.0
210
0.0
220
0.0
230
1.0
  0
TEXT
  8
11
  6
CONTINUOUS
 62
     7
  5
2AB
 10
950114.259
 20
7251923.802
 30
0.0
 40
8.0
  1
109.16'
 50
88.1831
  7
txt
 72
     4
 11
950110.908058
 21
7251944.326562
 31
0.0
210
0.0
220
0.0
230
1.0
  0
TEXT
  8
11
  6
CONTINUOUS
 62
     7
  5
2AC
 10
950799.842
 20
7251833.962
 30
0.0
 40
8.0
  1
20'
 50
88.1831
  7
txt
 72
     4
 11
950796.148575
 21
7251843.689993
 31
0.0
210
0.0
220
0.0
230
1.0
  0
TEXT
  8
11
  6
CONTINUOUS
 62
     7
  5
2AD
 10
951029.09
 20
7251826.69
 30
0.0
 40
8.0
  1
20'
 50
88.1831
  7
txt
 72
     4
 11
951025.396575
 21
7251836.417993
 31
0.0
210
0.0
220
0.0
230
1.0
  0
TEXT
  8
11
  6
CONTINUOUS
 62
     7
  5
2AE
 10
950672.595
 20
7251837.999
 30
0.0
 40
8.0
  1
20'
 50
88.1831
  7
txt
 72
     4
 11
950668.901575
 21
7251847.726993
 31
0.0
210
0.0
220
0.0
230
1.0
  0
TEXT
  8
11
  6
CONTINUOUS
 62
     7
  5
2AF
 10
950288.833
 20
7251850.172
 30
0.0
 40
8.0
  1
20'
 50
88.1831
  7
txt
 72
     4
 11
950285.139575
 21
7251859.899993
 31
0.0
210
0.0
220
0.0
230
1.0
  0
TEXT
  8
11
  6
CONTINUOUS
 62
     7
  5
2B0
 10
950074.738
 20
7251876.794
 30
0.0
 40
8.0
  1
20'
 50
88.1831
  7
txt
 72
     4
 11
950071.044575
 21
7251886.521993
 31
0.0
210
0.0
220
0.0
230
1.0
  0
TEXT
  8
11
  6
CONTINUOUS
 62
     7
  5
2B1
 10
949711.788
 20
7251886.193
 30
0.0
 40
8.0
  1
20'
 50
88.1831
  7
txt
 72
     4
 11
949708.094575
 21
7251895.920993
 31
0.0
210
0.0
220
0.0
230
1.0
  0
TEXT
  8
11
  6
CONTINUOUS
 62
     7
  5
2B2
 10
949707.594
 20
7251962.23
 30
0.0
 40
8.0
  1
119'
 50
88.1831
  7
txt
 72
     4
 11
949703.932534
 21
7251972.965486
 31
0.0
210
0.0
220
0.0
230
1.0
  0
TEXT
  8
11
  6
CONTINUOUS
 62
     7
  5
2B3
 10
949857.935
 20
7251953.272
 30
0.0
 40
8.0
  1
134'
 50
88.1831
  7
txt
 72
     4
 11
949854.330445
 21
7251965.801584
 31
0.0
210
0.0
220
0.0
230
1.0
  0
TEXT
  8
11
  6
CONTINUOUS
 62
     7
  5
2B4
 10
950099.104
 20
7251940.672
 30
0.0
 40
8.0
  1
195'
 50
88.1831
  7
txt
 72
     4
 11
950095.487429
 21
7251952.822774
 31
0.0
210
0.0
220
0.0
230
1.0
  0
TEXT
  8
11
  6
CONTINUOUS
 62
     7
  5
2B5
 10
950123.957
 20
7251866.689
 30
0.0
 40
8.0
  1
70'
 50
341.6815
  7
txt
 72
     4
 11
950134.362832
 21
7251867.457397
 31
0.0
210
0.0
220
0.0
230
1.0
  0
TEXT
  8
11
  6
CONTINUOUS
 62
     7
  5
2B6
 10
950090.28
 20
7251863.898
 30
0.0
 40
8.0
  1
S73%%d29'54"E
 50
341.6815
  7
txt
 72
     4
 11
950129.11334
 21
7251855.254713
 31
0.0
210
0.0
220
0.0
230
1.0
  0
TEXT
  8
11
  6
CONTINUOUS
 62
     7
  5
2B7
 10
949877.611
 20
7251871.737
 30
0.0
 40
8.0
  1
408'
 50
358.1831
  7
txt
 72
     4
 11
949891.525887
 21
7251875.297611
 31
0.0
210
0.0
220
0.0
230
1.0
  0
TEXT
  8
11
  6
CONTINUOUS
 62
     7
  5
2B8
 10
950302.168
 20
7251837.939
 30
0.0
 40
8.0
  1
155.16'
 50
358.1831
  7
txt
 72
     4
 11
950322.913451
 21
7251841.282935
 31
0.0
210
0.0
220
0.0
230
1.0
  0
TEXT
  8
11
  6
CONTINUOUS
 62
     7
  5
2B9
 10
950541.63
 20
7251829.51
 30
0.0
 40
8.0
  1
255'
 50
358.1831
  7
txt
 72
     4
 11
950555.387966
 21
7251833.075588
 31
0.0
210
0.0
220
0.0
230
1.0
  0
TEXT
  8
11
  6
CONTINUOUS
 62
     7
  5
2BA
 10
950894.104
 20
7251817.862
 30
0.0
 40
8.0
  1
270'
 50
358.1831
  7
txt
 72
     4
 11
950907.860966
 21
7251821.42762
 31
0.0
210
0.0
220
0.0
230
1.0
  0
TEXT
  8
11
  6
CONTINUOUS
 62
     7
  5
2BB
 10
950888.757
 20
7251722.407
 30
0.0
 40
8.0
  1
280'
 50
358.1831
  7
txt
 72
     4
 11
950902.482982
 21
7251725.973603
 31
0.0
210
0.0
220
0.0
230
1.0
  0
TEXT
  8
11
  6
CONTINUOUS
 62
     7
  5
2BC
 10
950541.221
 20
7251731.485
 30
0.0
 40
8.0
  1
265'
 50
358.1831
  7
txt
 72
     4
 11
950554.789061
 21
7251735.056612
 31
0.0
210
0.0
220
0.0
230
1.0
  0
TEXT
  8
11
  6
CONTINUOUS
 62
     7
  5
2BD
 10
949804.2
 20
7250780.898
 30
0.0
 40
8.0
  1
399.56'
 50
358.1831
  7
txt
 72
     4
 11
949827.400216
 21
7250784.164066
 31
0.0
210
0.0
220
0.0
230
1.0
  0
TEXT
  8
11
  6
CONTINUOUS
 62
     7
  5
2BE
 10
950200.348
 20
7250768.779
 30
0.0
 40
8.0
  1
334.96'
 50
358.1831
  7
txt
 72
     4
 11
950223.927026
 21
7250772.033049
 31
0.0
210
0.0
220
0.0
230
1.0
  0
TEXT
  8
11
  6
CONTINUOUS
 62
     7
  5
2BF
 10
950519.912
 20
7250757.946
 30
0.0
 40
8.0
  1
285'
 50
358.1831
  7
txt
 72
     4
 11
950533.669966
 21
7250761.511588
 31
0.0
210
0.0
220
0.0
230
1.0
  0
TEXT
  8
11
  6
CONTINUOUS
 62
     7
  5
2C0
 10
950801.472
 20
7250751.141
 30
0.0
 40
8.0
  1
265'
 50
358.1831
  7
txt
 72
     4
 11
950815.040061
 21
7250754.712612
 31
0.0
210
0.0
220
0.0
230
1.0
  0
TEXT
  8
11
  6
CONTINUOUS
 62
     7
  5
2C1
 10
950970.039
 20
7250745.834
 30
0.0
 40
8.0
  1
50'
 50
358.1831
  7
txt
 72
     4
 11
950979.766993
 21
7250749.527425
 31
0.0
210
0.0
220
0.0
230
1.0
  0
TEXT
  8
11
  6
CONTINUOUS
 62
     7
  5
2C2
 10
951018.557
 20
7250766.418
 30
0.0
 40
8.0
  1
20'
 50
358.1831
  7
txt
 72
     4
 11
951028.284993
 21
7250770.111425
 31
0.0
210
0.0
220
0.0
230
1.0
  0
TEXT
  8
11
  6
CONTINUOUS
 62
     7
  5
2C3
 10
950882.206
 20
7251360.55
 30
0.0
 40
8.0
  1
280'
 50
358.1831
  7
txt
 72
     4
 11
950895.931982
 21
7251364.116603
 31
0.0
210
0.0
220
0.0
230
1.0
  0
TEXT
  8
11
  6
CONTINUOUS
 62
     7
  5
2C4
 10
950498.793
 20
7251012.654
 30
0.0
 40
8.0
  1
190'
 50
358.1831
  7
txt
 72
     4
 11
950510.91279
 21
7251016.271554
 31
0.0
210
0.0
220
0.0
230
1.0
  0
TEXT
  8
11
  6
CONTINUOUS
 62
     7
  5
2C5
 10
950279.502
 20
7251020.994
 30
0.0
 40
8.0
  1
219.52'
 50
358.1831
  7
txt
 72
     4
 11
950301.663739
 21
7251024.293008
 31
0.0
210
0.0
220
0.0
230
1.0
  0
TEXT
  8
11
  6
CONTINUOUS
 62
     7
  5
2C6
 10
950246.676
 20
7251382.293
 30
0.0
 40
8.0
  1
294.52'
 50
358.1831
  7
txt
 72
     4
 11
950270.443931
 21
7251385.541057
 31
0.0
210
0.0
220
0.0
230
1.0
  0
TEXT
  8
11
  6
CONTINUOUS
 62
     7
  5
2C7
 10
950256.816
 20
7251112.785
 30
0.0
 40
8.0
  1
219.52'
 50
358.1831
  7
txt
 72
     4
 11
950278.977739
 21
7251116.084008
 31
0.0
210
0.0
220
0.0
230
1.0
  0
TEXT
  8
11
  6
CONTINUOUS
 62
     7
  5
2C8
 10
950512.687
 20
7251106.092
 30
0.0
 40
8.0
  1
190'
 50
358.1831
  7
txt
 72
     4
 11
950524.80679
 21
7251109.709554
 31
0.0
210
0.0
220
0.0
230
1.0
  0
TEXT
  8
11
  6
CONTINUOUS
 62
     7
  5
2C9
 10
950531.127
 20
7251374.454
 30
0.0
 40
8.0
  1
265'
 50
358.1831
  7
txt
 72
     4
 11
950544.695061
 21
7251378.025612
 31
0.0
210
0.0
220
0.0
230
1.0
  0
TEXT
  8
11
  6
CONTINUOUS
 62
     7
  5
2CA
 10
950762.821
 20
7251240.59
 30
0.0
 40
8.0
  1
195'
 50
88.1831
  7
txt
 72
     4
 11
950759.204429
 21
7251252.740774
 31
0.0
210
0.0
220
0.0
230
1.0
  0
TEXT
  8
11
  6
CONTINUOUS
 62
     7
  5
2CB
 10
951023.975
 20
7251135.74
 30
0.0
 40
8.0
  1
379.72'
 50
88.1831
  7
txt
 72
     4
 11
951020.722916
 21
7251159.380995
 31
0.0
210
0.0
220
0.0
230
1.0
  0
TEXT
  8
11
  6
CONTINUOUS
 62
     7
  5
2CC
 10
951008.82
 20
7250864.355
 30
0.0
 40
8.0
  1
225.23'
 50
88.1831
  7
txt
 72
     4
 11
951005.571975
 21
7250888.12393
 31
0.0
210
0.0
220
0.0
230
1.0
  0
TEXT
  8
11
  6
CONTINUOUS
 62
     7
  5
2CD
 10
950672.826
 20
7251229.215
 30
0.0
 40
8.0
  1
195'
 50
88.1831
  7
txt
 72
     4
 11
950669.209429
 21
7251241.365774
 31
0.0
210
0.0
220
0.0
230
1.0
  0
TEXT
  8
11
  6
CONTINUOUS
 62
     7
  5
2CE
 10
950110.453
 20
7251259.217
 30
0.0
 40
8.0
  1
195'
 50
88.1831
  7
txt
 72
     4
 11
950106.836429
 21
7251271.367774
 31
0.0
210
0.0
220
0.0
230
1.0
  0
TEXT
  8
11
  6
CONTINUOUS
 62
     7
  5
2CF
 10
950389.574
 20
7251247.89
 30
0.0
 40
8.0
  1
270'
 50
88.1831
  7
txt
 72
     4
 11
950386.00838
 21
7251261.646966
 31
0.0
210
0.0
220
0.0
230
1.0
  0
TEXT
  8
11
  6
CONTINUOUS
 62
     7
  5
2D0
 10
950421.884
 20
7251235.939
 30
0.0
 40
8.0
  1
270'
 50
88.1831
  7
txt
 72
     4
 11
950418.31838
 21
7251249.695966
 31
0.0
210
0.0
220
0.0
230
1.0
  0
TEXT
  8
11
  6
CONTINUOUS
 62
     7
  5
2D1
 10
950019.113
 20
7251264.435
 30
0.0
 40
8.0
  1
150'
 50
88.1831
  7
txt
 72
     4
 11
950015.501439
 21
7251276.743695
 31
0.0
210
0.0
220
0.0
230
1.0
  0
TEXT
  8
11
  6
CONTINUOUS
 62
     7
  5
2D2
 10
949671.391
 20
7251263.979
 30
0.0
 40
8.0
  1
150.04'
 50
88.1831
  7
txt
 72
     4
 11
949668.102011
 21
7251286.45658
 31
0.0
210
0.0
220
0.0
230
1.0
  0
TEXT
  8
11
  6
CONTINUOUS
 62
     7
  5
2D3
 10
949680.303
 20
7251414.093
 30
0.0
 40
8.0
  1
150.04'
 50
88.1831
  7
txt
 72
     4
 11
949677.014011
 21
7251436.57058
 31
0.0
210
0.0
220
0.0
230
1.0
  0
TEXT
  8
11
  6
CONTINUOUS
 62
     7
  5
2D4
 10
950022.553
 20
7251389.857
 30
0.0
 40
8.0
  1
150.04'
 50
88.1831
  7
txt
 72
     4
 11
950019.264011
 21
7251412.33458
 31
0.0
210
0.0
220
0.0
230
1.0
  0
TEXT
  8
11
  6
CONTINUOUS
 62
     7
  5
2D5
 10
949656.848
 20
7250966.959
 30
0.0
 40
8.0
  1
440.06'
 50
88.1831
  7
txt
 72
     4
 11
949653.603906
 21
7250990.851868
 31
0.0
210
0.0
220
0.0
230
1.0
  0
TEXT
  8
11
  6
CONTINUOUS
 62
     7
  5
2D6
 10
950060.516
 20
7250884.68
 30
0.0
 40
8.0
  1
337.70'
 50
88.1831
  7
txt
 72
     4
 11
950057.268926
 21
7250908.478915
 31
0.0
210
0.0
220
0.0
230
1.0
  0
TEXT
  8
11
  6
CONTINUOUS
 62
     7
  5
2D7
 10
950376.385
 20
7250866.858
 30
0.0
 40
8.0
  1
259.93'
 50
88.1831
  7
txt
 72
     4
 11
950373.124926
 21
7250890.247121
 31
0.0
210
0.0
220
0.0
230
1.0
  0
TEXT
  8
11
  6
CONTINUOUS
 62
     7
  5
2D8
 10
950413.635
 20
7250863.69
 30
0.0
 40
8.0
  1
259.93'
 50
88.1831
  7
txt
 72
     4
 11
950410.374926
 21
7250887.079121
 31
0.0
210
0.0
220
0.0
230
1.0
  0
TEXT
  8
11
  6
CONTINUOUS
 62
     7
  5
2D9
 10
949704.82
 20
7250759.09
 30
0.0
 40
8.0
  1
20'
 50
88.1831
  7
txt
 72
     4
 11
949701.126575
 21
7250768.817993
 31
0.0
210
0.0
220
0.0
230
1.0
  0
TEXT
  8
11
  6
CONTINUOUS
 62
     7
  5
2DA
 10
950662.5
 20
7251113.927
 30
0.0
 40
8.0
  1
R=75'
 50
55.342761
  7
txt
 72
     4
 11
950668.845198
 21
7251130.139267
 31
0.0
210
0.0
220
0.0
230
1.0
  0
TEXT
  8
11
  6
CONTINUOUS
 62
     7
  5
2DB
 10
950696.67
 20
7251059.094
 30
0.0
 40
8.0
  1
R=150'
 50
47.455136
  7
txt
 72
     4
 11
950706.883928
 21
7251076.138734
 31
0.0
210
0.0
220
0.0
230
1.0
  0
TEXT
  8
11
  6
CONTINUOUS
 62
     7
  5
2DC
 10
950052.153
 20
7251094.919
 30
0.0
 40
8.0
  1
R=150'
 50
320.122558
  7
txt
 72
     4
 11
950069.654607
 21
7251085.509375
 31
0.0
210
0.0
220
0.0
230
1.0
  0
TEXT
  8
11
  6
CONTINUOUS
 62
     7
  5
2DD
 10
950344.862
 20
7251057.154
 30
0.0
 40
8.0
  1
75'
 50
88.1831
  7
txt
 72
     4
 11
950341.170572
 21
7251066.944961
 31
0.0
210
0.0
220
0.0
230
1.0
  0
TEXT
  8
11
  6
CONTINUOUS
 62
     7
  5
2DE
 10
950700.628
 20
7251184.572
 30
0.0
 40
8.0
  1
75'
 50
358.1831
  7
txt
 72
     4
 11
950710.418961
 21
7251188.263428
 31
0.0
210
0.0
220
0.0
230
1.0
  0
TEXT
  8
11
  6
CONTINUOUS
 62
     7
  5
2DF
 10
950051.288
 20
7251195.956
 30
0.0
 40
8.0
  1
75'
 50
358.1831
  7
txt
 72
     4
 11
950061.078961
 21
7251199.647428
 31
0.0
210
0.0
220
0.0
230
1.0
  0
TEXT
  8
11
  6
CONTINUOUS
 62
     7
  5
2E0
 10
949809.271
 20
7251218.461
 30
0.0
 40
8.0
  1
364.51'
 50
358.1831
  7
txt
 72
     4
 11
949831.622643
 21
7251221.753984
 31
0.0
210
0.0
220
0.0
230
1.0
  0
TEXT
  8
11
  6
CONTINUOUS
 62
     7
  5
2E1
 10
949826.209
 20
7251353.832
 30
0.0
 40
8.0
  1
364.51'
 50
358.1831
  7
txt
 72
     4
 11
949848.560643
 21
7251357.124984
 31
0.0
210
0.0
220
0.0
230
1.0
  0
TEXT
  8
11
  6
CONTINUOUS
 62
     7
  5
2E2
 10
949834.919
 20
7251520.91
 30
0.0
 40
8.0
  1
364.51'
 50
358.1831
  7
txt
 72
     4
 11
949857.270643
 21
7251524.202984
 31
0.0
210
0.0
220
0.0
230
1.0
  0
TEXT
  8
11
  6
CONTINUOUS
 62
     7
  5
2E3
 10
950810.169
 20
7251095.198
 30
0.0
 40
8.0
  1
N62%%d16'18"W   321.23'
 50
330.454731
  7
txt
 72
     4
 11
950878.799137
 21
7251060.895202
 31
0.0
210
0.0
220
0.0
230
1.0
  0
TEXT
  8
11
  6
CONTINUOUS
 62
     7
  5
2E4
 10
950755.271
 20
7250980.868
 30
0.0
 40
8.0
  1
N42%%d05'15"    409.76'
 50
310.266514
  7
txt
 72
     4
 11
950804.772045
 21
7250928.617823
 31
0.0
210
0.0
220
0.0
230
1.0
  0
TEXT
  8
11
  6
CONTINUOUS
 62
     7
  5
2E5
 10
950618.802
 20
7250970.559
 30
0.0
 40
8.0
  1
N19%%d56'59"W     287.18'
 50
288.132983
  7
txt
 72
     4
 11
950650.037081
 21
7250888.033612
 31
0.0
210
0.0
220
0.0
230
1.0
  0
TEXT
  8
11
  6
CONTINUOUS
 62
     7
  5
2E6
 10
950888.818
 20
7251607.63
 30
0.0
 40
8.0
  1
280'
 50
358.1831
  7
txt
 72
     4
 11
950902.543982
 21
7251611.196603
 31
0.0
210
0.0
220
0.0
230
1.0
  0
TEXT
  8
11
  6
CONTINUOUS
 62
     7
  5
2E7
 10
950880.453
 20
7251495.03
 30
0.0
 40
8.0
  1
280'
 50
358.1831
  7
txt
 72
     4
 11
950894.178982
 21
7251498.596603
 31
0.0
210
0.0
220
0.0
230
1.0
  0
TEXT
  8
11
  6
CONTINUOUS
 62
     7
  5
2E8
 10
950536.68
 20
7251617.827
 30
0.0
 40
8.0
  1
265'
 50
358.1831
  7
txt
 72
     4
 11
950550.248061
 21
7251621.398612
 31
0.0
210
0.0
220
0.0
230
1.0
  0
TEXT
  8
11
  6
CONTINUOUS
 62
     7
  5
2E9
 10
950528.391
 20
7251505.147
 30
0.0
 40
8.0
  1
265'
 50
358.1831
  7
txt
 72
     4
 11
950541.959061
 21
7251508.718612
 31
0.0
210
0.0
220
0.0
230
1.0
  0
TEXT
  8
11
  6
CONTINUOUS
 62
     7
  5
2EA
 10
951042.876
 20
7251733.103
 30
0.0
 40
8.0
  1
102.5'
 50
88.1831
  7
txt
 72
     4
 11
951039.455179
 21
7251751.42467
 31
0.0
210
0.0
220
0.0
230
1.0
  0
TEXT
  8
11
  6
CONTINUOUS
 62
     7
  5
2EB
 10
950780.255
 20
7251762.214
 30
0.0
 40
8.0
  1
112.5'
 50
88.1831
  7
txt
 72
     4
 11
950776.790235
 21
7251779.150367
 31
0.0
210
0.0
220
0.0
230
1.0
  0
TEXT
  8
11
  6
CONTINUOUS
 62
     7
  5
2EC
 10
950777.491
 20
7251645.616
 30
0.0
 40
8.0
  1
112.5'
 50
88.1831
  7
txt
 72
     4
 11
950774.026235
 21
7251662.552367
 31
0.0
210
0.0
220
0.0
230
1.0
  0
TEXT
  8
11
  6
CONTINUOUS
 62
     7
  5
2ED
 10
950773.275
 20
7251528.087
 30
0.0
 40
8.0
  1
112.5'
 50
88.1831
  7
txt
 72
     4
 11
950769.810235
 21
7251545.023367
 31
0.0
210
0.0
220
0.0
230
1.0
  0
TEXT
  8
11
  6
CONTINUOUS
 62
     7
  5
2EE
 10
950770.271
 20
7251403.9
 30
0.0
 40
8.0
  1
132.5'
 50
88.1831
  7
txt
 72
     4
 11
950766.851194
 21
7251422.253654
 31
0.0
210
0.0
220
0.0
230
1.0
  0
TEXT
  8
11
  6
CONTINUOUS
 62
     7
  5
2EF
 10
950688.782
 20
7251763.207
 30
0.0
 40
8.0
  1
112.5'
 50
88.1831
  7
txt
 72
     4
 11
950685.317235
 21
7251780.143367
 31
0.0
210
0.0
220
0.0
230
1.0
  0
TEXT
  8
11
  6
CONTINUOUS
 62
     7
  5
2F0
 10
950684.193
 20
7251648.049
 30
0.0
 40
8.0
  1
112.5'
 50
88.1831
  7
txt
 72
     4
 11
950680.728235
 21
7251664.985367
 31
0.0
210
0.0
220
0.0
230
1.0
  0
TEXT
  8
11
  6
CONTINUOUS
 62
     7
  5
2F1
 10
950682.754
 20
7251543.727
 30
0.0
 40
8.0
  1
112.5'
 50
88.1831
  7
txt
 72
     4
 11
950679.289235
 21
7251560.663367
 31
0.0
210
0.0
220
0.0
230
1.0
  0
TEXT
  8
11
  6
CONTINUOUS
 62
     7
  5
2F2
 10
950677.953
 20
7251407.763
 30
0.0
 40
8.0
  1
132.5'
 50
88.1831
  7
txt
 72
     4
 11
950674.533194
 21
7251426.116654
 31
0.0
210
0.0
220
0.0
230
1.0
  0
TEXT
  8
11
  6
CONTINUOUS
 62
     7
  5
2F3
 10
950439.666
 20
7251769.722
 30
0.0
 40
8.0
  1
102.5'
 50
88.1831
  7
txt
 72
     4
 11
950436.245179
 21
7251788.04367
 31
0.0
210
0.0
220
0.0
230
1.0
  0
TEXT
  8
11
  6
CONTINUOUS
 62
     7
  5
2F4
 10
950114.014
 20
7251436.503
 30
0.0
 40
8.0
  1
125'
 50
88.1831
  7
txt
 72
     4
 11
950110.403453
 21
7251448.843679
 31
0.0
210
0.0
220
0.0
230
1.0
  0
TEXT
  8
11
  6
CONTINUOUS
 62
     7
  5
2F5
 10
950396.449
 20
7251496.063
 30
0.0
 40
8.0
  1
245'
 50
88.1831
  7
txt
 72
     4
 11
950392.889372
 21
7251510.008871
 31
0.0
210
0.0
220
0.0
230
1.0
  0
TEXT
  8
11
  6
CONTINUOUS
 62
     7
  5
2F6
 10
950402.357
 20
7251720.074
 30
0.0
 40
8.0
  1
215'
 50
88.1831
  7
txt
 72
     4
 11
950398.746453
 21
7251732.414679
 31
0.0
210
0.0
220
0.0
230
1.0
  0
TEXT
  8
11
  6
CONTINUOUS
 62
     7
  5
2F7
 10
950407.827
 20
7251806.248
 30
0.0
 40
8.0
  1
20'
 50
358.1831
  7
txt
 72
     4
 11
950417.554993
 21
7251809.941425
 31
0.0
210
0.0
220
0.0
230
1.0
  0
TEXT
  8
11
  6
CONTINUOUS
 62
     7
  5
2F8
 10
950390.659
 20
7251117.651
 30
0.0
 40
8.0
  1
20'
 50
358.1831
  7
txt
 72
     4
 11
950400.386993
 21
7251121.344425
 31
0.0
210
0.0
220
0.0
230
1.0
  0
TEXT
  8
11
  6
CONTINUOUS
 62
     7
  5
2F9
 10
950270.682
 20
7251627.315
 30
0.0
 40
8.0
  1
259.83'
 50
358.1831
  7
txt
 72
     4
 11
950294.261026
 21
7251630.569049
 31
0.0
210
0.0
220
0.0
230
1.0
  0
TEXT
  8
11
  6
CONTINUOUS
 62
     7
  5
2FA
 10
949863.327
 20
7251700.529
 30
0.0
 40
8.0
  1
413.09'
 50
358.1831
  7
txt
 72
     4
 11
949885.646659
 21
7251703.822998
 31
0.0
210
0.0
220
0.0
230
1.0
  0
TEXT
  8
11
  6
CONTINUOUS
 62
     7
  5
2FB
 10
949699.709
 20
7251763.966
 30
0.0
 40
8.0
  1
185.06'
 50
88.1831
  7
txt
 72
     4
 11
949696.408977
 21
7251786.095755
 31
0.0
210
0.0
220
0.0
230
1.0
  0
TEXT
  8
11
  6
CONTINUOUS
 62
     7
  5
2FC
 10
949692.057
 20
7251583.33
 30
0.0
 40
8.0
  1
180.05'
 50
88.1831
  7
txt
 72
     4
 11
949688.761987
 21
7251605.617675
 31
0.0
210
0.0
220
0.0
230
1.0
  0
TEXT
  8
11
  6
CONTINUOUS
 62
     7
  5
2FD
 10
950047.151
 20
7251570.088
 30
0.0
 40
8.0
  1
R=299.88'
 50
67.513547
  7
txt
 72
     4
 11
950055.139425
 21
7251599.845143
 31
0.0
210
0.0
220
0.0
230
1.0
  0
TEXT
  8
11
  6
CONTINUOUS
 62
     7
  5
2FE
 10
950039.0
 20
7251578.953
 30
0.0
 40
8.0
  1
CH=189.75'
 50
70.5169
  7
txt
 72
     4
 11
950046.416263
 21
7251611.908497
 31
0.0
210
0.0
220
0.0
230
1.0
  0
TEXT
  8
11
  6
CONTINUOUS
 62
     7
  5
2FF
 10
950124.084
 20
7251704.213
 30
0.0
 40
8.0
  1
R=224.88'
 50
54.684142
  7
txt
 72
     4
 11
950138.808892
 21
7251731.916926
 31
0.0
210
0.0
220
0.0
230
1.0
  0
TEXT
  8
11
  6
CONTINUOUS
 62
     7
  5
300
 10
950132.698
 20
7251736.038
 30
0.0
 40
8.0
  1
CH=157.90'
 50
64.513756
  7
txt
 72
     4
 11
950143.506411
 21
7251768.008273
 31
0.0
210
0.0
220
0.0
230
1.0
  0
TEXT
  8
11
  6
CONTINUOUS
 62
     7
  5
301
 10
950212.295
 20
7251721.564
 30
0.0
 40
8.0
  1
R=299.88'
 50
69.338994
  7
txt
 72
     4
 11
950219.331467
 21
7251751.56051
 31
0.0
210
0.0
220
0.0
230
1.0
  0
TEXT
  8
11
  6
CONTINUOUS
 62
     7
  5
302
 10
950219.035
 20
7251703.203
 30
0.0
 40
8.0
  1
CH=210.56'
 50
69.018097
  7
txt
 72
     4
 11
950227.288154
 21
7251735.894419
 31
0.0
210
0.0
220
0.0
230
1.0
  0
TEXT
  8
11
  6
CONTINUOUS
 62
     7
  5
303
 10
950105.403
 20
7251536.679
 30
0.0
 40
8.0
  1
R=224.88'
 50
74.704764
  7
txt
 72
     4
 11
950109.753388
 21
7251567.749952
 31
0.0
210
0.0
220
0.0
230
1.0
  0
TEXT
  8
11
  6
CONTINUOUS
 62
     7
  5
304
 10
950116.087
 20
7251528.686
 30
0.0
 40
8.0
  1
CH=124.91'
 50
72.503014
  7
txt
 72
     4
 11
950121.977834
 21
7251560.677024
 31
0.0
210
0.0
220
0.0
230
1.0
  0
TEXT
  8
11
  6
CONTINUOUS
 62
     7
  5
305
 10
951050.103
 20
7251790.406
 30
0.0
 40
8.0
  1
20'
 50
358.1831
  7
txt
 72
     4
 11
951059.830993
 21
7251794.099425
 31
0.0
210
0.0
220
0.0
230
1.0
  0
TEXT
  8
11
  6
CONTINUOUS
 62
     7
  5
306
 10
950386.672
 20
7250992.547
 30
0.0
 40
8.0
  1
20'
 50
358.1831
  7
txt
 72
     4
 11
950396.399993
 21
7250996.240425
 31
0.0
210
0.0
220
0.0
230
1.0
  0
TEXT
  8
11
  6
CONTINUOUS
 62
     7
  5
307
 10
949941.48
 20
7252021.098
 30
0.0
 40
8.0
  1
273.84'
 50
358.1831
  7
txt
 72
     4
 11
949965.46882
 21
7252024.33905
 31
0.0
210
0.0
220
0.0
230
1.0
  0
TEXT
  8
10
  6
CONTINUOUS
 62
   134
  5
309
 10
949012.587
 20
7251902.405
 30
0.0
 40
24.0
  1
1
 50
358.1831
  7
ROMANC
 72
     4
 11
949018.066902
 21
7251914.237205
 31
0.0
210
0.0
220
0.0
230
1.0
  0
TEXT
  8
10
  6
CONTINUOUS
 62
   134
  5
30A
 10
948424.995
 20
7251921.045
 30
0.0
 40
24.0
  1
2
 50
358.1831
  7
ROMANC
 72
     4
 11
948433.403429
 21
7251932.784308
 31
0.0
210
0.0
220
0.0
230
1.0
  0
TEXT
  8
10
  6
CONTINUOUS
 62
   134
  5
30B
 10
947737.042
 20
7251942.867
 30
0.0
 40
24.0
  1
3
 50
358.1831
  7
ROMANC
 72
     4
 11
947745.450429
 21
7251954.606308
 31
0.0
210
0.0
220
0.0
230
1.0
  0
TEXT
  8
10
  6
CONTINUOUS
 62
   134
  5
30C
 10
947103.852
 20
7251962.954
 30
0.0
 40
24.0
  1
4
 50
358.1831
  7
ROMANC
 72
     4
 11
947113.393859
 21
7251974.657354
 31
0.0
210
0.0
220
0.0
230
1.0
  0
TEXT
  8
10
  6
CONTINUOUS
 62
   134
  5
30D
 10
947093.795
 20
7251610.17
 30
0.0
 40
24.0
  1
5
 50
358.1831
  7
ROMANC
 72
     4
 11
947102.203429
 21
7251621.909308
 31
0.0
210
0.0
220
0.0
230
1.0
  0
TEXT
  8
10
  6
CONTINUOUS
 62
   134
  5
30E
 10
947768.849
 20
7251588.757
 30
0.0
 40
24.0
  1
6
 50
358.1831
  7
ROMANC
 72
     4
 11
947777.257429
 21
7251600.496308
 31
0.0
210
0.0
220
0.0
230
1.0
  0
TEXT
  8
10
  6
CONTINUOUS
 62
   134
  5
30F
 10
948400.906
 20
7251568.707
 30
0.0
 40
24.0
  1
7
 50
358.1831
  7
ROMANC
 72
     4
 11
948409.314429
 21
7251580.446308
 31
0.0
210
0.0
220
0.0
230
1.0
  0
TEXT
  8
10
  6
CONTINUOUS
 62
   134
  5
310
 10
948951.268
 20
7251551.249
 30
0.0
 40
24.0
  1
8
 50
358.1831
  7
ROMANC
 72
     4
 11
948959.676429
 21
7251562.988308
 31
0.0
210
0.0
220
0.0
230
1.0
  0
TEXT
  8
15
  6
CONTINUOUS
 62
    30
  5
312
 10
947091.234
 20
7251884.741
 30
0.0
 40
34.999
  1
RHOADES
 50
28.1831
  7
ROMANC
 72
     4
 11
947199.559113
 21
7251962.637097
 31
0.0
210
0.0
220
0.0
230
1.0
  0
TEXT
  8
15
  6
CONTINUOUS
 62
    30
  5
313
 10
947768.449
 20
7251526.988
 30
0.0
 40
34.999
  1
HEIGHTS
 50
28.1831
  7
ROMANC
 72
     4
 11
947870.94425
 21
7251601.760366
 31
0.0
210
0.0
220
0.0
230
1.0
  0
TEXT
  8
11
  6
CONTINUOUS
 62
     7
  5
314
 10
946912.504
 20
7252111.298
 30
0.0
 40
8.0
  1
75'
 50
358.1831
  7
txt
 72
     4
 11
946922.294961
 21
7252114.989428
 31
0.0
210
0.0
220
0.0
230
1.0
  0
TEXT
  8
11
  6
CONTINUOUS
 62
     7
  5
315
 10
946985.172
 20
7252109.073
 30
0.0
 40
8.0
  1
75'
 50
358.1831
  7
txt
 72
     4
 11
946994.962961
 21
7252112.764428
 31
0.0
210
0.0
220
0.0
230
1.0
  0
TEXT
  8
11
  6
CONTINUOUS
 62
     7
  5
316
 10
947062.474
 20
7252106.925
 30
0.0
 40
8.0
  1
75'
 50
358.1831
  7
txt
 72
     4
 11
947072.264961
 21
7252110.616428
 31
0.0
210
0.0
220
0.0
230
1.0
  0
TEXT
  8
11
  6
CONTINUOUS
 62
     7
  5
317
 10
947135.313
 20
7252086.893
 30
0.0
 40
8.0
  1
75'
 50
358.1831
  7
txt
 72
     4
 11
947145.103961
 21
7252090.584428
 31
0.0
210
0.0
220
0.0
230
1.0
  0
TEXT
  8
11
  6
CONTINUOUS
 62
     7
  5
318
 10
947208.062
 20
7252084.586
 30
0.0
 40
8.0
  1
75'
 50
358.1831
  7
txt
 72
     4
 11
947217.852961
 21
7252088.277428
 31
0.0
210
0.0
220
0.0
230
1.0
  0
TEXT
  8
11
  6
CONTINUOUS
 62
     7
  5
319
 10
947285.05
 20
7252082.143
 30
0.0
 40
8.0
  1
75'
 50
358.1831
  7
txt
 72
     4
 11
947294.840961
 21
7252085.834428
 31
0.0
210
0.0
220
0.0
230
1.0
  0
TEXT
  8
11
  6
CONTINUOUS
 62
     7
  5
31A
 10
947571.755
 20
7252091.534
 30
0.0
 40
8.0
  1
75'
 50
358.1831
  7
txt
 72
     4
 11
947581.545961
 21
7252095.225428
 31
0.0
210
0.0
220
0.0
230
1.0
  0
TEXT
  8
11
  6
CONTINUOUS
 62
     7
  5
31B
 10
947644.013
 20
7252088.456
 30
0.0
 40
8.0
  1
75'
 50
358.1831
  7
txt
 72
     4
 11
947653.803961
 21
7252092.147428
 31
0.0
210
0.0
220
0.0
230
1.0
  0
TEXT
  8
11
  6
CONTINUOUS
 62
     7
  5
31C
 10
947717.971
 20
7252068.673
 30
0.0
 40
8.0
  1
75'
 50
358.1831
  7
txt
 72
     4
 11
947727.761961
 21
7252072.364428
 31
0.0
210
0.0
220
0.0
230
1.0
  0
TEXT
  8
11
  6
CONTINUOUS
 62
     7
  5
31D
 10
947788.4
 20
7252065.945
 30
0.0
 40
8.0
  1
75'
 50
358.1831
  7
txt
 72
     4
 11
947798.190961
 21
7252069.636428
 31
0.0
210
0.0
220
0.0
230
1.0
  0
TEXT
  8
11
  6
CONTINUOUS
 62
     7
  5
31E
 10
947873.618
 20
7252080.503
 30
0.0
 40
8.0
  1
75'
 50
358.1831
  7
txt
 72
     4
 11
947883.408961
 21
7252084.194428
 31
0.0
210
0.0
220
0.0
230
1.0
  0
TEXT
  8
11
  6
CONTINUOUS
 62
     7
  5
31F
 10
947945.521
 20
7252078.682
 30
0.0
 40
8.0
  1
75'
 50
358.1831
  7
txt
 72
     4
 11
947955.311961
 21
7252082.373428
 31
0.0
210
0.0
220
0.0
230
1.0
  0
TEXT
  8
11
  6
CONTINUOUS
 62
     7
  5
320
 10
948022.367
 20
7252075.108
 30
0.0
 40
8.0
  1
80'
 50
358.1831
  7
txt
 72
     4
 11
948032.094993
 21
7252078.801425
 31
0.0
210
0.0
220
0.0
230
1.0
  0
TEXT
  8
11
  6
CONTINUOUS
 62
     7
  5
321
 10
947428.413
 20
7252099.734
 30
0.0
 40
8.0
  1
50'
 50
358.1831
  7
txt
 72
     4
 11
947438.140993
 21
7252103.427425
 31
0.0
210
0.0
220
0.0
230
1.0
  0
TEXT
  8
11
  6
CONTINUOUS
 62
     7
  5
322
 10
946827.906
 20
7251836.952
 30
0.0
 40
8.0
  1
75'
 50
358.1831
  7
txt
 72
     4
 11
946837.696961
 21
7251840.643428
 31
0.0
210
0.0
220
0.0
230
1.0
  0
TEXT
  8
11
  6
CONTINUOUS
 62
     7
  5
323
 10
946902.775
 20
7251834.577
 30
0.0
 40
8.0
  1
75'
 50
358.1831
  7
txt
 72
     4
 11
946912.565961
 21
7251838.268428
 31
0.0
210
0.0
220
0.0
230
1.0
  0
TEXT
  8
11
  6
CONTINUOUS
 62
     7
  5
324
 10
946976.176
 20
7251832.248
 30
0.0
 40
8.0
  1
75'
 50
358.1831
  7
txt
 72
     4
 11
946985.966961
 21
7251835.939428
 31
0.0
210
0.0
220
0.0
230
1.0
  0
TEXT
  8
11
  6
CONTINUOUS
 62
     7
  5
325
 10
947049.576
 20
7251829.921
 30
0.0
 40
8.0
  1
75'
 50
358.1831
  7
txt
 72
     4
 11
947059.366961
 21
7251833.612428
 31
0.0
210
0.0
220
0.0
230
1.0
  0
TEXT
  8
11
  6
CONTINUOUS
 62
     7
  5
326
 10
947122.977
 20
7251827.592
 30
0.0
 40
8.0
  1
75'
 50
358.1831
  7
txt
 72
     4
 11
947132.767961
 21
7251831.283428
 31
0.0
210
0.0
220
0.0
230
1.0
  0
TEXT
  8
11
  6
CONTINUOUS
 62
     7
  5
327
 10
947200.781
 20
7251825.123
 30
0.0
 40
8.0
  1
75'
 50
358.1831
  7
txt
 72
     4
 11
947210.571961
 21
7251828.814428
 31
0.0
210
0.0
220
0.0
230
1.0
  0
TEXT
  8
11
  6
CONTINUOUS
 62
     7
  5
328
 10
947272.713
 20
7251822.842
 30
0.0
 40
8.0
  1
75'
 50
358.1831
  7
txt
 72
     4
 11
947282.503961
 21
7251826.533428
 31
0.0
210
0.0
220
0.0
230
1.0
  0
TEXT
  8
11
  6
CONTINUOUS
 62
     7
  5
329
 10
947560.444
 20
7251813.714
 30
0.0
 40
8.0
  1
75'
 50
358.1831
  7
txt
 72
     4
 11
947570.234961
 21
7251817.405428
 31
0.0
210
0.0
220
0.0
230
1.0
  0
TEXT
  8
11
  6
CONTINUOUS
 62
     7
  5
32A
 10
947632.376
 20
7251811.433
 30
0.0
 40
8.0
  1
75'
 50
358.1831
  7
txt
 72
     4
 11
947642.166961
 21
7251815.124428
 31
0.0
210
0.0
220
0.0
230
1.0
  0
TEXT
  8
11
  6
CONTINUOUS
 62
     7
  5
32B
 10
947708.713
 20
7251809.011
 30
0.0
 40
8.0
  1
75'
 50
358.1831
  7
txt
 72
     4
 11
947718.503961
 21
7251812.702428
 31
0.0
210
0.0
220
0.0
230
1.0
  0
TEXT
  8
11
  6
CONTINUOUS
 62
     7
  5
32C
 10
947782.113
 20
7251806.683
 30
0.0
 40
8.0
  1
75'
 50
358.1831
  7
txt
 72
     4
 11
947791.903961
 21
7251810.374428
 31
0.0
210
0.0
220
0.0
230
1.0
  0
TEXT
  8
11
  6
CONTINUOUS
 62
     7
  5
32D
 10
947864.322
 20
7251804.076
 30
0.0
 40
8.0
  1
75'
 50
358.1831
  7
txt
 72
     4
 11
947874.112961
 21
7251807.767428
 31
0.0
210
0.0
220
0.0
230
1.0
  0
TEXT
  8
11
  6
CONTINUOUS
 62
     7
  5
32E
 10
947937.722
 20
7251801.747
 30
0.0
 40
8.0
  1
75'
 50
358.1831
  7
txt
 72
     4
 11
947947.512961
 21
7251805.438428
 31
0.0
210
0.0
220
0.0
230
1.0
  0
TEXT
  8
11
  6
CONTINUOUS
 62
     7
  5
32F
 10
947350.535
 20
7251818.903
 30
0.0
 40
8.0
  1
80'
 50
358.1831
  7
txt
 72
     4
 11
947360.262993
 21
7251822.596425
 31
0.0
210
0.0
220
0.0
230
1.0
  0
TEXT
  8
11
  6
CONTINUOUS
 62
     7
  5
330
 10
948015.543
 20
7251797.807
 30
0.0
 40
8.0
  1
80'
 50
358.1831
  7
txt
 72
     4
 11
948025.270993
 21
7251801.500425
 31
0.0
210
0.0
220
0.0
230
1.0
  0
TEXT
  8
11
  6
CONTINUOUS
 62
     7
  5
331
 10
947494.4
 20
7251814.339
 30
0.0
 40
8.0
  1
80'
 50
358.1831
  7
txt
 72
     4
 11
947504.127993
 21
7251818.032425
 31
0.0
210
0.0
220
0.0
230
1.0
  0
TEXT
  8
11
  6
CONTINUOUS
 62
     7
  5
332
 10
947418.244
 20
7251824.013
 30
0.0
 40
8.0
  1
50'
 50
358.1831
  7
txt
 72
     4
 11
947427.971993
 21
7251827.706425
 31
0.0
210
0.0
220
0.0
230
1.0
  0
TEXT
  8
11
  6
CONTINUOUS
 62
     7
  5
333
 10
946825.577
 20
7251763.513
 30
0.0
 40
8.0
  1
75'
 50
358.1831
  7
txt
 72
     4
 11
946835.367961
 21
7251767.204428
 31
0.0
210
0.0
220
0.0
230
1.0
  0
TEXT
  8
11
  6
CONTINUOUS
 62
     7
  5
334
 10
946900.446
 20
7251761.138
 30
0.0
 40
8.0
  1
75'
 50
358.1831
  7
txt
 72
     4
 11
946910.236961
 21
7251764.829428
 31
0.0
210
0.0
220
0.0
230
1.0
  0
TEXT
  8
11
  6
CONTINUOUS
 62
     7
  5
335
 10
946973.846
 20
7251758.809
 30
0.0
 40
8.0
  1
75'
 50
358.1831
  7
txt
 72
     4
 11
946983.636961
 21
7251762.500428
 31
0.0
210
0.0
220
0.0
230
1.0
  0
TEXT
  8
11
  6
CONTINUOUS
 62
     7
  5
336
 10
947047.246
 20
7251756.481
 30
0.0
 40
8.0
  1
75'
 50
358.1831
  7
txt
 72
     4
 11
947057.036961
 21
7251760.172428
 31
0.0
210
0.0
220
0.0
230
1.0
  0
TEXT
  8
11
  6
CONTINUOUS
 62
     7
  5
337
 10
947120.647
 20
7251754.152
 30
0.0
 40
8.0
  1
75'
 50
358.1831
  7
txt
 72
     4
 11
947130.437961
 21
7251757.843428
 31
0.0
210
0.0
220
0.0
230
1.0
  0
TEXT
  8
11
  6
CONTINUOUS
 62
     7
  5
338
 10
947198.452
 20
7251751.685
 30
0.0
 40
8.0
  1
75'
 50
358.1831
  7
txt
 72
     4
 11
947208.242961
 21
7251755.376428
 31
0.0
210
0.0
220
0.0
230
1.0
  0
TEXT
  8
11
  6
CONTINUOUS
 62
     7
  5
339
 10
947270.384
 20
7251749.403
 30
0.0
 40
8.0
  1
75'
 50
358.1831
  7
txt
 72
     4
 11
947280.174961
 21
7251753.094428
 31
0.0
210
0.0
220
0.0
230
1.0
  0
TEXT
  8
11
  6
CONTINUOUS
 62
     7
  5
33A
 10
947558.114
 20
7251740.276
 30
0.0
 40
8.0
  1
75'
 50
358.1831
  7
txt
 72
     4
 11
947567.904961
 21
7251743.967428
 31
0.0
210
0.0
220
0.0
230
1.0
  0
TEXT
  8
11
  6
CONTINUOUS
 62
     7
  5
33B
 10
947630.047
 20
7251737.994
 30
0.0
 40
8.0
  1
75'
 50
358.1831
  7
txt
 72
     4
 11
947639.837961
 21
7251741.685428
 31
0.0
210
0.0
220
0.0
230
1.0
  0
TEXT
  8
11
  6
CONTINUOUS
 62
     7
  5
33C
 10
947706.384
 20
7251735.572
 30
0.0
 40
8.0
  1
75'
 50
358.1831
  7
txt
 72
     4
 11
947716.174961
 21
7251739.263428
 31
0.0
210
0.0
220
0.0
230
1.0
  0
TEXT
  8
11
  6
CONTINUOUS
 62
     7
  5
33D
 10
947779.784
 20
7251733.244
 30
0.0
 40
8.0
  1
75'
 50
358.1831
  7
txt
 72
     4
 11
947789.574961
 21
7251736.935428
 31
0.0
210
0.0
220
0.0
230
1.0
  0
TEXT
  8
11
  6
CONTINUOUS
 62
     7
  5
33E
 10
947861.992
 20
7251730.637
 30
0.0
 40
8.0
  1
75'
 50
358.1831
  7
txt
 72
     4
 11
947871.782961
 21
7251734.328428
 31
0.0
210
0.0
220
0.0
230
1.0
  0
TEXT
  8
11
  6
CONTINUOUS
 62
     7
  5
33F
 10
947935.392
 20
7251728.308
 30
0.0
 40
8.0
  1
75'
 50
358.1831
  7
txt
 72
     4
 11
947945.182961
 21
7251731.999428
 31
0.0
210
0.0
220
0.0
230
1.0
  0
TEXT
  8
11
  6
CONTINUOUS
 62
     7
  5
340
 10
947348.206
 20
7251745.463
 30
0.0
 40
8.0
  1
80'
 50
358.1831
  7
txt
 72
     4
 11
947357.933993
 21
7251749.156425
 31
0.0
210
0.0
220
0.0
230
1.0
  0
TEXT
  8
11
  6
CONTINUOUS
 62
     7
  5
341
 10
948013.214
 20
7251724.368
 30
0.0
 40
8.0
  1
80'
 50
358.1831
  7
txt
 72
     4
 11
948022.941993
 21
7251728.061425
 31
0.0
210
0.0
220
0.0
230
1.0
  0
TEXT
  8
11
  6
CONTINUOUS
 62
     7
  5
342
 10
947492.07
 20
7251740.901
 30
0.0
 40
8.0
  1
80'
 50
358.1831
  7
txt
 72
     4
 11
947501.797993
 21
7251744.594425
 31
0.0
210
0.0
220
0.0
230
1.0
  0
TEXT
  8
11
  6
CONTINUOUS
 62
     7
  5
343
 10
946816.678
 20
7251482.975
 30
0.0
 40
8.0
  1
75'
 50
358.1831
  7
txt
 72
     4
 11
946826.468961
 21
7251486.666428
 31
0.0
210
0.0
220
0.0
230
1.0
  0
TEXT
  8
11
  6
CONTINUOUS
 62
     7
  5
344
 10
946891.547
 20
7251480.601
 30
0.0
 40
8.0
  1
75'
 50
358.1831
  7
txt
 72
     4
 11
946901.337961
 21
7251484.292428
 31
0.0
210
0.0
220
0.0
230
1.0
  0
TEXT
  8
11
  6
CONTINUOUS
 62
     7
  5
345
 10
946964.946
 20
7251478.272
 30
0.0
 40
8.0
  1
75'
 50
358.1831
  7
txt
 72
     4
 11
946974.736961
 21
7251481.963428
 31
0.0
210
0.0
220
0.0
230
1.0
  0
TEXT
  8
11
  6
CONTINUOUS
 62
     7
  5
346
 10
947038.347
 20
7251475.944
 30
0.0
 40
8.0
  1
75'
 50
358.1831
  7
txt
 72
     4
 11
947048.137961
 21
7251479.635428
 31
0.0
210
0.0
220
0.0
230
1.0
  0
TEXT
  8
11
  6
CONTINUOUS
 62
     7
  5
347
 10
947111.748
 20
7251473.615
 30
0.0
 40
8.0
  1
75'
 50
358.1831
  7
txt
 72
     4
 11
947121.538961
 21
7251477.306428
 31
0.0
210
0.0
220
0.0
230
1.0
  0
TEXT
  8
11
  6
CONTINUOUS
 62
     7
  5
348
 10
947189.553
 20
7251471.147
 30
0.0
 40
8.0
  1
75'
 50
358.1831
  7
txt
 72
     4
 11
947199.343961
 21
7251474.838428
 31
0.0
210
0.0
220
0.0
230
1.0
  0
TEXT
  8
11
  6
CONTINUOUS
 62
     7
  5
349
 10
947261.485
 20
7251468.865
 30
0.0
 40
8.0
  1
75'
 50
358.1831
  7
txt
 72
     4
 11
947271.275961
 21
7251472.556428
 31
0.0
210
0.0
220
0.0
230
1.0
  0
TEXT
  8
11
  6
CONTINUOUS
 62
     7
  5
34A
 10
947549.215
 20
7251459.738
 30
0.0
 40
8.0
  1
75'
 50
358.1831
  7
txt
 72
     4
 11
947559.005961
 21
7251463.429428
 31
0.0
210
0.0
220
0.0
230
1.0
  0
TEXT
  8
11
  6
CONTINUOUS
 62
     7
  5
34B
 10
947621.148
 20
7251457.456
 30
0.0
 40
8.0
  1
75'
 50
358.1831
  7
txt
 72
     4
 11
947630.938961
 21
7251461.147428
 31
0.0
210
0.0
220
0.0
230
1.0
  0
TEXT
  8
11
  6
CONTINUOUS
 62
     7
  5
34C
 10
947697.485
 20
7251455.034
 30
0.0
 40
8.0
  1
75'
 50
358.1831
  7
txt
 72
     4
 11
947707.275961
 21
7251458.725428
 31
0.0
210
0.0
220
0.0
230
1.0
  0
TEXT
  8
11
  6
CONTINUOUS
 62
     7
  5
34D
 10
947770.885
 20
7251452.707
 30
0.0
 40
8.0
  1
75'
 50
358.1831
  7
txt
 72
     4
 11
947780.675961
 21
7251456.398428
 31
0.0
210
0.0
220
0.0
230
1.0
  0
TEXT
  8
11
  6
CONTINUOUS
 62
     7
  5
34E
 10
947853.093
 20
7251450.098
 30
0.0
 40
8.0
  1
75'
 50
358.1831
  7
txt
 72
     4
 11
947862.883961
 21
7251453.789428
 31
0.0
210
0.0
220
0.0
230
1.0
  0
TEXT
  8
11
  6
CONTINUOUS
 62
     7
  5
34F
 10
947926.493
 20
7251447.77
 30
0.0
 40
8.0
  1
75'
 50
358.1831
  7
txt
 72
     4
 11
947936.283961
 21
7251451.461428
 31
0.0
210
0.0
220
0.0
230
1.0
  0
TEXT
  8
11
  6
CONTINUOUS
 62
     7
  5
350
 10
947339.305
 20
7251464.926
 30
0.0
 40
8.0
  1
80'
 50
358.1831
  7
txt
 72
     4
 11
947349.032993
 21
7251468.619425
 31
0.0
210
0.0
220
0.0
230
1.0
  0
TEXT
  8
11
  6
CONTINUOUS
 62
     7
  5
351
 10
948004.315
 20
7251443.831
 30
0.0
 40
8.0
  1
80'
 50
358.1831
  7
txt
 72
     4
 11
948014.042993
 21
7251447.524425
 31
0.0
210
0.0
220
0.0
230
1.0
  0
TEXT
  8
11
  6
CONTINUOUS
 62
     7
  5
352
 10
947483.17
 20
7251460.362
 30
0.0
 40
8.0
  1
80'
 50
358.1831
  7
txt
 72
     4
 11
947492.897993
 21
7251464.055425
 31
0.0
210
0.0
220
0.0
230
1.0
  0
TEXT
  8
11
  6
CONTINUOUS
 62
     7
  5
353
 10
947405.32
 20
7251461.362
 30
0.0
 40
8.0
  1
50'
 50
358.1831
  7
txt
 72
     4
 11
947415.047993
 21
7251465.055425
 31
0.0
210
0.0
220
0.0
230
1.0
  0
TEXT
  8
11
  6
CONTINUOUS
 62
     7
  5
354
 10
946815.553
 20
7251896.563
 30
0.0
 40
8.0
  1
145'
 50
88.1831
  7
txt
 72
     4
 11
946811.948445
 21
7251909.092584
 31
0.0
210
0.0
220
0.0
230
1.0
  0
TEXT
  8
11
  6
CONTINUOUS
 62
     7
  5
355
 10
946808.983
 20
7251689.465
 30
0.0
 40
8.0
  1
145'
 50
88.1831
  7
txt
 72
     4
 11
946805.378445
 21
7251701.994584
 31
0.0
210
0.0
220
0.0
230
1.0
  0
TEXT
  8
11
  6
CONTINUOUS
 62
     7
  5
356
 10
946804.185
 20
7251538.179
 30
0.0
 40
8.0
  1
145'
 50
88.1831
  7
txt
 72
     4
 11
946800.580445
 21
7251550.708584
 31
0.0
210
0.0
220
0.0
230
1.0
  0
TEXT
  8
11
  6
CONTINUOUS
 62
     7
  5
357
 10
947388.453
 20
7251519.645
 30
0.0
 40
8.0
  1
145'
 50
88.1831
  7
txt
 72
     4
 11
947384.848445
 21
7251532.174584
 31
0.0
210
0.0
220
0.0
230
1.0
  0
TEXT
  8
11
  6
CONTINUOUS
 62
     7
  5
358
 10
947393.298
 20
7251672.399
 30
0.0
 40
8.0
  1
145'
 50
88.1831
  7
txt
 72
     4
 11
947389.693445
 21
7251684.928584
 31
0.0
210
0.0
220
0.0
230
1.0
  0
TEXT
  8
11
  6
CONTINUOUS
 62
     7
  5
359
 10
947399.449
 20
7251866.28
 30
0.0
 40
8.0
  1
145'
 50
88.1831
  7
txt
 72
     4
 11
947395.844445
 21
7251878.809584
 31
0.0
210
0.0
220
0.0
230
1.0
  0
TEXT
  8
11
  6
CONTINUOUS
 62
     7
  5
35A
 10
947467.396
 20
7251877.356
 30
0.0
 40
8.0
  1
145'
 50
88.1831
  7
txt
 72
     4
 11
947463.791445
 21
7251889.885584
 31
0.0
210
0.0
220
0.0
230
1.0
  0
TEXT
  8
11
  6
CONTINUOUS
 62
     7
  5
35B
 10
947460.734
 20
7251667.32
 30
0.0
 40
8.0
  1
145'
 50
88.1831
  7
txt
 72
     4
 11
947457.129445
 21
7251679.849584
 31
0.0
210
0.0
220
0.0
230
1.0
  0
TEXT
  8
11
  6
CONTINUOUS
 62
     7
  5
35C
 10
947455.888
 20
7251514.565
 30
0.0
 40
8.0
  1
145'
 50
88.1831
  7
txt
 72
     4
 11
947452.283445
 21
7251527.094584
 31
0.0
210
0.0
220
0.0
230
1.0
  0
TEXT
  8
11
  6
CONTINUOUS
 62
     7
  5
35D
 10
948047.496
 20
7251495.799
 30
0.0
 40
8.0
  1
145'
 50
88.1831
  7
txt
 72
     4
 11
948043.891445
 21
7251508.328584
 31
0.0
210
0.0
220
0.0
230
1.0
  0
TEXT
  8
11
  6
CONTINUOUS
 62
     7
  5
35E
 10
948052.248
 20
7251645.616
 30
0.0
 40
8.0
  1
145'
 50
88.1831
  7
txt
 72
     4
 11
948048.643445
 21
7251658.145584
 31
0.0
210
0.0
220
0.0
230
1.0
  0
TEXT
  8
11
  6
CONTINUOUS
 62
     7
  5
35F
 10
948058.865
 20
7251854.183
 30
0.0
 40
8.0
  1
145'
 50
88.1831
  7
txt
 72
     4
 11
948055.260445
 21
7251866.712584
 31
0.0
210
0.0
220
0.0
230
1.0
  0
TEXT
  8
11
  6
CONTINUOUS
 62
     7
  5
360
 10
948063.762
 20
7252008.595
 30
0.0
 40
8.0
  1
135'
 50
88.1831
  7
txt
 72
     4
 11
948060.151453
 21
7252020.935679
 31
0.0
210
0.0
220
0.0
230
1.0
  0
TEXT
  8
11
  6
CONTINUOUS
 62
     7
  5
361
 10
946838.04
 20
7251974.619
 30
0.0
 40
8.0
  1
15'
 50
88.1831
  7
txt
 72
     4
 11
946834.302631
 21
7251982.96169
 31
0.0
210
0.0
220
0.0
230
1.0
  0
TEXT
  8
11
  6
CONTINUOUS
 62
     7
  5
362
 10
947397.926
 20
7251957.265
 30
0.0
 40
8.0
  1
15'
 50
88.1831
  7
txt
 72
     4
 11
947394.188631
 21
7251965.60769
 31
0.0
210
0.0
220
0.0
230
1.0
  0
TEXT
  8
11
  6
CONTINUOUS
 62
     7
  5
363
 10
947483.07
 20
7251954.564
 30
0.0
 40
8.0
  1
15'
 50
88.1831
  7
txt
 72
     4
 11
947479.332631
 21
7251962.90669
 31
0.0
210
0.0
220
0.0
230
1.0
  0
TEXT
  8
11
  6
CONTINUOUS
 62
     7
  5
364
 10
948055.595
 20
7251936.402
 30
0.0
 40
8.0
  1
15'
 50
88.1831
  7
txt
 72
     4
 11
948051.857631
 21
7251944.74469
 31
0.0
210
0.0
220
0.0
230
1.0
  0
TEXT
  8
11
  6
CONTINUOUS
 62
     7
  5
365
 10
948044.412
 20
7251583.893
 30
0.0
 40
8.0
  1
15'
 50
88.1831
  7
txt
 72
     4
 11
948040.674631
 21
7251592.23569
 31
0.0
210
0.0
220
0.0
230
1.0
  0
TEXT
  8
11
  6
CONTINUOUS
 62
     7
  5
366
 10
947473.357
 20
7251602.008
 30
0.0
 40
8.0
  1
15'
 50
88.1831
  7
txt
 72
     4
 11
947469.619631
 21
7251610.35069
 31
0.0
210
0.0
220
0.0
230
1.0
  0
TEXT
  8
11
  6
CONTINUOUS
 62
     7
  5
367
 10
947382.34
 20
7251604.895
 30
0.0
 40
8.0
  1
15'
 50
88.1831
  7
txt
 72
     4
 11
947378.602631
 21
7251613.23769
 31
0.0
210
0.0
220
0.0
230
1.0
  0
TEXT
  8
11
  6
CONTINUOUS
 62
     7
  5
368
 10
946814.22
 20
7251622.916
 30
0.0
 40
8.0
  1
15'
 50
88.1831
  7
txt
 72
     4
 11
946810.482631
 21
7251631.25869
 31
0.0
210
0.0
220
0.0
230
1.0
  0
TEXT
  8
11
  6
CONTINUOUS
 62
     7
  5
369
 10
946855.913
 20
7251433.047
 30
0.0
 40
8.0
  1
60'
 50
88.1831
  7
txt
 72
     4
 11
946852.213551
 21
7251442.585088
 31
0.0
210
0.0
220
0.0
230
1.0
  0
TEXT
  8
11
  6
CONTINUOUS
 62
     7
  5
36A
 10
948026.507
 20
7251395.85
 30
0.0
 40
8.0
  1
60'
 50
88.1831
  7
txt
 72
     4
 11
948022.807551
 21
7251405.388088
 31
0.0
210
0.0
220
0.0
230
1.0
  0
TEXT
  8
11
  6
CONTINUOUS
 62
     7
  5
36B
 10
946844.153
 20
7252149.589
 30
0.0
 40
8.0
  1
50'
 50
88.1831
  7
txt
 72
     4
 11
946840.459575
 21
7252159.316993
 31
0.0
210
0.0
220
0.0
230
1.0
  0
TEXT
  8
11
  6
CONTINUOUS
 62
     7
  5
36C
 10
948050.851
 20
7252111.122
 30
0.0
 40
8.0
  1
40'
 50
88.1831
  7
txt
 72
     4
 11
948047.163567
 21
7252121.038898
 31
0.0
210
0.0
220
0.0
230
1.0
  0
TEXT
  8
11
  6
CONTINUOUS
 62
     7
  5
36D
 10
948149.648
 20
7252071.433
 30
0.0
 40
8.0
  1
80'
 50
358.1831
  7
txt
 72
     4
 11
948159.375993
 21
7252075.126425
 31
0.0
210
0.0
220
0.0
230
1.0
  0
TEXT
  8
11
  6
CONTINUOUS
 62
     7
  5
36E
 10
948686.825
 20
7252054.855
 30
0.0
 40
8.0
  1
80'
 50
358.1831
  7
txt
 72
     4
 11
948696.552993
 21
7252058.548425
 31
0.0
210
0.0
220
0.0
230
1.0
  0
TEXT
  8
11
  6
CONTINUOUS
 62
     7
  5
36F
 10
948083.338
 20
7252077.92
 30
0.0
 40
8.0
  1
50'
 50
358.1831
  7
txt
 72
     4
 11
948093.065993
 21
7252081.613425
 31
0.0
210
0.0
220
0.0
230
1.0
  0
TEXT
  8
11
  6
CONTINUOUS
 62
     7
  5
370
 10
948743.943
 20
7252056.965
 30
0.0
 40
8.0
  1
50'
 50
358.1831
  7
txt
 72
     4
 11
948753.670993
 21
7252060.658425
 31
0.0
210
0.0
220
0.0
230
1.0
  0
TEXT
  8
11
  6
CONTINUOUS
 62
     7
  5
371
 10
949187.022
 20
7252037.316
 30
0.0
 40
8.0
  1
15'
 50
358.1831
  7
txt
 72
     4
 11
949195.36469
 21
7252041.053369
 31
0.0
210
0.0
220
0.0
230
1.0
  0
TEXT
  8
11
  6
CONTINUOUS
 62
     7
  5
372
 10
948228.448
 20
7252069.938
 30
0.0
 40
8.0
  1
75'
 50
358.1831
  7
txt
 72
     4
 11
948238.238961
 21
7252073.629428
 31
0.0
210
0.0
220
0.0
230
1.0
  0
TEXT
  8
11
  6
CONTINUOUS
 62
     7
  5
373
 10
948301.08
 20
7252067.176
 30
0.0
 40
8.0
  1
75'
 50
358.1831
  7
txt
 72
     4
 11
948310.870961
 21
7252070.867428
 31
0.0
210
0.0
220
0.0
230
1.0
  0
TEXT
  8
11
  6
CONTINUOUS
 62
     7
  5
374
 10
948381.026
 20
7252064.18
 30
0.0
 40
8.0
  1
75'
 50
358.1831
  7
txt
 72
     4
 11
948390.816961
 21
7252067.871428
 31
0.0
210
0.0
220
0.0
230
1.0
  0
TEXT
  8
11
  6
CONTINUOUS
 62
     7
  5
375
 10
948456.384
 20
7252060.871
 30
0.0
 40
8.0
  1
75'
 50
358.1831
  7
txt
 72
     4
 11
948466.174961
 21
7252064.562428
 31
0.0
210
0.0
220
0.0
230
1.0
  0
TEXT
  8
11
  6
CONTINUOUS
 62
     7
  5
376
 10
948526.145
 20
7252060.951
 30
0.0
 40
8.0
  1
75'
 50
358.1831
  7
txt
 72
     4
 11
948535.935961
 21
7252064.642428
 31
0.0
210
0.0
220
0.0
230
1.0
  0
TEXT
  8
11
  6
CONTINUOUS
 62
     7
  5
377
 10
948603.508
 20
7252057.122
 30
0.0
 40
8.0
  1
75'
 50
358.1831
  7
txt
 72
     4
 11
948613.298961
 21
7252060.813428
 31
0.0
210
0.0
220
0.0
230
1.0
  0
TEXT
  8
11
  6
CONTINUOUS
 62
     7
  5
378
 10
948810.817
 20
7252052.48
 30
0.0
 40
8.0
  1
75'
 50
358.1831
  7
txt
 72
     4
 11
948820.607961
 21
7252056.171428
 31
0.0
210
0.0
220
0.0
230
1.0
  0
TEXT
  8
11
  6
CONTINUOUS
 62
     7
  5
379
 10
948886.62
 20
7252049.613
 30
0.0
 40
8.0
  1
75'
 50
358.1831
  7
txt
 72
     4
 11
948896.410961
 21
7252053.304428
 31
0.0
210
0.0
220
0.0
230
1.0
  0
TEXT
  8
11
  6
CONTINUOUS
 62
     7
  5
37A
 10
949138.226
 20
7252042.093
 30
0.0
 40
8.0
  1
75'
 50
358.1831
  7
txt
 72
     4
 11
949148.016961
 21
7252045.784428
 31
0.0
210
0.0
220
0.0
230
1.0
  0
TEXT
  8
11
  6
CONTINUOUS
 62
     7
  5
37B
 10
948948.57
 20
7252047.561
 30
0.0
 40
8.0
  1
60'
 50
358.1831
  7
txt
 72
     4
 11
948958.108088
 21
7252051.260449
 31
0.0
210
0.0
220
0.0
230
1.0
  0
TEXT
  8
11
  6
CONTINUOUS
 62
     7
  5
37C
 10
949014.17
 20
7252045.941
 30
0.0
 40
8.0
  1
60'
 50
358.1831
  7
txt
 72
     4
 11
949023.708088
 21
7252049.640449
 31
0.0
210
0.0
220
0.0
230
1.0
  0
TEXT
  8
11
  6
CONTINUOUS
 62
     7
  5
37D
 10
949074.358
 20
7252044.033
 30
0.0
 40
8.0
  1
60'
 50
358.1831
  7
txt
 72
     4
 11
949083.896088
 21
7252047.732449
 31
0.0
210
0.0
220
0.0
230
1.0
  0
TEXT
  8
11
  6
CONTINUOUS
 62
     7
  5
37E
 10
949268.473
 20
7252038.336
 30
0.0
 40
8.0
  1
165'
 50
358.1831
  7
txt
 72
     4
 11
949280.623774
 21
7252041.952571
 31
0.0
210
0.0
220
0.0
230
1.0
  0
TEXT
  8
11
  6
CONTINUOUS
 62
     7
  5
37F
 10
949259.589
 20
7251758.317
 30
0.0
 40
8.0
  1
165'
 50
358.1831
  7
txt
 72
     4
 11
949271.739774
 21
7251761.933571
 31
0.0
210
0.0
220
0.0
230
1.0
  0
TEXT
  8
11
  6
CONTINUOUS
 62
     7
  5
380
 10
948074.392
 20
7251795.913
 30
0.0
 40
8.0
  1
50'
 50
358.1831
  7
txt
 72
     4
 11
948084.119993
 21
7251799.606425
 31
0.0
210
0.0
220
0.0
230
1.0
  0
TEXT
  8
11
  6
CONTINUOUS
 62
     7
  5
381
 10
948737.934
 20
7251774.864
 30
0.0
 40
8.0
  1
50'
 50
358.1831
  7
txt
 72
     4
 11
948747.661993
 21
7251778.557425
 31
0.0
210
0.0
220
0.0
230
1.0
  0
TEXT
  8
11
  6
CONTINUOUS
 62
     7
  5
382
 10
949178.207
 20
7251759.428
 30
0.0
 40
8.0
  1
15'
 50
358.1831
  7
txt
 72
     4
 11
949186.54969
 21
7251763.165369
 31
0.0
210
0.0
220
0.0
230
1.0
  0
TEXT
  8
11
  6
CONTINUOUS
 62
     7
  5
383
 10
949175.97
 20
7251688.926
 30
0.0
 40
8.0
  1
15'
 50
358.1831
  7
txt
 72
     4
 11
949184.31269
 21
7251692.663369
 31
0.0
210
0.0
220
0.0
230
1.0
  0
TEXT
  8
11
  6
CONTINUOUS
 62
     7
  5
384
 10
949167.118
 20
7251409.856
 30
0.0
 40
8.0
  1
15'
 50
358.1831
  7
txt
 72
     4
 11
949175.46069
 21
7251413.593369
 31
0.0
210
0.0
220
0.0
230
1.0
  0
TEXT
  8
11
  6
CONTINUOUS
 62
     7
  5
385
 10
948728.22
 20
7251422.309
 30
0.0
 40
8.0
  1
50'
 50
358.1831
  7
txt
 72
     4
 11
948737.947993
 21
7251426.002425
 31
0.0
210
0.0
220
0.0
230
1.0
  0
TEXT
  8
11
  6
CONTINUOUS
 62
     7
  5
386
 10
948064.68
 20
7251443.358
 30
0.0
 40
8.0
  1
50'
 50
358.1831
  7
txt
 72
     4
 11
948074.407993
 21
7251447.051425
 31
0.0
210
0.0
220
0.0
230
1.0
  0
TEXT
  8
11
  6
CONTINUOUS
 62
     7
  5
387
 10
948140.452
 20
7251793.817
 30
0.0
 40
8.0
  1
80'
 50
358.1831
  7
txt
 72
     4
 11
948150.179993
 21
7251797.510425
 31
0.0
210
0.0
220
0.0
230
1.0
  0
TEXT
  8
11
  6
CONTINUOUS
 62
     7
  5
388
 10
948216.681
 20
7251789.929
 30
0.0
 40
8.0
  1
75'
 50
358.1831
  7
txt
 72
     4
 11
948226.471961
 21
7251793.620428
 31
0.0
210
0.0
220
0.0
230
1.0
  0
TEXT
  8
11
  6
CONTINUOUS
 62
     7
  5
389
 10
948297.421
 20
7251787.368
 30
0.0
 40
8.0
  1
75'
 50
358.1831
  7
txt
 72
     4
 11
948307.211961
 21
7251791.059428
 31
0.0
210
0.0
220
0.0
230
1.0
  0
TEXT
  8
11
  6
CONTINUOUS
 62
     7
  5
38A
 10
948367.885
 20
7251785.133
 30
0.0
 40
8.0
  1
75'
 50
358.1831
  7
txt
 72
     4
 11
948377.675961
 21
7251788.824428
 31
0.0
210
0.0
220
0.0
230
1.0
  0
TEXT
  8
11
  6
CONTINUOUS
 62
     7
  5
38B
 10
948445.69
 20
7251782.665
 30
0.0
 40
8.0
  1
75'
 50
358.1831
  7
txt
 72
     4
 11
948455.480961
 21
7251786.356428
 31
0.0
210
0.0
220
0.0
230
1.0
  0
TEXT
  8
11
  6
CONTINUOUS
 62
     7
  5
38C
 10
948516.155
 20
7251780.43
 30
0.0
 40
8.0
  1
75'
 50
358.1831
  7
txt
 72
     4
 11
948525.945961
 21
7251784.121428
 31
0.0
210
0.0
220
0.0
230
1.0
  0
TEXT
  8
11
  6
CONTINUOUS
 62
     7
  5
38D
 10
948595.427
 20
7251777.915
 30
0.0
 40
8.0
  1
75'
 50
358.1831
  7
txt
 72
     4
 11
948605.217961
 21
7251781.606428
 31
0.0
210
0.0
220
0.0
230
1.0
  0
TEXT
  8
11
  6
CONTINUOUS
 62
     7
  5
38E
 10
948799.481
 20
7251771.442
 30
0.0
 40
8.0
  1
75'
 50
358.1831
  7
txt
 72
     4
 11
948809.271961
 21
7251775.133428
 31
0.0
210
0.0
220
0.0
230
1.0
  0
TEXT
  8
11
  6
CONTINUOUS
 62
     7
  5
38F
 10
948874.349
 20
7251769.067
 30
0.0
 40
8.0
  1
75'
 50
358.1831
  7
txt
 72
     4
 11
948884.139961
 21
7251772.758428
 31
0.0
210
0.0
220
0.0
230
1.0
  0
TEXT
  8
11
  6
CONTINUOUS
 62
     7
  5
390
 10
949131.252
 20
7251760.918
 30
0.0
 40
8.0
  1
75'
 50
358.1831
  7
txt
 72
     4
 11
949141.042961
 21
7251764.609428
 31
0.0
210
0.0
220
0.0
230
1.0
  0
TEXT
  8
11
  6
CONTINUOUS
 62
     7
  5
391
 10
948674.809
 20
7251776.867
 30
0.0
 40
8.0
  1
80'
 50
358.1831
  7
txt
 72
     4
 11
948684.536993
 21
7251780.560425
 31
0.0
210
0.0
220
0.0
230
1.0
  0
TEXT
  8
11
  6
CONTINUOUS
 62
     7
  5
392
 10
948939.24
 20
7251768.479
 30
0.0
 40
8.0
  1
60'
 50
358.1831
  7
txt
 72
     4
 11
948948.778088
 21
7251772.178449
 31
0.0
210
0.0
220
0.0
230
1.0
  0
TEXT
  8
11
  6
CONTINUOUS
 62
     7
  5
393
 10
948997.961
 20
7251766.616
 30
0.0
 40
8.0
  1
60'
 50
358.1831
  7
txt
 72
     4
 11
949007.499088
 21
7251770.315449
 31
0.0
210
0.0
220
0.0
230
1.0
  0
TEXT
  8
11
  6
CONTINUOUS
 62
     7
  5
394
 10
949061.085
 20
7251764.614
 30
0.0
 40
8.0
  1
60'
 50
358.1831
  7
txt
 72
     4
 11
949070.623088
 21
7251768.313449
 31
0.0
210
0.0
220
0.0
230
1.0
  0
TEXT
  8
11
  6
CONTINUOUS
 62
     7
  5
395
 10
948138.263
 20
7251724.785
 30
0.0
 40
8.0
  1
80'
 50
358.1831
  7
txt
 72
     4
 11
948147.990993
 21
7251728.478425
 31
0.0
210
0.0
220
0.0
230
1.0
  0
TEXT
  8
11
  6
CONTINUOUS
 62
     7
  5
396
 10
948214.491
 20
7251720.897
 30
0.0
 40
8.0
  1
75'
 50
358.1831
  7
txt
 72
     4
 11
948224.281961
 21
7251724.588428
 31
0.0
210
0.0
220
0.0
230
1.0
  0
TEXT
  8
11
  6
CONTINUOUS
 62
     7
  5
397
 10
948295.231
 20
7251718.336
 30
0.0
 40
8.0
  1
75'
 50
358.1831
  7
txt
 72
     4
 11
948305.021961
 21
7251722.027428
 31
0.0
210
0.0
220
0.0
230
1.0
  0
TEXT
  8
11
  6
CONTINUOUS
 62
     7
  5
398
 10
948365.695
 20
7251716.101
 30
0.0
 40
8.0
  1
75'
 50
358.1831
  7
txt
 72
     4
 11
948375.485961
 21
7251719.792428
 31
0.0
210
0.0
220
0.0
230
1.0
  0
TEXT
  8
11
  6
CONTINUOUS
 62
     7
  5
399
 10
948443.5
 20
7251713.633
 30
0.0
 40
8.0
  1
75'
 50
358.1831
  7
txt
 72
     4
 11
948453.290961
 21
7251717.324428
 31
0.0
210
0.0
220
0.0
230
1.0
  0
TEXT
  8
11
  6
CONTINUOUS
 62
     7
  5
39A
 10
948513.965
 20
7251711.398
 30
0.0
 40
8.0
  1
75'
 50
358.1831
  7
txt
 72
     4
 11
948523.755961
 21
7251715.089428
 31
0.0
210
0.0
220
0.0
230
1.0
  0
TEXT
  8
11
  6
CONTINUOUS
 62
     7
  5
39B
 10
948593.237
 20
7251708.883
 30
0.0
 40
8.0
  1
75'
 50
358.1831
  7
txt
 72
     4
 11
948603.027961
 21
7251712.574428
 31
0.0
210
0.0
220
0.0
230
1.0
  0
TEXT
  8
11
  6
CONTINUOUS
 62
     7
  5
39C
 10
948672.619
 20
7251707.835
 30
0.0
 40
8.0
  1
80'
 50
358.1831
  7
txt
 72
     4
 11
948682.346993
 21
7251711.528425
 31
0.0
210
0.0
220
0.0
230
1.0
  0
TEXT
  8
11
  6
CONTINUOUS
 62
     7
  5
39D
 10
948129.317
 20
7251442.778
 30
0.0
 40
8.0
  1
80'
 50
358.1831
  7
txt
 72
     4
 11
948139.044993
 21
7251446.471425
 31
0.0
210
0.0
220
0.0
230
1.0
  0
TEXT
  8
11
  6
CONTINUOUS
 62
     7
  5
39E
 10
948205.545
 20
7251438.89
 30
0.0
 40
8.0
  1
75'
 50
358.1831
  7
txt
 72
     4
 11
948215.335961
 21
7251442.581428
 31
0.0
210
0.0
220
0.0
230
1.0
  0
TEXT
  8
11
  6
CONTINUOUS
 62
     7
  5
39F
 10
948286.285
 20
7251436.329
 30
0.0
 40
8.0
  1
75'
 50
358.1831
  7
txt
 72
     4
 11
948296.075961
 21
7251440.020428
 31
0.0
210
0.0
220
0.0
230
1.0
  0
TEXT
  8
11
  6
CONTINUOUS
 62
     7
  5
3A0
 10
948356.75
 20
7251434.094
 30
0.0
 40
8.0
  1
75'
 50
358.1831
  7
txt
 72
     4
 11
948366.540961
 21
7251437.785428
 31
0.0
210
0.0
220
0.0
230
1.0
  0
TEXT
  8
11
  6
CONTINUOUS
 62
     7
  5
3A1
 10
948434.555
 20
7251431.626
 30
0.0
 40
8.0
  1
75'
 50
358.1831
  7
txt
 72
     4
 11
948444.345961
 21
7251435.317428
 31
0.0
210
0.0
220
0.0
230
1.0
  0
TEXT
  8
11
  6
CONTINUOUS
 62
     7
  5
3A2
 10
948505.02
 20
7251429.391
 30
0.0
 40
8.0
  1
75'
 50
358.1831
  7
txt
 72
     4
 11
948514.810961
 21
7251433.082428
 31
0.0
210
0.0
220
0.0
230
1.0
  0
TEXT
  8
11
  6
CONTINUOUS
 62
     7
  5
3A3
 10
948584.292
 20
7251426.876
 30
0.0
 40
8.0
  1
75'
 50
358.1831
  7
txt
 72
     4
 11
948594.082961
 21
7251430.567428
 31
0.0
210
0.0
220
0.0
230
1.0
  0
TEXT
  8
11
  6
CONTINUOUS
 62
     7
  5
3A4
 10
948663.674
 20
7251425.828
 30
0.0
 40
8.0
  1
80'
 50
358.1831
  7
txt
 72
     4
 11
948673.401993
 21
7251429.521425
 31
0.0
210
0.0
220
0.0
230
1.0
  0
TEXT
  8
11
  6
CONTINUOUS
 62
     7
  5
3A5
 10
948797.245
 20
7251700.941
 30
0.0
 40
8.0
  1
75'
 50
358.1831
  7
txt
 72
     4
 11
948807.035961
 21
7251704.632428
 31
0.0
210
0.0
220
0.0
230
1.0
  0
TEXT
  8
11
  6
CONTINUOUS
 62
     7
  5
3A6
 10
948872.113
 20
7251698.566
 30
0.0
 40
8.0
  1
75'
 50
358.1831
  7
txt
 72
     4
 11
948881.903961
 21
7251702.257428
 31
0.0
210
0.0
220
0.0
230
1.0
  0
TEXT
  8
11
  6
CONTINUOUS
 62
     7
  5
3A7
 10
949129.015
 20
7251690.417
 30
0.0
 40
8.0
  1
75'
 50
358.1831
  7
txt
 72
     4
 11
949138.805961
 21
7251694.108428
 31
0.0
210
0.0
220
0.0
230
1.0
  0
TEXT
  8
11
  6
CONTINUOUS
 62
     7
  5
3A8
 10
948937.004
 20
7251697.977
 30
0.0
 40
8.0
  1
60'
 50
358.1831
  7
txt
 72
     4
 11
948946.542088
 21
7251701.676449
 31
0.0
210
0.0
220
0.0
230
1.0
  0
TEXT
  8
11
  6
CONTINUOUS
 62
     7
  5
3A9
 10
948995.725
 20
7251696.115
 30
0.0
 40
8.0
  1
60'
 50
358.1831
  7
txt
 72
     4
 11
949005.263088
 21
7251699.814449
 31
0.0
210
0.0
220
0.0
230
1.0
  0
TEXT
  8
11
  6
CONTINUOUS
 62
     7
  5
3AA
 10
949058.849
 20
7251694.112
 30
0.0
 40
8.0
  1
60'
 50
358.1831
  7
txt
 72
     4
 11
949068.387088
 21
7251697.811449
 31
0.0
210
0.0
220
0.0
230
1.0
  0
TEXT
  8
11
  6
CONTINUOUS
 62
     7
  5
3AB
 10
948788.206
 20
7251415.996
 30
0.0
 40
8.0
  1
75'
 50
358.1831
  7
txt
 72
     4
 11
948797.996961
 21
7251419.687428
 31
0.0
210
0.0
220
0.0
230
1.0
  0
TEXT
  8
11
  6
CONTINUOUS
 62
     7
  5
3AC
 10
948863.075
 20
7251413.621
 30
0.0
 40
8.0
  1
75'
 50
358.1831
  7
txt
 72
     4
 11
948872.865961
 21
7251417.312428
 31
0.0
210
0.0
220
0.0
230
1.0
  0
TEXT
  8
11
  6
CONTINUOUS
 62
     7
  5
3AD
 10
949119.976
 20
7251405.471
 30
0.0
 40
8.0
  1
75'
 50
358.1831
  7
txt
 72
     4
 11
949129.766961
 21
7251409.162428
 31
0.0
210
0.0
220
0.0
230
1.0
  0
TEXT
  8
11
  6
CONTINUOUS
 62
     7
  5
3AE
 10
948927.966
 20
7251413.033
 30
0.0
 40
8.0
  1
60'
 50
358.1831
  7
txt
 72
     4
 11
948937.504088
 21
7251416.732449
 31
0.0
210
0.0
220
0.0
230
1.0
  0
TEXT
  8
11
  6
CONTINUOUS
 62
     7
  5
3AF
 10
948986.685
 20
7251411.169
 30
0.0
 40
8.0
  1
60'
 50
358.1831
  7
txt
 72
     4
 11
948996.223088
 21
7251414.868449
 31
0.0
210
0.0
220
0.0
230
1.0
  0
TEXT
  8
11
  6
CONTINUOUS
 62
     7
  5
3B0
 10
949049.81
 20
7251409.168
 30
0.0
 40
8.0
  1
60'
 50
358.1831
  7
txt
 72
     4
 11
949059.348088
 21
7251412.867449
 31
0.0
210
0.0
220
0.0
230
1.0
  0
TEXT
  8
11
  6
CONTINUOUS
 62
     7
  5
3B1
 10
948139.401
 20
7251933.715
 30
0.0
 40
8.0
  1
15'
 50
88.1831
  7
txt
 72
     4
 11
948135.663631
 21
7251942.05769
 31
0.0
210
0.0
220
0.0
230
1.0
  0
TEXT
  8
11
  6
CONTINUOUS
 62
     7
  5
3B2
 10
949167.007
 20
7251901.118
 30
0.0
 40
8.0
  1
15'
 50
88.1831
  7
txt
 72
     4
 11
949163.269631
 21
7251909.46069
 31
0.0
210
0.0
220
0.0
230
1.0
  0
TEXT
  8
11
  6
CONTINUOUS
 62
     7
  5
3B3
 10
949341.701
 20
7251895.576
 30
0.0
 40
8.0
  1
15'
 50
88.1831
  7
txt
 72
     4
 11
949337.963631
 21
7251903.91869
 31
0.0
210
0.0
220
0.0
230
1.0
  0
TEXT
  8
11
  6
CONTINUOUS
 62
     7
  5
3B4
 10
949330.472
 20
7251541.599
 30
0.0
 40
8.0
  1
15'
 50
88.1831
  7
txt
 72
     4
 11
949326.734631
 21
7251549.94169
 31
0.0
210
0.0
220
0.0
230
1.0
  0
TEXT
  8
11
  6
CONTINUOUS
 62
     7
  5
3B5
 10
949161.651
 20
7251546.953
 30
0.0
 40
8.0
  1
15'
 50
88.1831
  7
txt
 72
     4
 11
949157.913631
 21
7251555.29569
 31
0.0
210
0.0
220
0.0
230
1.0
  0
TEXT
  8
11
  6
CONTINUOUS
 62
     7
  5
3B6
 10
948703.632
 20
7251561.483
 30
0.0
 40
8.0
  1
15'
 50
88.1831
  7
txt
 72
     4
 11
948699.894631
 21
7251569.82569
 31
0.0
210
0.0
220
0.0
230
1.0
  0
TEXT
  8
11
  6
CONTINUOUS
 62
     7
  5
3B7
 10
948122.3
 20
7251579.923
 30
0.0
 40
8.0
  1
15'
 50
88.1831
  7
txt
 72
     4
 11
948118.562631
 21
7251588.26569
 31
0.0
210
0.0
220
0.0
230
1.0
  0
TEXT
  8
11
  6
CONTINUOUS
 62
     7
  5
3B8
 10
949233.163
 20
7251400.411
 30
0.0
 40
8.0
  1
145'
 50
358.1831
  7
txt
 72
     4
 11
949245.692584
 21
7251404.015555
 31
0.0
210
0.0
220
0.0
230
1.0
  0
TEXT
  8
11
  6
CONTINUOUS
 62
     7
  5
3B9
 10
949237.262
 20
7251529.664
 30
0.0
 40
8.0
  1
145'
 50
358.1831
  7
txt
 72
     4
 11
949249.791584
 21
7251533.268555
 31
0.0
210
0.0
220
0.0
230
1.0
  0
TEXT
  8
11
  6
CONTINUOUS
 62
     7
  5
3BA
 10
949238.288
 20
7251561.978
 30
0.0
 40
8.0
  1
145'
 50
358.1831
  7
txt
 72
     4
 11
949250.817584
 21
7251565.582555
 31
0.0
210
0.0
220
0.0
230
1.0
  0
TEXT
  8
11
  6
CONTINUOUS
 62
     7
  5
3BB
 10
949254.465
 20
7251687.906
 30
0.0
 40
8.0
  1
159.9'
 50
358.1831
  7
txt
 72
     4
 11
949272.439845
 21
7251691.337823
 31
0.0
210
0.0
220
0.0
230
1.0
  0
TEXT
  8
11
  6
CONTINUOUS
 62
     7
  5
3BC
 10
949360.243
 20
7252069.746
 30
0.0
 40
8.0
  1
50'
 50
88.1831
  7
txt
 72
     4
 11
949356.549575
 21
7252079.473993
 31
0.0
210
0.0
220
0.0
230
1.0
  0
TEXT
  8
11
  6
CONTINUOUS
 62
     7
  5
3BD
 10
948133.121
 20
7252013.717
 30
0.0
 40
8.0
  1
135'
 50
88.1831
  7
txt
 72
     4
 11
948129.510453
 21
7252026.057679
 31
0.0
210
0.0
220
0.0
230
1.0
  0
TEXT
  8
11
  6
CONTINUOUS
 62
     7
  5
3BE
 10
948723.261
 20
7251994.997
 30
0.0
 40
8.0
  1
135'
 50
88.1831
  7
txt
 72
     4
 11
948719.650453
 21
7252007.337679
 31
0.0
210
0.0
220
0.0
230
1.0
  0
TEXT
  8
11
  6
CONTINUOUS
 62
     7
  5
3BF
 10
948790.79
 20
7251992.855
 30
0.0
 40
8.0
  1
135'
 50
88.1831
  7
txt
 72
     4
 11
948787.179453
 21
7252005.195679
 31
0.0
210
0.0
220
0.0
230
1.0
  0
TEXT
  8
11
  6
CONTINUOUS
 62
     7
  5
3C0
 10
949178.344
 20
7251980.561
 30
0.0
 40
8.0
  1
135'
 50
88.1831
  7
txt
 72
     4
 11
949174.733453
 21
7251992.901679
 31
0.0
210
0.0
220
0.0
230
1.0
  0
TEXT
  8
11
  6
CONTINUOUS
 62
     7
  5
3C1
 10
949358.141
 20
7251996.893
 30
0.0
 40
8.0
  1
62.5'
 50
88.1831
  7
txt
 72
     4
 11
949354.633306
 21
7252012.476048
 31
0.0
210
0.0
220
0.0
230
1.0
  0
TEXT
  8
11
  6
CONTINUOUS
 62
     7
  5
3C2
 10
949356.214
 20
7251936.166
 30
0.0
 40
8.0
  1
72.5'
 50
88.1831
  7
txt
 72
     4
 11
949352.713281
 21
7251951.968937
 31
0.0
210
0.0
220
0.0
230
1.0
  0
TEXT
  8
11
  6
CONTINUOUS
 62
     7
  5
3C3
 10
949353.279
 20
7251843.632
 30
0.0
 40
8.0
  1
72.5'
 50
88.1831
  7
txt
 72
     4
 11
949349.778281
 21
7251859.434937
 31
0.0
210
0.0
220
0.0
230
1.0
  0
TEXT
  8
11
  6
CONTINUOUS
 62
     7
  5
3C4
 10
949350.763
 20
7251764.318
 30
0.0
 40
8.0
  1
72.5'
 50
88.1831
  7
txt
 72
     4
 11
949347.262281
 21
7251780.120937
 31
0.0
210
0.0
220
0.0
230
1.0
  0
TEXT
  8
11
  6
CONTINUOUS
 62
     7
  5
3C5
 10
949173.12
 20
7251815.868
 30
0.0
 40
8.0
  1
145'
 50
88.1831
  7
txt
 72
     4
 11
949169.515445
 21
7251828.397584
 31
0.0
210
0.0
220
0.0
230
1.0
  0
TEXT
  8
11
  6
CONTINUOUS
 62
     7
  5
3C6
 10
948785.566
 20
7251828.161
 30
0.0
 40
8.0
  1
145'
 50
88.1831
  7
txt
 72
     4
 11
948781.961445
 21
7251840.690584
 31
0.0
210
0.0
220
0.0
230
1.0
  0
TEXT
  8
11
  6
CONTINUOUS
 62
     7
  5
3C7
 10
948716.569
 20
7251830.351
 30
0.0
 40
8.0
  1
145'
 50
88.1831
  7
txt
 72
     4
 11
948712.964445
 21
7251842.880584
 31
0.0
210
0.0
220
0.0
230
1.0
  0
TEXT
  8
11
  6
CONTINUOUS
 62
     7
  5
3C8
 10
948126.429
 20
7251849.071
 30
0.0
 40
8.0
  1
145'
 50
88.1831
  7
txt
 72
     4
 11
948122.824445
 21
7251861.600584
 31
0.0
210
0.0
220
0.0
230
1.0
  0
TEXT
  8
11
  6
CONTINUOUS
 62
     7
  5
3C9
 10
949322.965
 20
7251490.259
 30
0.0
 40
8.0
  1
72.5'
 50
88.1831
  7
txt
 72
     4
 11
949319.464281
 21
7251506.061937
 31
0.0
210
0.0
220
0.0
230
1.0
  0
TEXT
  8
11
  6
CONTINUOUS
 62
     7
  5
3CA
 10
949320.497
 20
7251412.413
 30
0.0
 40
8.0
  1
72.5'
 50
88.1831
  7
txt
 72
     4
 11
949316.996281
 21
7251428.215937
 31
0.0
210
0.0
220
0.0
230
1.0
  0
TEXT
  8
11
  6
CONTINUOUS
 62
     7
  5
3CB
 10
949338.319
 20
7251650.032
 30
0.0
 40
8.0
  1
73.2'
 50
88.1831
  7
txt
 72
     4
 11
949334.818281
 21
7251665.834937
 31
0.0
210
0.0
220
0.0
230
1.0
  0
TEXT
  8
11
  6
CONTINUOUS
 62
     7
  5
3CC
 10
949331.68
 20
7251579.67
 30
0.0
 40
8.0
  1
73.2'
 50
88.1831
  7
txt
 72
     4
 11
949328.179281
 21
7251595.472937
 31
0.0
210
0.0
220
0.0
230
1.0
  0
TEXT
  8
11
  6
CONTINUOUS
 62
     7
  5
3CD
 10
949166.876
 20
7251619.05
 30
0.0
 40
8.0
  1
145'
 50
88.1831
  7
txt
 72
     4
 11
949163.271445
 21
7251631.579584
 31
0.0
210
0.0
220
0.0
230
1.0
  0
TEXT
  8
11
  6
CONTINUOUS
 62
     7
  5
3CE
 10
949162.078
 20
7251467.765
 30
0.0
 40
8.0
  1
145'
 50
88.1831
  7
txt
 72
     4
 11
949158.473445
 21
7251480.294584
 31
0.0
210
0.0
220
0.0
230
1.0
  0
TEXT
  8
11
  6
CONTINUOUS
 62
     7
  5
3CF
 10
948775.759
 20
7251472.668
 30
0.0
 40
8.0
  1
145'
 50
88.1831
  7
txt
 72
     4
 11
948772.154445
 21
7251485.197584
 31
0.0
210
0.0
220
0.0
230
1.0
  0
TEXT
  8
11
  6
CONTINUOUS
 62
     7
  5
3D0
 10
948782.258
 20
7251631.251
 30
0.0
 40
8.0
  1
145'
 50
88.1831
  7
txt
 72
     4
 11
948778.653445
 21
7251643.780584
 31
0.0
210
0.0
220
0.0
230
1.0
  0
TEXT
  8
11
  6
CONTINUOUS
 62
     7
  5
3D1
 10
948711.84
 20
7251634.955
 30
0.0
 40
8.0
  1
145'
 50
88.1831
  7
txt
 72
     4
 11
948708.235445
 21
7251647.484584
 31
0.0
210
0.0
220
0.0
230
1.0
  0
TEXT
  8
11
  6
CONTINUOUS
 62
     7
  5
3D2
 10
948705.294
 20
7251474.904
 30
0.0
 40
8.0
  1
145'
 50
88.1831
  7
txt
 72
     4
 11
948701.689445
 21
7251487.433584
 31
0.0
210
0.0
220
0.0
230
1.0
  0
TEXT
  8
11
  6
CONTINUOUS
 62
     7
  5
3D3
 10
948116.715
 20
7251496.516
 30
0.0
 40
8.0
  1
145'
 50
88.1831
  7
txt
 72
     4
 11
948113.110445
 21
7251509.045584
 31
0.0
210
0.0
220
0.0
230
1.0
  0
TEXT
  8
11
  6
CONTINUOUS
 62
     7
  5
3D4
 10
948123.028
 20
7251649.222
 30
0.0
 40
8.0
  1
145'
 50
88.1831
  7
txt
 72
     4
 11
948119.423445
 21
7251661.751584
 31
0.0
210
0.0
220
0.0
230
1.0
  0
TEXT
  8
11
  6
CONTINUOUS
 62
     7
  5
3D5
 10
949275.115
 20
7251356.841
 30
0.0
 40
8.0
  1
60'
 50
88.1831
  7
txt
 72
     4
 11
949271.415551
 21
7251366.379088
 31
0.0
210
0.0
220
0.0
230
1.0
  0
TEXT
  8
11
  6
CONTINUOUS
 62
     7
  5
3D6
 10
948140.92
 20
7251749.968
 30
0.0
 40
8.0
  1
50'
 50
88.1831
  7
txt
 72
     4
 11
948137.226575
 21
7251759.695993
 31
0.0
210
0.0
220
0.0
230
1.0
  0
TEXT
  8
11
  6
CONTINUOUS
 62
     7
  5
3D7
 10
949335.879
 20
7251712.061
 30
0.0
 40
8.0
  1
50'
 50
88.1831
  7
txt
 72
     4
 11
949332.185575
 21
7251721.788993
 31
0.0
210
0.0
220
0.0
230
1.0
  0
TEXT
  8
11
  6
CONTINUOUS
 62
     7
  5
3D8
 10
946777.833
 20
7251968.714
 30
0.0
 40
8.0
  1
30'
 50
358.1831
  7
txt
 72
     4
 11
946787.560993
 21
7251972.407425
 31
0.0
210
0.0
220
0.0
230
1.0
  0
TEXT
  8
15
  6
CONTINUOUS
 62
    30
  5
3D9
 10
946997.639
 20
7248363.648
 30
0.0
 40
50.0
  1
RHOADES 
 50
43.1831
  7
ROMANC
 72
     4
 11
947136.402562
 21
7248528.16419
 31
0.0
210
0.0
220
0.0
230
1.0
  0
TEXT
  8
15
  6
CONTINUOUS
 62
    30
  5
3DA
 10
947259.437
 20
7247764.936
 30
0.0
 40
50.0
  1
ACRES
 50
43.1831
  7
ROMANC
 72
     4
 11
947335.335126
 21
7247870.452501
 31
0.0
210
0.0
220
0.0
230
1.0
  0
TEXT
  8
15
  6
CONTINUOUS
 62
    30
  5
3DB
 10
948471.543
 20
7248378.458
 30
0.0
 40
34.999
  1
FRANK
 50
43.1831
  7
ROMANC
 72
     4
 11
948530.196103
 21
7248457.504256
 31
0.0
210
0.0
220
0.0
230
1.0
  0
TEXT
  8
15
  6
CONTINUOUS
 62
    30
  5
3DC
 10
948557.023
 20
7248068.819
 30
0.0
 40
34.999
  1
HODGES
 50
43.1831
  7
ROMANC
 72
     4
 11
948627.028559
 21
7248158.519622
 31
0.0
210
0.0
220
0.0
230
1.0
  0
TEXT
  8
11
  6
CONTINUOUS
 62
     7
  5
3DD
 10
946771.356
 20
7248833.131
 30
0.0
 40
8.0
  1
110'
 50
358.1831
  7
txt
 72
     4
 11
946782.248407
 21
7248836.787488
 31
0.0
210
0.0
220
0.0
230
1.0
  0
TEXT
  8
11
  6
CONTINUOUS
 62
     7
  5
3DE
 10
946752.09
 20
7248248.464
 30
0.0
 40
8.0
  1
110'
 50
358.1831
  7
txt
 72
     4
 11
946762.982407
 21
7248252.120488
 31
0.0
210
0.0
220
0.0
230
1.0
  0
TEXT
  8
11
  6
CONTINUOUS
 62
     7
  5
3DF
 10
946751.174
 20
7248174.255
 30
0.0
 40
8.0
  1
110'
 50
358.1831
  7
txt
 72
     4
 11
946762.066407
 21
7248177.911488
 31
0.0
210
0.0
220
0.0
230
1.0
  0
TEXT
  8
11
  6
CONTINUOUS
 62
     7
  5
3E0
 10
946742.003
 20
7247635.619
 30
0.0
 40
8.0
  1
110'
 50
358.1831
  7
txt
 72
     4
 11
946752.895407
 21
7247639.275488
 31
0.0
210
0.0
220
0.0
230
1.0
  0
TEXT
  8
11
  6
CONTINUOUS
 62
     7
  5
3E1
 10
946762.06
 20
7251370.04
 30
0.0
 40
8.0
  1
40'
 50
358.1831
  7
txt
 72
     4
 11
946771.976898
 21
7251373.727433
 31
0.0
210
0.0
220
0.0
230
1.0
  0
TEXT
  8
11
  6
CONTINUOUS
 62
     7
  5
3E2
 10
946681.768
 20
7248807.306
 30
0.0
 40
8.0
  1
40'
 50
358.1831
  7
txt
 72
     4
 11
946691.684898
 21
7248810.993433
 31
0.0
210
0.0
220
0.0
230
1.0
  0
TEXT
  8
11
  6
CONTINUOUS
 62
     7
  5
3E3
 10
946625.85
 20
7246992.536
 30
0.0
 40
8.0
  1
40'
 50
358.1831
  7
txt
 72
     4
 11
946635.766898
 21
7246996.223433
 31
0.0
210
0.0
220
0.0
230
1.0
  0
TEXT
  8
11
  6
CONTINUOUS
 62
     7
  5
3E4
 10
946643.692
 20
7247555.992
 30
0.0
 40
8.0
  1
45'
 50
358.1831
  7
txt
 72
     4
 11
946653.639882
 21
7247559.67845
 31
0.0
210
0.0
220
0.0
230
1.0
  0
TEXT
  8
11
  6
CONTINUOUS
 62
     7
  5
3E5
 10
948830.161
 20
7246892.324
 30
0.0
 40
8.0
  1
130'
 50
358.1831
  7
txt
 72
     4
 11
948842.469695
 21
7246895.935561
 31
0.0
210
0.0
220
0.0
230
1.0
  0
TEXT
  8
11
  6
CONTINUOUS
 62
     7
  5
3E6
 10
948480.339
 20
7248026.985
 30
0.0
 40
8.0
  1
1037.5'
 50
358.1831
  7
txt
 72
     4
 11
948502.690643
 21
7248030.277984
 31
0.0
210
0.0
220
0.0
230
1.0
  0
TEXT
  8
11
  6
CONTINUOUS
 62
     7
  5
3E7
 10
946897.991
 20
7247102.463
 30
0.0
 40
8.0
  1
60'
 50
358.1831
  7
txt
 72
     4
 11
946907.529088
 21
7247106.162449
 31
0.0
210
0.0
220
0.0
230
1.0
  0
TEXT
  8
11
  6
CONTINUOUS
 62
     7
  5
3E8
 10
946880.557
 20
7247633.093
 30
0.0
 40
8.0
  1
157.5'
 50
358.1831
  7
txt
 72
     4
 11
946898.941639
 21
7247636.511823
 31
0.0
210
0.0
220
0.0
230
1.0
  0
TEXT
  8
11
  6
CONTINUOUS
 62
     7
  5
3E9
 10
947823.718
 20
7247603.175
 30
0.0
 40
8.0
  1
157.5'
 50
358.1831
  7
txt
 72
     4
 11
947842.102639
 21
7247606.593823
 31
0.0
210
0.0
220
0.0
230
1.0
  0
TEXT
  8
11
  6
CONTINUOUS
 62
     7
  5
3EA
 10
947840.594
 20
7248135.17
 30
0.0
 40
8.0
  1
157.5'
 50
358.1831
  7
txt
 72
     4
 11
947858.978639
 21
7248138.588823
 31
0.0
210
0.0
220
0.0
230
1.0
  0
TEXT
  8
11
  6
CONTINUOUS
 62
     7
  5
3EB
 10
946893.06
 20
7248169.547
 30
0.0
 40
8.0
  1
157.5'
 50
358.1831
  7
txt
 72
     4
 11
946911.444639
 21
7248172.965823
 31
0.0
210
0.0
220
0.0
230
1.0
  0
TEXT
  8
11
  6
CONTINUOUS
 62
     7
  5
3EC
 10
946881.3
 20
7248245.021
 30
0.0
 40
8.0
  1
145.2'
 50
358.1831
  7
txt
 72
     4
 11
946899.842559
 21
7248248.434814
 31
0.0
210
0.0
220
0.0
230
1.0
  0
TEXT
  8
11
  6
CONTINUOUS
 62
     7
  5
3ED
 10
947603.384
 20
7248221.395
 30
0.0
 40
8.0
  1
145.2'
 50
358.1831
  7
txt
 72
     4
 11
947621.926559
 21
7248224.808814
 31
0.0
210
0.0
220
0.0
230
1.0
  0
TEXT
  8
11
  6
CONTINUOUS
 62
     7
  5
3EE
 10
947800.415
 20
7248215.146
 30
0.0
 40
8.0
  1
243.6'
 50
358.1831
  7
txt
 72
     4
 11
947820.184942
 21
7248218.520879
 31
0.0
210
0.0
220
0.0
230
1.0
  0
TEXT
  8
11
  6
CONTINUOUS
 62
     7
  5
3EF
 10
947823.955
 20
7248798.432
 30
0.0
 40
8.0
  1
243.6'
 50
358.1831
  7
txt
 72
     4
 11
947843.724942
 21
7248801.806879
 31
0.0
210
0.0
220
0.0
230
1.0
  0
TEXT
  8
11
  6
CONTINUOUS
 62
     7
  5
3F0
 10
947634.235
 20
7248804.45
 30
0.0
 40
8.0
  1
145.2'
 50
358.1831
  7
txt
 72
     4
 11
947652.777559
 21
7248807.863814
 31
0.0
210
0.0
220
0.0
230
1.0
  0
TEXT
  8
11
  6
CONTINUOUS
 62
     7
  5
3F1
 10
946896.111
 20
7248827.864
 30
0.0
 40
8.0
  1
145.2'
 50
358.1831
  7
txt
 72
     4
 11
946914.653559
 21
7248831.277814
 31
0.0
210
0.0
220
0.0
230
1.0
  0
TEXT
  8
11
  6
CONTINUOUS
 62
     7
  5
3F2
 10
947975.022
 20
7248753.612
 30
0.0
 40
8.0
  1
60'
 50
358.1831
  7
txt
 72
     4
 11
947984.560088
 21
7248757.311449
 31
0.0
210
0.0
220
0.0
230
1.0
  0
TEXT
  8
11
  6
CONTINUOUS
 62
     7
  5
3F3
 10
947945.187
 20
7247632.149
 30
0.0
 40
8.0
  1
60'
 50
358.1831
  7
txt
 72
     4
 11
947954.725088
 21
7247635.848449
 31
0.0
210
0.0
220
0.0
230
1.0
  0
TEXT
  8
11
  6
CONTINUOUS
 62
     7
  5
3F4
 10
948465.982
 20
7248610.59
 30
0.0
 40
8.0
  1
1038.34'
 50
358.1831
  7
txt
 72
     4
 11
948492.488553
 21
7248613.751184
 31
0.0
210
0.0
220
0.0
230
1.0
  0
TEXT
  8
11
  6
CONTINUOUS
 62
     7
  5
3F5
 10
948074.176
 20
7248581.87
 30
0.0
 40
8.0
  1
82.5'
 50
358.1831
  7
txt
 72
     4
 11
948089.948952
 21
7248585.37167
 31
0.0
210
0.0
220
0.0
230
1.0
  0
TEXT
  8
11
  6
CONTINUOUS
 62
     7
  5
3F6
 10
948181.5
 20
7248576.045
 30
0.0
 40
8.0
  1
130'
 50
358.1831
  7
txt
 72
     4
 11
948193.808695
 21
7248579.656561
 31
0.0
210
0.0
220
0.0
230
1.0
  0
TEXT
  8
11
  6
CONTINUOUS
 62
     7
  5
3F7
 10
948292.716
 20
7248572.517
 30
0.0
 40
8.0
  1
100'
 50
358.1831
  7
txt
 72
     4
 11
948304.992711
 21
7248576.129576
 31
0.0
210
0.0
220
0.0
230
1.0
  0
TEXT
  8
11
  6
CONTINUOUS
 62
     7
  5
3F8
 10
948791.033
 20
7248559.13
 30
0.0
 40
8.0
  1
90'
 50
358.1831
  7
txt
 72
     4
 11
948800.571088
 21
7248562.829449
 31
0.0
210
0.0
220
0.0
230
1.0
  0
TEXT
  8
11
  6
CONTINUOUS
 62
     7
  5
3F9
 10
948942.771
 20
7248554.317
 30
0.0
 40
8.0
  1
166.24'
 50
358.1831
  7
txt
 72
     4
 11
948964.932739
 21
7248557.616008
 31
0.0
210
0.0
220
0.0
230
1.0
  0
TEXT
  8
11
  6
CONTINUOUS
 62
     7
  5
3FA
 10
948932.276
 20
7248460.246
 30
0.0
 40
8.0
  1
175.87'
 50
358.1831
  7
txt
 72
     4
 11
948954.689612
 21
7248463.537018
 31
0.0
210
0.0
220
0.0
230
1.0
  0
TEXT
  8
11
  6
CONTINUOUS
 62
     7
  5
3FB
 10
948926.429
 20
7248344.243
 30
0.0
 40
8.0
  1
160.87'
 50
358.1831
  7
txt
 72
     4
 11
948948.590739
 21
7248347.542008
 31
0.0
210
0.0
220
0.0
230
1.0
  0
TEXT
  8
11
  6
CONTINUOUS
 62
     7
  5
3FC
 10
948930.802
 20
7248264.226
 30
0.0
 40
8.0
  1
160.44'
 50
358.1831
  7
txt
 72
     4
 11
948953.309565
 21
7248267.514038
 31
0.0
210
0.0
220
0.0
230
1.0
  0
TEXT
  8
11
  6
CONTINUOUS
 62
     7
  5
3FD
 10
948932.77
 20
7248169.759
 30
0.0
 40
8.0
  1
175.28'
 50
358.1831
  7
txt
 72
     4
 11
948955.152628
 21
7248173.051001
 31
0.0
210
0.0
220
0.0
230
1.0
  0
TEXT
  8
11
  6
CONTINUOUS
 62
     7
  5
3FE
 10
948933.953
 20
7248053.533
 30
0.0
 40
8.0
  1
165.24'
 50
358.1831
  7
txt
 72
     4
 11
948956.304643
 21
7248056.825984
 31
0.0
210
0.0
220
0.0
230
1.0
  0
TEXT
  8
11
  6
CONTINUOUS
 62
     7
  5
3FF
 10
948789.734
 20
7248060.528
 30
0.0
 40
8.0
  1
90'
 50
358.1831
  7
txt
 72
     4
 11
948799.272088
 21
7248064.227449
 31
0.0
210
0.0
220
0.0
230
1.0
  0
TEXT
  8
11
  6
CONTINUOUS
 62
     7
  5
400
 10
948281.903
 20
7248079.058
 30
0.0
 40
8.0
  1
100'
 50
358.1831
  7
txt
 72
     4
 11
948294.179711
 21
7248082.670576
 31
0.0
210
0.0
220
0.0
230
1.0
  0
TEXT
  8
11
  6
CONTINUOUS
 62
     7
  5
401
 10
948168.191
 20
7248080.245
 30
0.0
 40
8.0
  1
130'
 50
358.1831
  7
txt
 72
     4
 11
948180.499695
 21
7248083.856561
 31
0.0
210
0.0
220
0.0
230
1.0
  0
TEXT
  8
11
  6
CONTINUOUS
 62
     7
  5
402
 10
948060.715
 20
7248081.234
 30
0.0
 40
8.0
  1
82.5'
 50
358.1831
  7
txt
 72
     4
 11
948076.487952
 21
7248084.73567
 31
0.0
210
0.0
220
0.0
230
1.0
  0
TEXT
  8
11
  6
CONTINUOUS
 62
     7
  5
403
 10
948088.806
 20
7248317.561
 30
0.0
 40
8.0
  1
160'
 50
358.1831
  7
txt
 72
     4
 11
948100.92579
 21
7248321.178554
 31
0.0
210
0.0
220
0.0
230
1.0
  0
TEXT
  8
11
  6
CONTINUOUS
 62
     7
  5
404
 10
949439.464
 20
7246872.884
 30
0.0
 40
8.0
  1
130'
 50
358.1831
  7
txt
 72
     4
 11
949451.772695
 21
7246876.495561
 31
0.0
210
0.0
220
0.0
230
1.0
  0
TEXT
  8
11
  6
CONTINUOUS
 62
     7
  5
405
 10
949510.497
 20
7246822.077
 30
0.0
 40
8.0
  1
60'
 50
88.1831
  7
txt
 72
     4
 11
949506.797551
 21
7246831.615088
 31
0.0
210
0.0
220
0.0
230
1.0
  0
TEXT
  8
11
  6
CONTINUOUS
 62
     7
  5
406
 10
948982.276
 20
7248297.637
 30
0.0
 40
8.0
  1
60'
 50
88.1831
  7
txt
 72
     4
 11
948978.576551
 21
7248307.175088
 31
0.0
210
0.0
220
0.0
230
1.0
  0
TEXT
  8
11
  6
CONTINUOUS
 62
     7
  5
407
 10
949306.186
 20
7250892.52
 30
0.0
 40
8.0
  1
600'
 50
88.1831
  7
txt
 72
     4
 11
949302.612358
 21
7250906.024094
 31
0.0
210
0.0
220
0.0
230
1.0
  0
TEXT
  8
11
  6
CONTINUOUS
 62
     7
  5
408
 10
947955.193
 20
7248638.534
 30
0.0
 40
8.0
  1
300'
 50
88.1831
  7
txt
 72
     4
 11
947951.625382
 21
7248652.227998
 31
0.0
210
0.0
220
0.0
230
1.0
  0
TEXT
  8
11
  6
CONTINUOUS
 62
     7
  5
409
 10
947943.266
 20
7248353.279
 30
0.0
 40
8.0
  1
300'
 50
88.1831
  7
txt
 72
     4
 11
947939.698382
 21
7248366.972998
 31
0.0
210
0.0
220
0.0
230
1.0
  0
TEXT
  8
11
  6
CONTINUOUS
 62
     7
  5
40A
 10
946712.004
 20
7248385.856
 30
0.0
 40
8.0
  1
300'
 50
88.1831
  7
txt
 72
     4
 11
946708.436382
 21
7248399.549998
 31
0.0
210
0.0
220
0.0
230
1.0
  0
TEXT
  8
11
  6
CONTINUOUS
 62
     7
  5
40B
 10
946721.398
 20
7248681.991
 30
0.0
 40
8.0
  1
300'
 50
88.1831
  7
txt
 72
     4
 11
946717.830382
 21
7248695.684998
 31
0.0
210
0.0
220
0.0
230
1.0
  0
TEXT
  8
11
  6
CONTINUOUS
 62
     7
  5
40C
 10
946701.391
 20
7248037.879
 30
0.0
 40
8.0
  1
276.5'
 50
88.1831
  7
txt
 72
     4
 11
946698.011111
 21
7248057.491021
 31
0.0
210
0.0
220
0.0
230
1.0
  0
TEXT
  8
11
  6
CONTINUOUS
 62
     7
  5
40D
 10
946693.196
 20
7247756.872
 30
0.0
 40
8.0
  1
276.5'
 50
88.1831
  7
txt
 72
     4
 11
946689.816111
 21
7247776.484021
 31
0.0
210
0.0
220
0.0
230
1.0
  0
TEXT
  8
11
  6
CONTINUOUS
 62
     7
  5
40E
 10
947920.703
 20
7247710.014
 30
0.0
 40
8.0
  1
276.5'
 50
88.1831
  7
txt
 72
     4
 11
947917.323111
 21
7247729.626021
 31
0.0
210
0.0
220
0.0
230
1.0
  0
TEXT
  8
11
  6
CONTINUOUS
 62
     7
  5
40F
 10
947928.99
 20
7247971.285
 30
0.0
 40
8.0
  1
276.5'
 50
88.1831
  7
txt
 72
     4
 11
947925.610111
 21
7247990.897021
 31
0.0
210
0.0
220
0.0
230
1.0
  0
TEXT
  8
11
  6
CONTINUOUS
 62
     7
  5
410
 10
946671.201
 20
7247122.484
 30
0.0
 40
8.0
  1
355.65'
 50
88.1831
  7
txt
 72
     4
 11
946667.946951
 21
7247146.063026
 31
0.0
210
0.0
220
0.0
230
1.0
  0
TEXT
  8
15
  6
CONTINUOUS
 62
    30
  5
411
 10
949720.24
 20
7251953.178
 30
0.0
 40
19.999
  1
MARTIN-
 50
28.1831
  7
ROMANC
 72
     4
 11
949777.42082
 21
7251995.16141
 31
0.0
210
0.0
220
0.0
230
1.0
  0
TEXT
  8
15
  6
CONTINUOUS
 62
    30
  5
412
 10
949746.002
 20
7251906.143
 30
0.0
 40
19.999
  1
AMEEN
 50
28.1831
  7
ROMANC
 72
     4
 11
949790.48211
 21
7251941.321172
 31
0.0
210
0.0
220
0.0
230
1.0
  0
TEXT
  8
15
  6
CONTINUOUS
 62
    30
  5
413
 10
948983.597
 20
7251728.636
 30
0.0
 40
50.0
  1

 50
28.1831
  7
ROMANC
 72
     4
 11
948983.597
 21
7251728.636
 31
0.0
210
0.0
220
0.0
230
1.0
  0
TEXT
  8
15
  6
CONTINUOUS
 62
    30
  5
414
 10
947698.3
 20
7247883.457
 30
0.0
 40
50.0
  1

 50
43.1831
  7
ROMANC
 72
     4
 11
947698.3
 21
7247883.457
 31
0.0
210
0.0
220
0.0
230
1.0
  0
TEXT
  8
15
  6
CONTINUOUS
 62
    30
  5
415
 10
946716.17
 20
7247170.793
 30
0.0
 40
19.999
  1
RHOADES 
 50
43.1831
  7
ROMANC
 72
     4
 11
946771.672216
 21
7247236.596465
 31
0.0
210
0.0
220
0.0
230
1.0
  0
TEXT
  8
15
  6
CONTINUOUS
 62
    30
  5
416
 10
946761.944
 20
7247024.559
 30
0.0
 40
19.999
  1
ACRES
 50
43.1831
  7
ROMANC
 72
     4
 11
946792.3015
 21
7247066.763958
 31
0.0
210
0.0
220
0.0
230
1.0
  0
TEXT
  8
19
  6
CONTINUOUS
 62
     1
  5
418
 10
949501.285
 20
7250918.418
 30
0.0
 40
24.0
  1
U.S. HIGHWAY 87 (TOHAKO RD.)
 50
88.1831
  7
ROMANC
 72
     4
 11
949499.835672
 21
7251251.211263
 31
0.0
210
0.0
220
0.0
230
1.0
  0
TEXT
  8
19
  6
CONTINUOUS
 62
     1
  5
419
 10
949179.883
 20
7247239.927
 30
0.0
 40
24.0
  1
U.S. HIGHWAY 87 (TOHAKO RD.)
 50
88.1831
  7
ROMANC
 72
     4
 11
949178.433672
 21
7247572.720263
 31
0.0
210
0.0
220
0.0
230
1.0
  0
TEXT
  8
15
  6
CONTINUOUS
 62
    30
  5
41A
 10
948409.938
 20
7251846.602
 30
0.0
 40
34.999
  1
RHOADES
 50
28.1831
  7
ROMANC
 72
     4
 11
948518.263113
 21
7251924.498097
 31
0.0
210
0.0
220
0.0
230
1.0
  0
TEXT
  8
15
  6
CONTINUOUS
 62
    30
  5
41B
 10
948995.415
 20
7251490.43
 30
0.0
 40
34.999
  1
HEIGHTS
 50
28.1831
  7
ROMANC
 72
     4
 11
949097.91025
 21
7251565.202366
 31
0.0
210
0.0
220
0.0
230
1.0
  0
TEXT
  8
15
  6
CONTINUOUS
 62
    30
  5
41C
 10
949880.549
 20
7251618.038
 30
0.0
 40
50.0
  1
82ND
 50
28.1831
  7
ROMANC
 72
     4
 11
949957.577061
 21
7251687.673425
 31
0.0
210
0.0
220
0.0
230
1.0
  0
TEXT
  8
15
  6
CONTINUOUS
 62
    30
  5
41D
 10
950451.381
 20
7251227.695
 30
0.0
 40
50.0
  1
ACRES
 50
28.1831
  7
ROMANC
 72
     4
 11
950552.00264
 21
7251309.972233
 31
0.0
210
0.0
220
0.0
230
1.0
  0
TEXT
  8
11
  6
CONTINUOUS
 62
     7
  5
41E
 10
948194.817
 20
7248319.775
 30
0.0
 40
8.0
  1
R
 50
95.1919
  7
txt
 72
     4
 11
948190.591165
 21
7248322.07905
 31
0.0
210
0.0
220
0.0
230
1.0
  0
TEXT
  8
11
  6
CONTINUOUS
 62
     7
  5
41F
 10
948194.196
 20
7248328.682
 30
0.0
 40
8.0
  1
=
 50
89.712853
  7
txt
 72
     4
 11
948190.205051
 21
7248330.498024
 31
0.0
210
0.0
220
0.0
230
1.0
  0
TEXT
  8
11
  6
CONTINUOUS
 62
     7
  5
420
 10
948194.35
 20
7248334.053
 30
0.0
 40
8.0
  1
7
 50
84.233806
  7
txt
 72
     4
 11
948190.64231
 21
7248337.149175
 31
0.0
210
0.0
220
0.0
230
1.0
  0
TEXT
  8
11
  6
CONTINUOUS
 62
     7
  5
421
 10
948195.399
 20
7248341.617
 30
0.0
 40
8.0
  1
0
 50
78.754761
  7
txt
 72
     4
 11
948191.991787
 21
7248344.992236
 31
0.0
210
0.0
220
0.0
230
1.0
  0
TEXT
  8
11
  6
CONTINUOUS
 62
     7
  5
422
 10
948197.116
 20
7248348.345
 30
0.0
 40
8.0
  1
'
 50
73.275714
  7
txt
 72
     4
 11
948193.756559
 21
7248351.06478
 31
0.0
210
0.0
220
0.0
230
1.0
  0
TEXT
  8
11
  6
CONTINUOUS
 62
     7
  5
423
 10
948271.653
 20
7248396.82
 30
0.0
 40
8.0
  1
7
 50
345.610972
  7
txt
 72
     4
 11
948275.27007
 21
7248400.021573
 31
0.0
210
0.0
220
0.0
230
1.0
  0
TEXT
  8
11
  6
CONTINUOUS
 62
     7
  5
424
 10
948279.583
 20
7248394.562
 30
0.0
 40
8.0
  1
6
 50
340.131928
  7
txt
 72
     4
 11
948283.282331
 21
7248397.47835
 31
0.0
210
0.0
220
0.0
230
1.0
  0
TEXT
  8
11
  6
CONTINUOUS
 62
     7
  5
425
 10
948287.481
 20
7248391.276
 30
0.0
 40
8.0
  1
.
 50
334.652881
  7
txt
 72
     4
 11
948289.677805
 21
7248394.661461
 31
0.0
210
0.0
220
0.0
230
1.0
  0
TEXT
  8
11
  6
CONTINUOUS
 62
     7
  5
426
 10
948293.414
 20
7248388.254
 30
0.0
 40
8.0
  1
3
 50
323.694789
  7
txt
 72
     4
 11
948297.939672
 21
7248389.892482
 31
0.0
210
0.0
220
0.0
230
1.0
  0
TEXT
  8
11
  6
CONTINUOUS
 62
     7
  5
427
 10
948299.937
 20
7248383.564
 30
0.0
 40
8.0
  1
9
 50
318.215742
  7
txt
 72
     4
 11
948304.45751
 21
7248384.888813
 31
0.0
210
0.0
220
0.0
230
1.0
  0
TEXT
  8
11
  6
CONTINUOUS
 62
     7
  5
428
 10
948305.653
 20
7248378.429
 30
0.0
 40
8.0
  1
'
 50
312.736694
  7
txt
 72
     4
 11
948309.702517
 21
7248379.940442
 31
0.0
210
0.0
220
0.0
230
1.0
  0
TEXT
  8
11
  6
CONTINUOUS
 62
     7
  5
429
 10
948204.668
 20
7248433.577
 30
0.0
 40
8.0
  1
3
 50
296.055836
  7
txt
 72
     4
 11
948209.437329
 21
7248432.92906
 31
0.0
210
0.0
220
0.0
230
1.0
  0
TEXT
  8
11
  6
CONTINUOUS
 62
     7
  5
42A
 10
948208.333
 20
7248426.079
 30
0.0
 40
8.0
  1
1
 50
296.055836
  7
txt
 72
     4
 11
948212.479917
 21
7248426.704046
 31
0.0
210
0.0
220
0.0
230
1.0
  0
TEXT
  8
11
  6
CONTINUOUS
 62
     7
  5
42B
 10
948212.125
 20
7248418.325
 30
0.0
 40
8.0
  1
.
 50
296.055836
  7
txt
 72
     4
 11
948215.953902
 21
7248419.600463
 31
0.0
210
0.0
220
0.0
230
1.0
  0
TEXT
  8
11
  6
CONTINUOUS
 62
     7
  5
42C
 10
948215.293
 20
7248411.845
 30
0.0
 40
8.0
  1
6
 50
296.055836
  7
txt
 72
     4
 11
948219.979312
 21
7248411.366852
 31
0.0
210
0.0
220
0.0
230
1.0
  0
TEXT
  8
11
  6
CONTINUOUS
 62
     7
  5
42D
 10
948218.613
 20
7248405.055
 30
0.0
 40
8.0
  1
8
 50
296.055836
  7
txt
 72
     4
 11
948223.382329
 21
7248404.40706
 31
0.0
210
0.0
220
0.0
230
1.0
  0
TEXT
  8
11
  6
CONTINUOUS
 62
     7
  5
42E
 10
948222.113
 20
7248397.897
 30
0.0
 40
8.0
  1
'
 50
296.055836
  7
txt
 72
     4
 11
948226.425952
 21
7248398.182463
 31
0.0
210
0.0
220
0.0
230
1.0
  0
TEXT
  8
11
  6
CONTINUOUS
 62
     7
  5
42F
 10
948166.176
 20
7248394.304
 30
0.0
 40
8.0
  1
3
 50
324.36505
  7
txt
 72
     4
 11
948170.682195
 21
7248395.995311
 31
0.0
210
0.0
220
0.0
230
1.0
  0
TEXT
  8
11
  6
CONTINUOUS
 62
     7
  5
430
 10
948172.473
 20
7248389.789
 30
0.0
 40
8.0
  1
4
 50
324.36505
  7
txt
 72
     4
 11
948177.132804
 21
7248391.370196
 31
0.0
210
0.0
220
0.0
230
1.0
  0
TEXT
  8
11
  6
CONTINUOUS
 62
     7
  5
431
 10
948179.974
 20
7248384.414
 30
0.0
 40
8.0
  1
.
 50
324.36505
  7
txt
 72
     4
 11
948182.740107
 21
7248387.352698
 31
0.0
210
0.0
220
0.0
230
1.0
  0
TEXT
  8
11
  6
CONTINUOUS
 62
     7
  5
432
 10
948185.529
 20
7248380.432
 30
0.0
 40
8.0
  1
2
 50
324.36505
  7
txt
 72
     4
 11
948190.035195
 21
7248382.123311
 31
0.0
210
0.0
220
0.0
230
1.0
  0
TEXT
  8
11
  6
CONTINUOUS
 62
     7
  5
433
 10
948191.826
 20
7248375.917
 30
0.0
 40
8.0
  1
4
 50
324.36505
  7
txt
 72
     4
 11
948196.485804
 21
7248377.498196
 31
0.0
210
0.0
220
0.0
230
1.0
  0
TEXT
  8
11
  6
CONTINUOUS
 62
     7
  5
434
 10
948198.456
 20
7248371.165
 30
0.0
 40
8.0
  1
'
 50
324.36505
  7
txt
 72
     4
 11
948202.117753
 21
7248373.461652
 31
0.0
210
0.0
220
0.0
230
1.0
  0
TEXT
  8
11
  6
CONTINUOUS
 62
     7
  5
435
 10
948134.677
 20
7248332.28
 30
0.0
 40
8.0
  1
4
 50
358.1831
  7
txt
 72
     4
 11
948137.668381
 21
7248336.187121
 31
0.0
210
0.0
220
0.0
230
1.0
  0
TEXT
  8
11
  6
CONTINUOUS
 62
     7
  5
436
 10
948143.146
 20
7248332.012
 30
0.0
 40
8.0
  1
0
 50
358.1831
  7
txt
 72
     4
 11
948145.917492
 21
7248335.926096
 31
0.0
210
0.0
220
0.0
230
1.0
  0
TEXT
  8
11
  6
CONTINUOUS
 62
     7
  5
437
 10
948151.835
 20
7248331.736
 30
0.0
 40
8.0
  1
.
 50
358.1831
  7
txt
 72
     4
 11
948152.497553
 21
7248335.716995
 31
0.0
210
0.0
220
0.0
230
1.0
  0
TEXT
  8
11
  6
CONTINUOUS
 62
     7
  5
438
 10
948158.854
 20
7248331.514
 30
0.0
 40
8.0
  1
9
 50
358.1831
  7
txt
 72
     4
 11
948161.467571
 21
7248335.433106
 31
0.0
210
0.0
220
0.0
230
1.0
  0
TEXT
  8
11
  6
CONTINUOUS
 62
     7
  5
439
 10
948166.598
 20
7248331.268
 30
0.0
 40
8.0
  1
5
 50
358.1831
  7
txt
 72
     4
 11
948169.400476
 21
7248335.181113
 31
0.0
210
0.0
220
0.0
230
1.0
  0
TEXT
  8
11
  6
CONTINUOUS
 62
     7
  5
43A
 10
948174.562
 20
7248331.015
 30
0.0
 40
8.0
  1
'
 50
358.1831
  7
txt
 72
     4
 11
948176.325999
 21
7248334.961055
 31
0.0
210
0.0
220
0.0
230
1.0
  0
TEXT
  8
11
  6
CONTINUOUS
 62
     7
  5
43B
 10
948134.487
 20
7248326.283
 30
0.0
 40
8.0
  1
4
 50
358.1831
  7
txt
 72
     4
 11
948137.478381
 21
7248330.190121
 31
0.0
210
0.0
220
0.0
230
1.0
  0
TEXT
  8
11
  6
CONTINUOUS
 62
     7
  5
43C
 10
948142.956
 20
7248326.015
 30
0.0
 40
8.0
  1
0
 50
358.1831
  7
txt
 72
     4
 11
948145.727492
 21
7248329.929096
 31
0.0
210
0.0
220
0.0
230
1.0
  0
TEXT
  8
11
  6
CONTINUOUS
 62
     7
  5
43D
 10
948151.645
 20
7248325.739
 30
0.0
 40
8.0
  1
.
 50
358.1831
  7
txt
 72
     4
 11
948152.307553
 21
7248329.719995
 31
0.0
210
0.0
220
0.0
230
1.0
  0
TEXT
  8
11
  6
CONTINUOUS
 62
     7
  5
43E
 10
948158.475
 20
7248325.523
 30
0.0
 40
8.0
  1
8
 50
358.1831
  7
txt
 72
     4
 11
948161.277476
 21
7248329.436113
 31
0.0
210
0.0
220
0.0
230
1.0
  0
TEXT
  8
11
  6
CONTINUOUS
 62
     7
  5
43F
 10
948166.787
 20
7248325.259
 30
0.0
 40
8.0
  1
6
 50
358.1831
  7
txt
 72
     4
 11
948169.400571
 21
7248329.178106
 31
0.0
210
0.0
220
0.0
230
1.0
  0
TEXT
  8
11
  6
CONTINUOUS
 62
     7
  5
440
 10
948174.372
 20
7248325.018
 30
0.0
 40
8.0
  1
'
 50
358.1831
  7
txt
 72
     4
 11
948176.135999
 21
7248328.964055
 31
0.0
210
0.0
220
0.0
230
1.0
  0
TEXT
  8
11
  6
CONTINUOUS
 62
     7
  5
441
 10
948164.246
 20
7248263.266
 30
0.0
 40
8.0
  1
3
 50
32.318044
  7
txt
 72
     4
 11
948164.369841
 21
7248268.077548
 31
0.0
210
0.0
220
0.0
230
1.0
  0
TEXT
  8
11
  6
CONTINUOUS
 62
     7
  5
442
 10
948170.794
 20
7248267.409
 30
0.0
 40
8.0
  1
4
 50
32.318044
  7
txt
 72
     4
 11
948171.077564
 21
7248272.321591
 31
0.0
210
0.0
220
0.0
230
1.0
  0
TEXT
  8
11
  6
CONTINUOUS
 62
     7
  5
443
 10
948178.593
 20
7248272.343
 30
0.0
 40
8.0
  1
.
 50
32.318044
  7
txt
 72
     4
 11
948176.907496
 21
7248276.00993
 31
0.0
210
0.0
220
0.0
230
1.0
  0
TEXT
  8
11
  6
CONTINUOUS
 62
     7
  5
444
 10
948184.662
 20
7248276.182
 30
0.0
 40
8.0
  1
0
 50
32.318044
  7
txt
 72
     4
 11
948184.759643
 21
7248280.976975
 31
0.0
210
0.0
220
0.0
230
1.0
  0
TEXT
  8
11
  6
CONTINUOUS
 62
     7
  5
445
 10
948191.237
 20
7248280.34
 30
0.0
 40
8.0
  1
9
 50
32.318044
  7
txt
 72
     4
 11
948191.201119
 21
7248285.050505
 31
0.0
210
0.0
220
0.0
230
1.0
  0
TEXT
  8
11
  6
CONTINUOUS
 62
     7
  5
446
 10
948197.811
 20
7248284.501
 30
0.0
 40
8.0
  1
'
 50
32.318044
  7
txt
 72
     4
 11
948197.056789
 21
7248288.757079
 31
0.0
210
0.0
220
0.0
230
1.0
  0
TEXT
  8
11
  6
CONTINUOUS
 62
     7
  5
447
 10
948203.524
 20
7248221.784
 30
0.0
 40
8.0
  1
3
 50
60.501381
  7
txt
 72
     4
 11
948201.360691
 21
7248226.083584
 31
0.0
210
0.0
220
0.0
230
1.0
  0
TEXT
  8
11
  6
CONTINUOUS
 62
     7
  5
448
 10
948207.635
 20
7248229.048
 30
0.0
 40
8.0
  1
1
 50
60.501381
  7
txt
 72
     4
 11
948204.773957
 21
7248232.114273
 31
0.0
210
0.0
220
0.0
230
1.0
  0
TEXT
  8
11
  6
CONTINUOUS
 62
     7
  5
449
 10
948211.884
 20
7248236.56
 30
0.0
 40
8.0
  1
.
 50
60.501381
  7
txt
 72
     4
 11
948208.666458
 21
7248238.996127
 31
0.0
210
0.0
220
0.0
230
1.0
  0
TEXT
  8
11
  6
CONTINUOUS
 62
     7
  5
44A
 10
948215.436
 20
7248242.838
 30
0.0
 40
8.0
  1
6
 50
60.501381
  7
txt
 72
     4
 11
948213.179627
 21
7248246.973085
 31
0.0
210
0.0
220
0.0
230
1.0
  0
TEXT
  8
11
  6
CONTINUOUS
 62
     7
  5
44B
 10
948219.157
 20
7248249.416
 30
0.0
 40
8.0
  1
2
 50
60.501381
  7
txt
 72
     4
 11
948216.993691
 21
7248253.715584
 31
0.0
210
0.0
220
0.0
230
1.0
  0
TEXT
  8
11
  6
CONTINUOUS
 62
     7
  5
44C
 10
948223.081
 20
7248256.351
 30
0.0
 40
8.0
  1
'
 50
60.501381
  7
txt
 72
     4
 11
948220.406085
 21
7248259.746272
 31
0.0
210
0.0
220
0.0
230
1.0
  0
TEXT
  8
11
  6
CONTINUOUS
 62
     7
  5
44D
 10
948264.763
 20
7248252.775
 30
0.0
 40
8.0
  1
7
 50
8.335686
  7
txt
 72
     4
 11
948266.862502
 21
7248257.125328
 31
0.0
210
0.0
220
0.0
230
1.0
  0
TEXT
  8
11
  6
CONTINUOUS
 62
     7
  5
44E
 10
948273.653
 20
7248254.251
 30
0.0
 40
8.0
  1
6
 50
13.814733
  7
txt
 72
     4
 11
948275.113897
 21
7248258.729384
 31
0.0
210
0.0
220
0.0
230
1.0
  0
TEXT
  8
11
  6
CONTINUOUS
 62
     7
  5
44F
 10
948282.611
 20
7248256.822
 30
0.0
 40
8.0
  1
.
 50
19.293778
  7
txt
 72
     4
 11
948281.795249
 21
7248260.774448
 31
0.0
210
0.0
220
0.0
230
1.0
  0
TEXT
  8
11
  6
CONTINUOUS
 62
     7
  5
450
 10
948289.897
 20
7248259.806
 30
0.0
 40
8.0
  1
6
 50
24.772825
  7
txt
 72
     4
 11
948290.479959
 21
7248264.480431
 31
0.0
210
0.0
220
0.0
230
1.0
  0
TEXT
  8
11
  6
CONTINUOUS
 62
     7
  5
451
 10
948298.107
 20
7248264.125
 30
0.0
 40
8.0
  1
6
 50
35.730917
  7
txt
 72
     4
 11
948297.790763
 21
7248268.825015
 31
0.0
210
0.0
220
0.0
230
1.0
  0
TEXT
  8
11
  6
CONTINUOUS
 62
     7
  5
452
 10
948304.829
 20
7248268.929
 30
0.0
 40
8.0
  1
'
 50
41.209964
  7
txt
 72
     4
 11
948303.425987
 21
7248273.017349
 31
0.0
210
0.0
220
0.0
230
1.0
  0
TEXT
  8
11
  6
CONTINUOUS
 62
     7
  5
453
 10
948045.22
 20
7248519.385
 30
0.0
 40
8.0
  1
96.04'
 50
88.1831
  7
txt
 72
     4
 11
948041.838114
 21
7248538.934053
 31
0.0
210
0.0
220
0.0
230
1.0
  0
TEXT
  8
11
  6
CONTINUOUS
 62
     7
  5
454
 10
948034.048
 20
7248117.57
 30
0.0
 40
8.0
  1
96.04'
 50
88.1831
  7
txt
 72
     4
 11
948030.666114
 21
7248137.119053
 31
0.0
210
0.0
220
0.0
230
1.0
  0
TEXT
  8
11
  6
CONTINUOUS
 62
     7
  5
455
 10
948043.567
 20
7248392.859
 30
0.0
 40
8.0
  1
155'
 50
88.1831
  7
txt
 72
     4
 11
948039.956453
 21
7248405.199679
 31
0.0
210
0.0
220
0.0
230
1.0
  0
TEXT
  8
11
  6
CONTINUOUS
 62
     7
  5
456
 10
948038.317
 20
7248252.148
 30
0.0
 40
8.0
  1
155'
 50
88.1831
  7
txt
 72
     4
 11
948034.706453
 21
7248264.488679
 31
0.0
210
0.0
220
0.0
230
1.0
  0
TEXT
  8
11
  6
CONTINUOUS
 62
     7
  5
457
 10
948339.221
 20
7248364.427
 30
0.0
 40
8.0
  1
29.32'
 50
88.1831
  7
txt
 72
     4
 11
948335.840128
 21
7248384.008037
 31
0.0
210
0.0
220
0.0
230
1.0
  0
TEXT
  8
11
  6
CONTINUOUS
 62
     7
  5
458
 10
948336.459
 20
7248252.602
 30
0.0
 40
8.0
  1
29.18'
 50
88.1831
  7
txt
 72
     4
 11
948333.03317
 21
7248270.76575
 31
0.0
210
0.0
220
0.0
230
1.0
  0
TEXT
  8
11
  6
CONTINUOUS
 62
     7
  5
459
 10
948250.042
 20
7248479.267
 30
0.0
 40
8.0
  1
191.13'
 50
88.1831
  7
txt
 72
     4
 11
948246.653138
 21
7248498.596163
 31
0.0
210
0.0
220
0.0
230
1.0
  0
TEXT
  8
11
  6
CONTINUOUS
 62
     7
  5
45A
 10
948239.225
 20
7248138.229
 30
0.0
 40
8.0
  1
191.16'
 50
88.1831
  7
txt
 72
     4
 11
948235.830114
 21
7248157.368259
 31
0.0
210
0.0
220
0.0
230
1.0
  0
TEXT
  8
11
  6
CONTINUOUS
 62
     7
  5
45B
 10
948338.706
 20
7248149.804
 30
0.0
 40
8.0
  1
231.04'
 50
88.1831
  7
txt
 72
     4
 11
948335.417994
 21
7248172.312564
 31
0.0
210
0.0
220
0.0
230
1.0
  0
TEXT
  8
11
  6
CONTINUOUS
 62
     7
  5
45C
 10
948350.229
 20
7248463.461
 30
0.0
 40
8.0
  1
231.04'
 50
88.1831
  7
txt
 72
     4
 11
948346.940994
 21
7248485.969564
 31
0.0
210
0.0
220
0.0
230
1.0
  0
TEXT
  8
11
  6
CONTINUOUS
 62
     7
  5
45D
 10
948749.158
 20
7248441.263
 30
0.0
 40
8.0
  1
231.04'
 50
88.1831
  7
txt
 72
     4
 11
948745.869994
 21
7248463.771564
 31
0.0
210
0.0
220
0.0
230
1.0
  0
TEXT
  8
11
  6
CONTINUOUS
 62
     7
  5
45E
 10
948740.469
 20
7248142.522
 30
0.0
 40
8.0
  1
231.04'
 50
88.1831
  7
txt
 72
     4
 11
948737.180994
 21
7248165.030564
 31
0.0
210
0.0
220
0.0
230
1.0
  0
TEXT
  8
11
  6
CONTINUOUS
 62
     7
  5
45F
 10
948849.204
 20
7248435.834
 30
0.0
 40
8.0
  1
221.04'
 50
88.1831
  7
txt
 72
     4
 11
948845.915994
 21
7248458.342564
 31
0.0
210
0.0
220
0.0
230
1.0
  0
TEXT
  8
11
  6
CONTINUOUS
 62
     7
  5
460
 10
948841.373
 20
7248139.374
 30
0.0
 40
8.0
  1
221.04'
 50
88.1831
  7
txt
 72
     4
 11
948838.084994
 21
7248161.882564
 31
0.0
210
0.0
220
0.0
230
1.0
  0
TEXT
  8
11
  6
CONTINUOUS
 62
     7
  5
461
 10
949195.382
 20
7249697.492
 30
0.0
 40
8.0
  1
R
 50
77.66465
  7
txt
 72
     4
 11
949192.04624
 21
7249700.961731
 31
0.0
210
0.0
220
0.0
230
1.0
  0
TEXT
  8
11
  6
CONTINUOUS
 62
     7
  5
462
 10
949197.435
 20
7249706.876
 30
0.0
 40
8.0
  1
=
 50
77.66465
  7
txt
 72
     4
 11
949193.911029
 21
7249709.48507
 31
0.0
210
0.0
220
0.0
230
1.0
  0
TEXT
  8
11
  6
CONTINUOUS
 62
     7
  5
463
 10
949198.814
 20
7249713.183
 30
0.0
 40
8.0
  1
6
 50
77.66465
  7
txt
 72
     4
 11
949195.437863
 21
7249716.468095
 31
0.0
210
0.0
220
0.0
230
1.0
  0
TEXT
  8
11
  6
CONTINUOUS
 62
     7
  5
464
 10
949200.51
 20
7249720.937
 30
0.0
 40
8.0
  1
6
 50
77.66465
  7
txt
 72
     4
 11
949197.133863
 21
7249724.222095
 31
0.0
210
0.0
220
0.0
230
1.0
  0
TEXT
  8
11
  6
CONTINUOUS
 62
     7
  5
465
 10
949202.21
 20
7249728.721
 30
0.0
 40
8.0
  1
1
 50
77.66465
  7
txt
 72
     4
 11
949198.571522
 21
7249730.806444
 31
0.0
210
0.0
220
0.0
230
1.0
  0
TEXT
  8
11
  6
CONTINUOUS
 62
     7
  5
466
 10
949203.818
 20
7249736.075
 30
0.0
 40
8.0
  1
3
 50
77.66465
  7
txt
 72
     4
 11
949200.48224
 21
7249739.544731
 31
0.0
210
0.0
220
0.0
230
1.0
  0
TEXT
  8
11
  6
CONTINUOUS
 62
     7
  5
467
 10
949205.75
 20
7249744.906
 30
0.0
 40
8.0
  1
.
 50
77.66465
  7
txt
 72
     4
 11
949201.956852
 21
7249746.284159
 31
0.0
210
0.0
220
0.0
230
1.0
  0
TEXT
  8
11
  6
CONTINUOUS
 62
     7
  5
468
 10
949207.297
 20
7249751.983
 30
0.0
 40
8.0
  1
1
 50
77.66465
  7
txt
 72
     4
 11
949203.658522
 21
7249754.068444
 31
0.0
210
0.0
220
0.0
230
1.0
  0
TEXT
  8
11
  6
CONTINUOUS
 62
     7
  5
469
 10
949208.963
 20
7249759.507
 30
0.0
 40
8.0
  1
9
 50
77.101003
  7
txt
 72
     4
 11
949205.619343
 21
7249762.825148
 31
0.0
210
0.0
220
0.0
230
1.0
  0
TEXT
  8
11
  6
CONTINUOUS
 62
     7
  5
46A
 10
949210.701
 20
7249767.091
 30
0.0
 40
8.0
  1
'
 50
77.101003
  7
txt
 72
     4
 11
949207.167595
 21
7249769.580597
 31
0.0
210
0.0
220
0.0
230
1.0
  0
TEXT
  8
11
  6
CONTINUOUS
 62
     7
  5
46B
 10
949115.232
 20
7249247.824
 30
0.0
 40
8.0
  1
1
 50
81.610183
  7
txt
 72
     4
 11
949111.45865
 21
7249249.654145
 31
0.0
210
0.0
220
0.0
230
1.0
  0
TEXT
  8
11
  6
CONTINUOUS
 62
     7
  5
46C
 10
949116.33
 20
7249255.27
 30
0.0
 40
8.0
  1
5
 50
81.610183
  7
txt
 72
     4
 11
949112.7634
 21
7249258.50198
 31
0.0
210
0.0
220
0.0
230
1.0
  0
TEXT
  8
11
  6
CONTINUOUS
 62
     7
  5
46D
 10
949117.482
 20
7249263.092
 30
0.0
 40
8.0
  1
7
 50
81.610183
  7
txt
 72
     4
 11
949113.919924
 21
7249266.354649
 31
0.0
210
0.0
220
0.0
230
1.0
  0
TEXT
  8
11
  6
CONTINUOUS
 62
     7
  5
46E
 10
949118.697
 20
7249271.317
 30
0.0
 40
8.0
  1
0
 50
81.610183
  7
txt
 72
     4
 11
949115.125877
 21
7249274.518312
 31
0.0
210
0.0
220
0.0
230
1.0
  0
TEXT
  8
11
  6
CONTINUOUS
 62
     7
  5
46F
 10
949119.964
 20
7249279.916
 30
0.0
 40
8.0
  1
.
 50
81.610183
  7
txt
 72
     4
 11
949116.085013
 21
7249281.029893
 31
0.0
210
0.0
220
0.0
230
1.0
  0
TEXT
  8
11
  6
CONTINUOUS
 62
     7
  5
470
 10
949120.957
 20
7249286.647
 30
0.0
 40
8.0
  1
7
 50
81.610183
  7
txt
 72
     4
 11
949117.394924
 21
7249289.909649
 31
0.0
210
0.0
220
0.0
230
1.0
  0
TEXT
  8
11
  6
CONTINUOUS
 62
     7
  5
471
 10
949122.126
 20
7249294.561
 30
0.0
 40
8.0
  1
'
 50
81.610183
  7
txt
 72
     4
 11
949118.407803
 21
7249296.765099
 31
0.0
210
0.0
220
0.0
230
1.0
  0
TEXT
  8
11
  6
CONTINUOUS
 62
     7
  5
472
 10
949608.685
 20
7250277.847
 30
0.0
 40
8.0
  1
R
 50
84.379206
  7
txt
 72
     4
 11
949604.966429
 21
7250280.902905
 31
0.0
210
0.0
220
0.0
230
1.0
  0
TEXT
  8
11
  6
CONTINUOUS
 62
     7
  5
473
 10
949609.627
 20
7250287.406
 30
0.0
 40
8.0
  1
=
 50
84.379206
  7
txt
 72
     4
 11
949605.82214
 21
7250289.585141
 31
0.0
210
0.0
220
0.0
230
1.0
  0
TEXT
  8
11
  6
CONTINUOUS
 62
     7
  5
474
 10
949610.224
 20
7250293.455
 30
0.0
 40
8.0
  1
5
 50
84.379206
  7
txt
 72
     4
 11
949606.505429
 21
7250296.510905
 31
0.0
210
0.0
220
0.0
230
1.0
  0
TEXT
  8
11
  6
CONTINUOUS
 62
     7
  5
475
 10
949610.981
 20
7250301.166
 30
0.0
 40
8.0
  1
4
 50
84.379206
  7
txt
 72
     4
 11
949607.28094
 21
7250304.409996
 31
0.0
210
0.0
220
0.0
230
1.0
  0
TEXT
  8
11
  6
CONTINUOUS
 62
     7
  5
476
 10
949611.796
 20
7250309.44
 30
0.0
 40
8.0
  1
9
 50
84.379206
  7
txt
 72
     4
 11
949608.058917
 21
7250312.307814
 31
0.0
210
0.0
220
0.0
230
1.0
  0
TEXT
  8
11
  6
CONTINUOUS
 62
     7
  5
477
 10
949612.552
 20
7250317.12
 30
0.0
 40
8.0
  1
7
 50
84.379206
  7
txt
 72
     4
 11
949608.836465
 21
7250320.206756
 31
0.0
210
0.0
220
0.0
230
1.0
  0
TEXT
  8
11
  6
CONTINUOUS
 62
     7
  5
478
 10
949613.43
 20
7250326.224
 30
0.0
 40
8.0
  1
.
 50
84.997436
  7
txt
 72
     4
 11
949609.491976
 21
7250327.10676
 31
0.0
210
0.0
220
0.0
230
1.0
  0
TEXT
  8
11
  6
CONTINUOUS
 62
     7
  5
479
 10
949614.057
 20
7250333.378
 30
0.0
 40
8.0
  1
0
 50
84.997436
  7
txt
 72
     4
 11
949610.302969
 21
7250336.362722
 31
0.0
210
0.0
220
0.0
230
1.0
  0
TEXT
  8
11
  6
CONTINUOUS
 62
     7
  5
47A
 10
949614.717
 20
7250340.939
 30
0.0
 40
8.0
  1
2
 50
84.997436
  7
txt
 72
     4
 11
949610.965672
 21
7250343.954604
 31
0.0
210
0.0
220
0.0
230
1.0
  0
TEXT
  8
11
  6
CONTINUOUS
 62
     7
  5
47B
 10
949615.414
 20
7250348.876
 30
0.0
 40
8.0
  1
'
 50
84.997436
  7
txt
 72
     4
 11
949611.572071
 21
7250350.856562
 31
0.0
210
0.0
220
0.0
230
1.0
  0
TEXT
  8
11
  6
CONTINUOUS
 62
     7
  5
47C
 10
949557.071
 20
7249900.269
 30
0.0
 40
8.0
  1
1
 50
80.0516
  7
txt
 72
     4
 11
949553.348824
 21
7249902.201099
 31
0.0
210
0.0
220
0.0
230
1.0
  0
TEXT
  8
11
  6
CONTINUOUS
 62
     7
  5
47D
 10
949558.373
 20
7249907.683
 30
0.0
 40
8.0
  1
2
 50
80.0516
  7
txt
 72
     4
 11
949554.895627
 21
7249911.010793
 31
0.0
210
0.0
220
0.0
230
1.0
  0
TEXT
  8
11
  6
CONTINUOUS
 62
     7
  5
47E
 10
949559.723
 20
7249915.581
 30
0.0
 40
8.0
  1
3
 50
80.669831
  7
txt
 72
     4
 11
949556.209922
 21
7249918.871078
 31
0.0
210
0.0
220
0.0
230
1.0
  0
TEXT
  8
11
  6
CONTINUOUS
 62
     7
  5
47F
 10
949561.01
 20
7249923.413
 30
0.0
 40
8.0
  1
2
 50
80.669831
  7
txt
 72
     4
 11
949557.496922
 21
7249926.703078
 31
0.0
210
0.0
220
0.0
230
1.0
  0
TEXT
  8
11
  6
CONTINUOUS
 62
     7
  5
480
 10
949562.474
 20
7249932.333
 30
0.0
 40
8.0
  1
.
 50
80.669831
  7
txt
 72
     4
 11
949558.613816
 21
7249933.510403
 31
0.0
210
0.0
220
0.0
230
1.0
  0
TEXT
  8
11
  6
CONTINUOUS
 62
     7
  5
481
 10
949563.583
 20
7249939.077
 30
0.0
 40
8.0
  1
2
 50
80.669831
  7
txt
 72
     4
 11
949560.069922
 21
7249942.367078
 31
0.0
210
0.0
220
0.0
230
1.0
  0
TEXT
  8
11
  6
CONTINUOUS
 62
     7
  5
482
 10
949564.875
 20
7249946.94
 30
0.0
 40
8.0
  1
'
 50
80.669831
  7
txt
 72
     4
 11
949561.193476
 21
7249949.204824
 31
0.0
210
0.0
220
0.0
230
1.0
  0
TEXT
  8
11
  6
CONTINUOUS
 62
     7
  5
483
 10
947995.994
 20
7247761.782
 30
0.0
 40
8.0
  1
5
 50
88.1831
  7
txt
 72
     4
 11
947992.080887
 21
7247764.584476
 31
0.0
210
0.0
220
0.0
230
1.0
  0
TEXT
  8
11
  6
CONTINUOUS
 62
     7
  5
484
 10
947996.256
 20
7247770.062
 30
0.0
 40
8.0
  1
0
 50
88.1831
  7
txt
 72
     4
 11
947992.341904
 21
7247772.833492
 31
0.0
210
0.0
220
0.0
230
1.0
  0
TEXT
  8
11
  6
CONTINUOUS
 62
     7
  5
485
 10
947996.509
 20
7247778.027
 30
0.0
 40
8.0
  1
6
 50
88.1831
  7
txt
 72
     4
 11
947992.589894
 21
7247780.640571
 31
0.0
210
0.0
220
0.0
230
1.0
  0
TEXT
  8
11
  6
CONTINUOUS
 62
     7
  5
486
 10
947996.783
 20
7247786.683
 30
0.0
 40
8.0
  1
.
 50
88.1831
  7
txt
 72
     4
 11
947992.802005
 21
7247787.345553
 31
0.0
210
0.0
220
0.0
230
1.0
  0
TEXT
  8
11
  6
CONTINUOUS
 62
     7
  5
487
 10
947997.006
 20
7247793.703
 30
0.0
 40
8.0
  1
9
 50
88.1831
  7
txt
 72
     4
 11
947993.086894
 21
7247796.316571
 31
0.0
210
0.0
220
0.0
230
1.0
  0
TEXT
  8
11
  6
CONTINUOUS
 62
     7
  5
488
 10
947997.247
 20
7247801.258
 30
0.0
 40
8.0
  1
4
 50
88.1831
  7
txt
 72
     4
 11
947993.339879
 21
7247804.249381
 31
0.0
210
0.0
220
0.0
230
1.0
  0
TEXT
  8
11
  6
CONTINUOUS
 62
     7
  5
489
 10
947997.505
 20
7247809.411
 30
0.0
 40
8.0
  1
'
 50
88.1831
  7
txt
 72
     4
 11
947993.558945
 21
7247811.174999
 31
0.0
210
0.0
220
0.0
230
1.0
  0
TEXT
  8
11
  6
CONTINUOUS
 62
     7
  5
48A
 10
947678.952
 20
7248143.179
 30
0.0
 40
8.0
  1
157.5'
 50
358.1831
  7
txt
 72
     4
 11
947697.336639
 21
7248146.597823
 31
0.0
210
0.0
220
0.0
230
1.0
  0
TEXT
  8
11
  6
CONTINUOUS
 62
     7
  5
48B
 10
947524.383
 20
7248147.361
 30
0.0
 40
8.0
  1
157.5'
 50
358.1831
  7
txt
 72
     4
 11
947542.767639
 21
7248150.779823
 31
0.0
210
0.0
220
0.0
230
1.0
  0
TEXT
  8
11
  6
CONTINUOUS
 62
     7
  5
48C
 10
947368.469
 20
7248154.467
 30
0.0
 40
8.0
  1
157.5'
 50
358.1831
  7
txt
 72
     4
 11
947386.853639
 21
7248157.885823
 31
0.0
210
0.0
220
0.0
230
1.0
  0
TEXT
  8
11
  6
CONTINUOUS
 62
     7
  5
48D
 10
947211.026
 20
7248158.741
 30
0.0
 40
8.0
  1
157.5'
 50
358.1831
  7
txt
 72
     4
 11
947229.410639
 21
7248162.159823
 31
0.0
210
0.0
220
0.0
230
1.0
  0
TEXT
  8
11
  6
CONTINUOUS
 62
     7
  5
48E
 10
947055.293
 20
7248164.42
 30
0.0
 40
8.0
  1
157.5'
 50
358.1831
  7
txt
 72
     4
 11
947073.677639
 21
7248167.838823
 31
0.0
210
0.0
220
0.0
230
1.0
  0
TEXT
  8
11
  6
CONTINUOUS
 62
     7
  5
48F
 10
947027.172
 20
7248238.954
 30
0.0
 40
8.0
  1
145.2'
 50
358.1831
  7
txt
 72
     4
 11
947045.714559
 21
7248242.367814
 31
0.0
210
0.0
220
0.0
230
1.0
  0
TEXT
  8
11
  6
CONTINUOUS
 62
     7
  5
490
 10
947172.08
 20
7248235.064
 30
0.0
 40
8.0
  1
145.2'
 50
358.1831
  7
txt
 72
     4
 11
947190.622559
 21
7248238.477814
 31
0.0
210
0.0
220
0.0
230
1.0
  0
TEXT
  8
11
  6
CONTINUOUS
 62
     7
  5
491
 10
947317.259
 20
7248229.739
 30
0.0
 40
8.0
  1
145.2'
 50
358.1831
  7
txt
 72
     4
 11
947335.801559
 21
7248233.152814
 31
0.0
210
0.0
220
0.0
230
1.0
  0
TEXT
  8
11
  6
CONTINUOUS
 62
     7
  5
492
 10
947461.762
 20
7248225.875
 30
0.0
 40
8.0
  1
145.2'
 50
358.1831
  7
txt
 72
     4
 11
947480.304559
 21
7248229.288814
 31
0.0
210
0.0
220
0.0
230
1.0
  0
TEXT
  8
11
  6
CONTINUOUS
 62
     7
  5
493
 10
947483.329
 20
7248810.677
 30
0.0
 40
8.0
  1
145.2'
 50
358.1831
  7
txt
 72
     4
 11
947501.871559
 21
7248814.090814
 31
0.0
210
0.0
220
0.0
230
1.0
  0
TEXT
  8
11
  6
CONTINUOUS
 62
     7
  5
494
 10
947333.37
 20
7248815.43
 30
0.0
 40
8.0
  1
145.2'
 50
358.1831
  7
txt
 72
     4
 11
947351.912559
 21
7248818.843814
 31
0.0
210
0.0
220
0.0
230
1.0
  0
TEXT
  8
11
  6
CONTINUOUS
 62
     7
  5
495
 10
947189.608
 20
7248819.991
 30
0.0
 40
8.0
  1
145.2'
 50
358.1831
  7
txt
 72
     4
 11
947208.150559
 21
7248823.404814
 31
0.0
210
0.0
220
0.0
230
1.0
  0
TEXT
  8
11
  6
CONTINUOUS
 62
     7
  5
496
 10
947048.34
 20
7248825.207
 30
0.0
 40
8.0
  1
145.2'
 50
358.1831
  7
txt
 72
     4
 11
947066.882559
 21
7248828.620814
 31
0.0
210
0.0
220
0.0
230
1.0
  0
TEXT
  8
11
  6
CONTINUOUS
 62
     7
  5
497
 10
947040.088
 20
7247626.592
 30
0.0
 40
8.0
  1
157.5'
 50
358.1831
  7
txt
 72
     4
 11
947058.472639
 21
7247630.010823
 31
0.0
210
0.0
220
0.0
230
1.0
  0
TEXT
  8
11
  6
CONTINUOUS
 62
     7
  5
498
 10
947199.642
 20
7247620.813
 30
0.0
 40
8.0
  1
157.5'
 50
358.1831
  7
txt
 72
     4
 11
947218.026639
 21
7247624.231823
 31
0.0
210
0.0
220
0.0
230
1.0
  0
TEXT
  8
11
  6
CONTINUOUS
 62
     7
  5
499
 10
947353.854
 20
7247616.612
 30
0.0
 40
8.0
  1
157.5'
 50
358.1831
  7
txt
 72
     4
 11
947372.238639
 21
7247620.030823
 31
0.0
210
0.0
220
0.0
230
1.0
  0
TEXT
  8
11
  6
CONTINUOUS
 62
     7
  5
49A
 10
947514.103
 20
7247610.089
 30
0.0
 40
8.0
  1
157.5'
 50
358.1831
  7
txt
 72
     4
 11
947532.487639
 21
7247613.507823
 31
0.0
210
0.0
220
0.0
230
1.0
  0
TEXT
  8
11
  6
CONTINUOUS
 62
     7
  5
49B
 10
947672.288
 20
7247606.511
 30
0.0
 40
8.0
  1
157.5'
 50
358.1831
  7
txt
 72
     4
 11
947690.672639
 21
7247609.929823
 31
0.0
210
0.0
220
0.0
230
1.0
  0
TEXT
  8
11
  6
CONTINUOUS
 62
     7
  5
49C
 10
950972.373
 20
7250720.067
 30
0.0
 40
8.0
  1
20'
 50
88.1831
  7
txt
 72
     4
 11
950968.679575
 21
7250729.794993
 31
0.0
210
0.0
220
0.0
230
1.0
  0
TEXT
  8
11
  6
CONTINUOUS
 62
     7
  5
49D
 10
950378.152
 20
7250798.063
 30
0.0
 40
8.0
  1
20'
 50
358.1831
  7
txt
 72
     4
 11
950387.879993
 21
7250801.756425
 31
0.0
210
0.0
220
0.0
230
1.0
  0
TEXT
  8
11
  6
CONTINUOUS
 62
     7
  5
49E
 10
948389.44
 20
7248359.111
 30
0.0
 40
8.0
  1
100'
 50
358.1831
  7
txt
 72
     4
 11
948401.716711
 21
7248362.723576
 31
0.0
210
0.0
220
0.0
230
1.0
  0
TEXT
  8
11
  6
CONTINUOUS
 62
     7
  5
49F
 10
948489.6
 20
7248355.934
 30
0.0
 40
8.0
  1
100'
 50
358.1831
  7
txt
 72
     4
 11
948501.876711
 21
7248359.546576
 31
0.0
210
0.0
220
0.0
230
1.0
  0
TEXT
  8
11
  6
CONTINUOUS
 62
     7
  5
4A0
 10
948590.835
 20
7248352.723
 30
0.0
 40
8.0
  1
100'
 50
358.1831
  7
txt
 72
     4
 11
948603.111711
 21
7248356.335576
 31
0.0
210
0.0
220
0.0
230
1.0
  0
TEXT
  8
11
  6
CONTINUOUS
 62
     7
  5
4A1
 10
948689.952
 20
7248350.657
 30
0.0
 40
8.0
  1
100'
 50
358.1831
  7
txt
 72
     4
 11
948702.228711
 21
7248354.269576
 31
0.0
210
0.0
220
0.0
230
1.0
  0
TEXT
  8
11
  6
CONTINUOUS
 62
     7
  5
4A2
 10
948788.999
 20
7248346.436
 30
0.0
 40
8.0
  1
100'
 50
358.1831
  7
txt
 72
     4
 11
948801.275711
 21
7248350.048576
 31
0.0
210
0.0
220
0.0
230
1.0
  0
TEXT
  8
11
  6
CONTINUOUS
 62
     7
  5
4A3
 10
948784.419
 20
7248269.999
 30
0.0
 40
8.0
  1
100'
 50
358.1831
  7
txt
 72
     4
 11
948796.695711
 21
7248273.611576
 31
0.0
210
0.0
220
0.0
230
1.0
  0
TEXT
  8
11
  6
CONTINUOUS
 62
     7
  5
4A4
 10
948683.182
 20
7248273.21
 30
0.0
 40
8.0
  1
100'
 50
358.1831
  7
txt
 72
     4
 11
948695.458711
 21
7248276.822576
 31
0.0
210
0.0
220
0.0
230
1.0
  0
TEXT
  8
11
  6
CONTINUOUS
 62
     7
  5
4A5
 10
948585.178
 20
7248276.319
 30
0.0
 40
8.0
  1
100'
 50
358.1831
  7
txt
 72
     4
 11
948597.454711
 21
7248279.931576
 31
0.0
210
0.0
220
0.0
230
1.0
  0
TEXT
  8
11
  6
CONTINUOUS
 62
     7
  5
4A6
 10
948487.173
 20
7248279.428
 30
0.0
 40
8.0
  1
100'
 50
358.1831
  7
txt
 72
     4
 11
948499.449711
 21
7248283.040576
 31
0.0
210
0.0
220
0.0
230
1.0
  0
TEXT
  8
11
  6
CONTINUOUS
 62
     7
  5
4A7
 10
948383.817
 20
7248283.785
 30
0.0
 40
8.0
  1
100'
 50
358.1831
  7
txt
 72
     4
 11
948396.093711
 21
7248287.397576
 31
0.0
210
0.0
220
0.0
230
1.0
  0
TEXT
  8
11
  6
CONTINUOUS
 62
     7
  5
4A8
 10
948016.236
 20
7248572.453
 30
0.0
 40
10.0
  1
20'
 50
358.1831
  7
txt
 72
     4
 11
948028.396491
 21
7248577.069766
 31
0.0
210
0.0
220
0.0
230
1.0
  0
TEXT
  8
11
  6
CONTINUOUS
 62
     7
  5
4A9
 10
948003.097
 20
7248099.252
 30
0.0
 40
10.0
  1
20'
 50
358.1831
  7
txt
 72
     4
 11
948015.257491
 21
7248103.868766
 31
0.0
210
0.0
220
0.0
230
1.0
  0
TEXT
  8
11
  6
CONTINUOUS
 62
     7
  5
4AA
 10
948063.226
 20
7248598.989
 30
0.0
 40
10.0
  1
20'
 50
88.1831
  7
txt
 72
     4
 11
948058.609234
 21
7248611.149491
 31
0.0
210
0.0
220
0.0
230
1.0
  0
TEXT
  8
11
  6
CONTINUOUS
 62
     7
  5
4AB
 10
949044.643
 20
7248567.775
 30
0.0
 40
10.0
  1
20'
 50
88.1831
  7
txt
 72
     4
 11
949040.026234
 21
7248579.935491
 31
0.0
210
0.0
220
0.0
230
1.0
  0
TEXT
  8
11
  6
CONTINUOUS
 62
     7
  5
4AC
 10
949030.659
 20
7248026.308
 30
0.0
 40
10.0
  1
20'
 50
88.1831
  7
txt
 72
     4
 11
949026.042234
 21
7248038.468491
 31
0.0
210
0.0
220
0.0
230
1.0
  0
TEXT
  8
11
  6
CONTINUOUS
 62
     7
  5
4AD
 10
948048.144
 20
7248055.921
 30
0.0
 40
10.0
  1
20'
 50
88.1831
  7
txt
 72
     4
 11
948043.527234
 21
7248068.081491
 31
0.0
210
0.0
220
0.0
230
1.0
  0
TEXT
  8
11
  6
CONTINUOUS
 62
     7
  5
4AE
 10
948884.036
 20
7248374.012
 30
0.0
 40
10.0
  1
115.52'
 50
88.1831
  7
txt
 72
     4
 11
948879.863588
 21
7248400.180445
 31
0.0
210
0.0
220
0.0
230
1.0
  0
TEXT
  8
11
  6
CONTINUOUS
 62
     7
  5
4AF
 10
949042.165
 20
7248370.584
 30
0.0
 40
10.0
  1
100.59'
 50
88.1831
  7
txt
 72
     4
 11
949038.038719
 21
7248398.206713
 31
0.0
210
0.0
220
0.0
230
1.0
  0
TEXT
  8
11
  6
CONTINUOUS
 62
     7
  5
4B0
 10
949045.001
 20
7248456.966
 30
0.0
 40
10.0
  1
73'
 50
88.1831
  7
txt
 72
     4
 11
949040.386707
 21
7248469.204452
 31
0.0
210
0.0
220
0.0
230
1.0
  0
TEXT
  8
11
  6
CONTINUOUS
 62
     7
  5
4B1
 10
949047.089
 20
7248503.292
 30
0.0
 40
10.0
  1
42.52'
 50
88.1831
  7
txt
 72
     4
 11
949042.877907
 21
7248528.241058
 31
0.0
210
0.0
220
0.0
230
1.0
  0
TEXT
  8
11
  6
CONTINUOUS
 62
     7
  5
4B2
 10
948888.324
 20
7248483.713
 30
0.0
 40
10.0
  1
105.52'
 50
88.1831
  7
txt
 72
     4
 11
948884.206502
 21
7248511.612574
 31
0.0
210
0.0
220
0.0
230
1.0
  0
TEXT
  8
11
  6
CONTINUOUS
 62
     7
  5
4B3
 10
948879.237
 20
7248197.26
 30
0.0
 40
10.0
  1
115.52'
 50
88.1831
  7
txt
 72
     4
 11
948875.064588
 21
7248223.428445
 31
0.0
210
0.0
220
0.0
230
1.0
  0
TEXT
  8
11
  6
CONTINUOUS
 62
     7
  5
4B4
 10
949037.786
 20
7248181.606
 30
0.0
 40
10.0
  1
100.45'
 50
88.1831
  7
txt
 72
     4
 11
949033.674748
 21
7248209.702475
 31
0.0
210
0.0
220
0.0
230
1.0
  0
TEXT
  8
11
  6
CONTINUOUS
 62
     7
  5
4B5
 10
948876.524
 20
7248089.231
 30
0.0
 40
10.0
  1
105.52'
 50
88.1831
  7
txt
 72
     4
 11
948872.406502
 21
7248117.130574
 31
0.0
210
0.0
220
0.0
230
1.0
  0
TEXT
  8
11
  6
CONTINUOUS
 62
     7
  5
4B6
 10
949032.807
 20
7248075.544
 30
0.0
 40
10.0
  1
115.52'
 50
88.1831
  7
txt
 72
     4
 11
949028.634588
 21
7248101.712445
 31
0.0
210
0.0
220
0.0
230
1.0
  0
TEXT
  8
11
  6
CONTINUOUS
 62
     7
  5
4B7
 10
946780.748
 20
7248860.957
 30
0.0
 40
8.0
  1
60'
 50
88.1831
  7
txt
 72
     4
 11
946777.048551
 21
7248870.495088
 31
0.0
210
0.0
220
0.0
230
1.0
  0
TEXT
  8
11
  6
CONTINUOUS
 62
     7
  5
4B8
 10
947902.745
 20
7248825.366
 30
0.0
 40
8.0
  1
60'
 50
88.1831
  7
txt
 72
     4
 11
947899.045551
 21
7248834.904088
 31
0.0
210
0.0
220
0.0
230
1.0
  0
TEXT
  8
11
  6
CONTINUOUS
 62
     7
  5
4B9
 10
947897.228
 20
7248168.906
 30
0.0
 40
8.0
  1
60'
 50
88.1831
  7
txt
 72
     4
 11
947893.528551
 21
7248178.444088
 31
0.0
210
0.0
220
0.0
230
1.0
  0
TEXT
  8
11
  6
CONTINUOUS
 62
     7
  5
4BA
 10
946757.967
 20
7248203.132
 30
0.0
 40
8.0
  1
60'
 50
88.1831
  7
txt
 72
     4
 11
946754.267551
 21
7248212.670088
 31
0.0
210
0.0
220
0.0
230
1.0
  0
TEXT
  8
11
  6
CONTINUOUS
 62
     7
  5
4BB
 10
946740.466
 20
7247591.084
 30
0.0
 40
8.0
  1
60'
 50
88.1831
  7
txt
 72
     4
 11
946736.766551
 21
7247600.622088
 31
0.0
210
0.0
220
0.0
230
1.0
  0
TEXT
  8
11
  6
CONTINUOUS
 62
     7
  5
4BC
 10
947864.604
 20
7247562.672
 30
0.0
 40
8.0
  1
43'
 50
88.1831
  7
txt
 72
     4
 11
947860.91755
 21
7247572.619882
 31
0.0
210
0.0
220
0.0
230
1.0
  0
TEXT
  8
11
  6
CONTINUOUS
 62
     7
  5
4BD
 10
949199.081
 20
7251651.207
 30
0.0
 40
8.0
  1
72.5'
 50
88.1831
  7
txt
 72
     4
 11
949195.580281
 21
7251667.009937
 31
0.0
210
0.0
220
0.0
230
1.0
  0
TEXT
  8
11
  6
CONTINUOUS
 62
     7
  5
4BE
 10
949196.938
 20
7251564.384
 30
0.0
 40
8.0
  1
72.5'
 50
88.1831
  7
txt
 72
     4
 11
949193.437281
 21
7251580.186937
 31
0.0
210
0.0
220
0.0
230
1.0
  0
TEXT
  8
11
  6
CONTINUOUS
 62
     7
  5
4BF
 10
946717.132
 20
7246917.82
 30
0.0
 40
8.0
  1
65'
 50
88.1831
  7
txt
 72
     4
 11
946713.433565
 21
7246927.390072
 31
0.0
210
0.0
220
0.0
230
1.0
  0
TEXT
  8
11
  6
CONTINUOUS
 62
     7
  5
4C0
 10
948864.786
 20
7246846.183
 30
0.0
 40
8.0
  1
60'
 50
88.1831
  7
txt
 72
     4
 11
948861.086551
 21
7246855.721088
 31
0.0
210
0.0
220
0.0
230
1.0
  0
TEXT
  8
11
  6
CONTINUOUS
 62
     7
  5
4C1
 10
950597.407
 20
7250992.002
 30
0.0
 40
8.0
  1
7.5'
 50
88.1831
  7
txt
 72
     4
 11
950593.779459
 21
7251003.806948
 31
0.0
210
0.0
220
0.0
230
1.0
  0
TEXT
  8
11
  6
CONTINUOUS
 62
     7
  5
4C2
 10
952053.789
 20
7251917.386
 30
0.0
 40
8.0
  1
1
 50
88.1831
  7
txt
 72
     4
 11
952049.83096
 21
7251918.772189
 31
0.0
210
0.0
220
0.0
230
1.0
  0
TEXT
  8
11
  6
CONTINUOUS
 62
     7
  5
4C3
 10
952054.028
 20
7251924.91
 30
0.0
 40
8.0
  1
5
 50
88.1831
  7
txt
 72
     4
 11
952050.114887
 21
7251927.712476
 31
0.0
210
0.0
220
0.0
230
1.0
  0
TEXT
  8
11
  6
CONTINUOUS
 62
     7
  5
4C4
 10
952054.291
 20
7251933.19
 30
0.0
 40
8.0
  1
0
 50
88.1831
  7
txt
 72
     4
 11
952050.376904
 21
7251935.961492
 31
0.0
210
0.0
220
0.0
230
1.0
  0
TEXT
  8
11
  6
CONTINUOUS
 62
     7
  5
4C5
 10
952054.532
 20
7251940.807
 30
0.0
 40
8.0
  1
'
 50
88.1831
  7
txt
 72
     4
 11
952050.585945
 21
7251942.570999
 31
0.0
210
0.0
220
0.0
230
1.0
  0
TEXT
  8
11
  6
CONTINUOUS
 62
     7
  5
4C6
 10
949936.334
 20
7251360.931
 30
0.0
 40
8.0
  1
5
 50
358.283111
  7
txt
 72
     4
 11
949939.129642
 21
7251364.848999
 31
0.0
210
0.0
220
0.0
230
1.0
  0
TEXT
  8
11
  6
CONTINUOUS
 62
     7
  5
4C7
 10
949944.646
 20
7251360.683
 30
0.0
 40
8.0
  1
6
 50
358.283111
  7
txt
 72
     4
 11
949947.252727
 21
7251364.606662
 31
0.0
210
0.0
220
0.0
230
1.0
  0
TEXT
  8
11
  6
CONTINUOUS
 62
     7
  5
4C8
 10
949952.39
 20
7251360.451
 30
0.0
 40
8.0
  1
9
 50
358.283111
  7
txt
 72
     4
 11
949954.996727
 21
7251364.374662
 31
0.0
210
0.0
220
0.0
230
1.0
  0
TEXT
  8
11
  6
CONTINUOUS
 62
     7
  5
4C9
 10
949961.237
 20
7251360.185
 30
0.0
 40
8.0
  1
.
 50
358.283111
  7
txt
 72
     4
 11
949961.892603
 21
7251364.167145
 31
0.0
210
0.0
220
0.0
230
1.0
  0
TEXT
  8
11
  6
CONTINUOUS
 62
     7
  5
4CA
 10
949968.476
 20
7251359.969
 30
0.0
 40
8.0
  1
1
 50
358.283111
  7
txt
 72
     4
 11
949969.855278
 21
7251363.929454
 31
0.0
210
0.0
220
0.0
230
1.0
  0
TEXT
  8
11
  6
CONTINUOUS
 62
     7
  5
4CB
 10
949976.032
 20
7251359.742
 30
0.0
 40
8.0
  1
'
 50
358.283111
  7
txt
 72
     4
 11
949977.789108
 21
7251363.691128
 31
0.0
210
0.0
220
0.0
230
1.0
  0
TEXT
  8
11
  6
CONTINUOUS
 62
     7
  5
4CC
 10
946666.889
 20
7246899.855
 30
0.0
 40
8.0
  1
150'
 50
358.1831
  7
txt
 72
     4
 11
946679.197695
 21
7246903.466561
 31
0.0
210
0.0
220
0.0
230
1.0
  0
LINE
  8
21
  6
DASHDOT
 62
     7
  5
4CE
 10
950994.473
 20
7251845.317
 30
0.0
 11
950998.12
 21
7251960.258
 31
0.0
  0
LINE
  8
21
  6
DASHDOT
 62
     7
  5
4CF
 10
950990.592
 20
7251849.44
 30
0.0
 11
950994.6
 21
7251849.313
 31
0.0
  0
LINE
  8
21
  6
DASHDOT
 62
     7
  5
4D0
 10
951031.693
 20
7251353.979
 30
0.0
 11
951031.566
 21
7251349.981
 31
0.0
  0
LINE
  8
21
  6
DASHDOT
 62
     7
  5
4D1
 10
951035.564
 20
7251349.854
 30
0.0
 11
951031.566
 21
7251349.981
 31
0.0
  0
LINE
  8
21
  6
DASHDOT
 62
     7
  5
4D2
 10
951007.349
 20
7250739.503
 30
0.0
 11
951007.476
 21
7250743.501
 31
0.0
  0
LINE
  8
21
  6
DASHDOT
 62
     7
  5
4D3
 10
951007.476
 20
7250743.501
 30
0.0
 11
951003.478
 21
7250743.627
 31
0.0
  0
LINE
  8
21
  6
DASHDOT
 62
     7
  5
4D4
 10
951003.351
 20
7250739.629
 30
0.0
 11
951003.478
 21
7250743.627
 31
0.0
  0
LINE
  8
21
  6
DASHDOT
 62
     7
  5
4D5
 10
950102.569
 20
7251895.895
 30
0.0
 11
950101.313
 21
7251892.097
 31
0.0
  0
LINE
  8
21
  6
DASHDOT
 62
     7
  5
4D6
 10
950106.367
 20
7251894.637
 30
0.0
 11
950105.109
 21
7251890.839
 31
0.0
  0
LINE
  8
21
  6
DASHDOT
 62
     7
  5
4D7
 10
950102.569
 20
7251895.895
 30
0.0
 11
950106.367
 21
7251894.637
 31
0.0
  0
LINE
  8
21
  6
DASHDOT
 62
     7
  5
4D8
 10
950367.635
 20
7250758.678
 30
0.0
 11
950367.763
 21
7250762.676
 31
0.0
  0
LINE
  8
21
  6
DASHDOT
 62
     7
  5
4D9
 10
950367.763
 20
7250762.676
 30
0.0
 11
950363.765
 21
7250762.803
 31
0.0
  0
LINE
  8
21
  6
DASHDOT
 62
     7
  5
4DA
 10
950363.637
 20
7250758.805
 30
0.0
 11
950363.765
 21
7250762.803
 31
0.0
  0
TEXT
  8
22
  6
CONTINUOUS
 62
     3
  5
4DC
 10
951003.845
 20
7250744.787
 30
0.0
 40
8.0
  1
TPE-LPL
 50
88.1831
  7
ROMANS
 72
     4
 11
951000.681914
 21
7250771.233583
 31
0.0
210
0.0
220
0.0
230
1.0
  0
TEXT
  8
22
  6
CONTINUOUS
 62
     3
  5
4DD
 10
950307.496
 20
7250767.427
 30
0.0
 40
8.0
  1
TPE-LPL
 50
358.1831
  7
ROMANS
 72
     4
 11
950333.942583
 21
7250770.590086
 31
0.0
210
0.0
220
0.0
230
1.0
  0
TEXT
  8
22
  6
CONTINUOUS
 62
     3
  5
4DE
 10
950979.052
 20
7251342.06
 30
0.0
 40
8.0
  1
TPE-LPL
 50
358.1831
  7
ROMANS
 72
     4
 11
951005.498583
 21
7251345.223086
 31
0.0
210
0.0
220
0.0
230
1.0
  0
TEXT
  8
22
  6
CONTINUOUS
 62
     3
  5
4DF
 10
951006.583
 20
7251846.665
 30
0.0
 40
8.0
  1
TPE-LPL
 50
88.1831
  7
ROMANS
 72
     4
 11
951003.419914
 21
7251873.111583
 31
0.0
210
0.0
220
0.0
230
1.0
  0
LINE
  8
21
  6
DASHDOT
 62
     7
  5
4E0
 10
950492.146
 20
7251975.425
 30
0.0
 11
950488.511
 21
7251860.845
 31
0.0
  0
LINE
  8
21
  6
DASHDOT
 62
     7
  5
4E1
 10
950484.639
 20
7251864.969
 30
0.0
 11
950488.637
 21
7251864.843
 31
0.0
  0
TEXT
  8
22
  6
CONTINUOUS
 62
     3
  5
4E2
 10
950502.221
 20
7251882.257
 30
0.0
 40
8.0
  1
4'UUE-LPL
 50
88.1831
  7
ROMANS
 72
     4
 11
950499.311558
 21
7251916.699561
 31
0.0
210
0.0
220
0.0
230
1.0
  0
TEXT
  8
22
  6
CONTINUOUS
 62
     3
  5
4E3
 10
950989.181
 20
7251864.674
 30
0.0
 40
8.0
  1
4'UUE-LPL
 50
88.1831
  7
ROMANS
 72
     4
 11
950986.271558
 21
7251899.116561
 31
0.0
210
0.0
220
0.0
230
1.0
  0
TEXT
  8
22
  6
CONTINUOUS
 62
     3
  5
4E4
 10
950492.855
 20
7251862.937
 30
0.0
 40
8.0
  1
TPE-LPL
 50
358.1831
  7
ROMANS
 72
     4
 11
950519.301583
 21
7251866.100086
 31
0.0
210
0.0
220
0.0
230
1.0
  0
TEXT
  8
22
  6
CONTINUOUS
 62
     3
  5
4E5
 10
950078.992
 20
7251903.332
 30
0.0
 40
8.0
  1
TPE-LPL
 50
358.1831
  7
ROMANS
 72
     4
 11
950105.438583
 21
7251906.495086
 31
0.0
210
0.0
220
0.0
230
1.0
  0
LINE
  8
21
  6
DASHDOT
 62
     7
  5
4E6
 10
950426.64
 20
7251725.859
 30
0.0
 11
950430.638
 21
7251725.732
 31
0.0
  0
LINE
  8
21
  6
DASHDOT
 62
     7
  5
4E7
 10
950430.762
 20
7251729.656
 30
0.0
 11
950430.638
 21
7251725.732
 31
0.0
  0
TEXT
  8
22
  6
CONTINUOUS
 62
     3
  5
4E8
 10
950430.802
 20
7251715.078
 30
0.0
 40
8.0
  1
SWBT
 50
358.1831
  7
ROMANS
 72
     4
 11
950445.587449
 21
7251718.610995
 31
0.0
210
0.0
220
0.0
230
1.0
  0
LINE
  8
21
  6
DASHDOT
 62
     7
  5
4E9
 10
949654.872
 20
7251145.269
 30
0.0
 11
950029.607
 21
7251134.037
 31
0.0
  0
LINE
  8
21
  6
DASHDOT
 62
     7
  5
4EA
 10
949712.866
 20
7251883.246
 30
0.0
 11
949652.961
 21
7250780.1
 31
0.0
  0
LINE
  8
21
  6
DASHDOT
 62
     7
  5
4EB
 10
949988.284
 20
7250770.049
 30
0.0
 11
950021.391
 21
7251874.484
 31
0.0
  0
LINE
  8
21
  6
DASHDOT
 62
     7
  5
4EC
 10
950008.274
 20
7250769.45
 30
0.0
 11
950041.382
 21
7251873.883
 31
0.0
  0
LINE
  8
21
  6
DASHDOT
 62
     7
  5
4ED
 10
950041.339
 20
7251893.895
 30
0.0
 11
950045.843
 21
7252044.179
 31
0.0
  0
LINE
  8
21
  6
DASHDOT
 62
     7
  5
4EE
 10
950061.33
 20
7251893.296
 30
0.0
 11
950065.833
 21
7252043.544
 31
0.0
  0
LINE
  8
21
  6
DASHDOT
 62
     7
  5
4EF
 10
950045.843
 20
7252044.179
 30
0.0
 11
950065.833
 21
7252043.544
 31
0.0
  0
LINE
  8
21
  6
DASHDOT
 62
     7
  5
4F0
 10
950026.106
 20
7251364.243
 30
0.0
 11
949665.342
 21
7251375.057
 31
0.0
  0
TEXT
  8
22
  6
CONTINUOUS
 62
     3
  5
4F1
 10
949745.23
 20
7251176.713
 30
0.0
 40
8.0
  1
75'DRAINAGE EASEMENT
 50
358.1831
  7
ROMANS
 72
     4
 11
949823.983273
 21
7251178.216838
 31
0.0
210
0.0
220
0.0
230
1.0
  0
TEXT
  8
22
  6
CONTINUOUS
 62
     3
  5
4F2
 10
949804.734
 20
7251376.744
 30
0.0
 40
8.0
  1
5'UUE SWBT
 50
358.1831
  7
ROMANS
 72
     4
 11
949843.507383
 21
7251379.516061
 31
0.0
210
0.0
220
0.0
230
1.0
  0
LINE
  8
21
  6
DASHDOT
 62
     7
  5
4F3
 10
949697.789
 20
7252049.37
 30
0.0
 11
949945.665
 21
7252041.506
 31
0.0
  0
LINE
  8
21
  6
DASHDOT
 62
     7
  5
4F4
 10
949945.665
 20
7252041.506
 30
0.0
 11
949945.348
 21
7252031.511
 31
0.0
  0
LINE
  8
21
  6
DASHDOT
 62
     7
  5
4F5
 10
949945.348
 20
7252031.511
 30
0.0
 11
949697.473
 21
7252039.375
 31
0.0
  0
LINE
  8
21
  6
DASHDOT
 62
     7
  5
4F6
 10
949697.473
 20
7252039.375
 30
0.0
 11
949697.789
 21
7252049.37
 31
0.0
  0
TEXT
  8
22
  6
CONTINUOUS
 62
     3
  5
4F7
 10
949724.9
 20
7252039.045
 30
0.0
 40
8.0
  1
ELEC. LINE EASEEMENT
 50
358.1831
  7
ROMANS
 72
     4
 11
949803.653273
 21
7252040.548838
 31
0.0
210
0.0
220
0.0
230
1.0
  0
POLYLINE
  8
1
  6
HIDDEN
 62
   253
  5
4F9
 66
     1
 10
0.0
 20
0.0
 30
0.0
 70
     1
  0
VERTEX
  8
1
  6
HIDDEN
 62
   253
  5
4FA
 10
946613.936
 20
7246996.845
 30
0.0
  0
VERTEX
  8
1
  6
HIDDEN
 62
   253
  5
4FB
 10
951898.009
 20
7246839.052
 30
0.0
  0
VERTEX
  8
1
  6
HIDDEN
 62
   253
  5
4FC
 10
952061.337
 20
7252068.314
 30
0.0
  0
VERTEX
  8
1
  6
HIDDEN
 62
   253
  5
4FD
 10
946779.501
 20
7252229.929
 30
0.0
  0
SEQEND
  8
1
  6
HIDDEN
 62
   253
  5
4FE
  0
TEXT
  8
19
  6
CONTINUOUS
 62
     1
  5
4FF
 10
950182.296
 20
7251062.049
 30
0.0
 40
24.0
  1
85TH        ST
 50
358.1831
  7
ROMANC
 72
     4
 11
950377.213615
 21
7251067.871953
 31
0.0
210
0.0
220
0.0
230
1.0
  0
TEXT
  8
19
  6
CONTINUOUS
 62
     1
  5
500
 10
950545.181
 20
7252027.59
 30
0.0
 40
24.0
  1
82ND        ST
 50
358.1831
  7
ROMANC
 72
     4
 11
950727.06617
 21
7252033.826362
 31
0.0
210
0.0
220
0.0
230
1.0
  0
TEXT
  8
19
  6
CONTINUOUS
 62
     1
  5
501
 10
946967.186
 20
7252146.025
 30
0.0
 40
24.0
  1
82ND ST
 50
358.1831
  7
ROMANC
 72
     4
 11
947053.881051
 21
7252155.280937
 31
0.0
210
0.0
220
0.0
230
1.0
  0
TEXT
  8
19
  6
CONTINUOUS
 62
     1
  5
502
 10
947650.229
 20
7251766.62
 30
0.0
 40
24.0
  1
83RD   ST
 50
358.1831
  7
ROMANC
 72
     4
 11
947762.98894
 21
7251775.049119
 31
0.0
210
0.0
220
0.0
230
1.0
  0
TEXT
  8
19
  6
CONTINUOUS
 62
     1
  5
503
 10
948884.169
 20
7251727.467
 30
0.0
 40
24.0
  1
83RD   ST
 50
358.1831
  7
ROMANC
 72
     4
 11
948996.92894
 21
7251735.896119
 31
0.0
210
0.0
220
0.0
230
1.0
  0
TEXT
  8
19
  6
CONTINUOUS
 62
     1
  5
504
 10
947002.231
 20
7251426.997
 30
0.0
 40
24.0
  1
84TH ST
 50
358.1831
  7
ROMANC
 72
     4
 11
947091.19291
 21
7251436.181029
 31
0.0
210
0.0
220
0.0
230
1.0
  0
TEXT
  8
19
  6
CONTINUOUS
 62
     1
  5
505
 10
948410.008
 20
7251382.34
 30
0.0
 40
24.0
  1
84TH ST
 50
358.1831
  7
ROMANC
 72
     4
 11
948498.96991
 21
7251391.524029
 31
0.0
210
0.0
220
0.0
230
1.0
  0
TEXT
  8
19
  6
CONTINUOUS
 62
     1
  5
506
 10
946967.799
 20
7246885.612
 30
0.0
 40
24.0
  1
98TH ST
 50
358.1831
  7
ROMANC
 72
     4
 11
947055.62748
 21
7246894.831983
 31
0.0
210
0.0
220
0.0
230
1.0
  0
TEXT
  8
19
  6
CONTINUOUS
 62
     1
  5
507
 10
950099.349
 20
7246787.436
 30
0.0
 40
24.0
  1
98TH ST
 50
358.1831
  7
ROMANC
 72
     4
 11
950187.17748
 21
7246796.655983
 31
0.0
210
0.0
220
0.0
230
1.0
  0
TEXT
  8
19
  6
CONTINUOUS
 62
     1
  5
508
 10
947153.265
 20
7247585.078
 30
0.0
 40
24.0
  1
96TH ST
 50
358.1831
  7
ROMANC
 72
     4
 11
947241.09348
 21
7247594.297983
 31
0.0
210
0.0
220
0.0
230
1.0
  0
TEXT
  8
19
  6
CONTINUOUS
 62
     1
  5
509
 10
947190.062
 20
7248191.205
 30
0.0
 40
24.0
  1
94TH ST
 50
358.1831
  7
ROMANC
 72
     4
 11
947279.02391
 21
7248200.389029
 31
0.0
210
0.0
220
0.0
230
1.0
  0
TEXT
  8
19
  6
CONTINUOUS
 62
     1
  5
50A
 10
947223.23
 20
7248851.654
 30
0.0
 40
24.0
  1
92ND ST
 50
358.1831
  7
ROMANC
 72
     4
 11
947309.925051
 21
7248860.909937
 31
0.0
210
0.0
220
0.0
230
1.0
  0
TEXT
  8
19
  6
CONTINUOUS
 62
     1
  5
50B
 10
948504.021
 20
7248310.345
 30
0.0
 40
24.0
  1
94TH ST
 50
358.1831
  7
ROMANC
 72
     4
 11
948592.98291
 21
7248319.529029
 31
0.0
210
0.0
220
0.0
230
1.0
  0
TEXT
  8
19
  6
CONTINUOUS
 62
     1
  5
50C
 10
948883.091
 20
7252082.945
 30
0.0
 40
24.0
  1
82ND  ST
 50
358.1831
  7
ROMANC
 72
     4
 11
948983.38521
 21
7252091.769551
 31
0.0
210
0.0
220
0.0
230
1.0
  0
TEXT
  8
19
  6
CONTINUOUS
 62
     1
  5
50D
 10
948558.578
 20
7246835.098
 30
0.0
 40
24.0
  1
98TH ST
 50
358.1831
  7
ROMANC
 72
     4
 11
948646.40648
 21
7246844.317983
 31
0.0
210
0.0
220
0.0
230
1.0
  0
TEXT
  8
19
  6
CONTINUOUS
 62
     1
  5
50E
 10
947976.192
 20
7248084.955
 30
0.0
 40
24.0
  1
AVE L
 50
88.1831
  7
ROMANC
 72
     4
 11
947966.193106
 21
7248148.228831
 31
0.0
210
0.0
220
0.0
230
1.0
  0
TEXT
  8
19
  6
CONTINUOUS
 62
     1
  5
50F
 10
947432.751
 20
7251644.352
 30
0.0
 40
24.0
  1
AVE N
 50
88.1831
  7
ROMANC
 72
     4
 11
947422.823983
 21
7251709.891692
 31
0.0
210
0.0
220
0.0
230
1.0
  0
TEXT
  8
19
  6
CONTINUOUS
 62
     1
  5
510
 10
948095.887
 20
7251636.225
 30
0.0
 40
24.0
  1
AVE L
 50
88.1831
  7
ROMANC
 72
     4
 11
948085.888106
 21
7251699.498831
 31
0.0
210
0.0
220
0.0
230
1.0
  0
TEXT
  8
19
  6
CONTINUOUS
 62
     1
  5
511
 10
948751.958
 20
7251610.052
 30
0.0
 40
24.0
  1
AVE J
 50
88.1831
  7
ROMANC
 72
     4
 11
948741.88723
 21
7251671.059971
 31
0.0
210
0.0
220
0.0
230
1.0
  0
TEXT
  8
19
  6
CONTINUOUS
 62
     1
  5
512
 10
950074.063
 20
7251295.176
 30
0.0
 40
24.0
  1
AVE F 
 50
88.1831
  7
ROMANC
 72
     4
 11
950064.483476
 21
7251371.670182
 31
0.0
210
0.0
220
0.0
230
1.0
  0
TEXT
  8
19
  6
CONTINUOUS
 62
     1
  5
513
 10
950725.767
 20
7251263.531
 30
0.0
 40
24.0
  1
AVE D 
 50
88.1831
  7
ROMANC
 72
     4
 11
950716.217469
 21
7251340.970706
 31
0.0
210
0.0
220
0.0
230
1.0
  0
POLYLINE
  8
21
  6
DASHDOT
 62
     7
  5
514
 66
     1
 10
0.0
 20
0.0
 30
0.0
  0
VERTEX
  8
21
  6
DASHDOT
 62
     7
  5
515
 10
946830.781372
 20
7252094.28103
 30
0.0
 42
-0.414421
  0
VERTEX
  8
21
  6
DASHDOT
 62
     7
  5
516
 10
946861.718122
 20
7252123.336005
 30
0.0
  0
VERTEX
  8
21
  6
DASHDOT
 62
     7
  5
517
 10
946861.718
 20
7252123.336
 30
0.0
  0
VERTEX
  8
21
  6
DASHDOT
 62
     7
  5
518
 10
946806.745
 20
7252125.07
 30
0.0
  0
VERTEX
  8
21
  6
DASHDOT
 62
     7
  5
519
 10
946802.583
 20
7251990.162
 30
0.0
  0
VERTEX
  8
21
  6
DASHDOT
 62
     7
  5
51A
 10
946824.982
 20
7251989.456
 30
0.0
  0
VERTEX
  8
21
  6
DASHDOT
 62
     7
  5
51B
 10
946828.625
 20
7252024.355
 30
0.0
  0
VERTEX
  8
21
  6
DASHDOT
 62
     7
  5
51C
 10
946830.782
 20
7252094.302
 30
0.0
  0
VERTEX
  8
21
  6
DASHDOT
 62
     7
  5
51D
 10
946830.782
 20
7252094.281
 30
0.0
  0
SEQEND
  8
21
  6
DASHDOT
 62
     7
  5
51E
  0
POLYLINE
  8
21
  6
DASHDOT
 62
     7
  5
51F
 66
     1
 10
0.0
 20
0.0
 30
0.0
 70
     1
  0
VERTEX
  8
21
  6
DASHDOT
 62
     7
  5
520
 10
946807.054
 20
7252135.065
 30
0.0
  0
VERTEX
  8
21
  6
DASHDOT
 62
     7
  5
521
 10
947411.749
 20
7252115.884
 30
0.0
  0
VERTEX
  8
21
  6
DASHDOT
 62
     7
  5
522
 10
947411.433
 20
7252105.889
 30
0.0
  0
VERTEX
  8
21
  6
DASHDOT
 62
     7
  5
523
 10
946806.736
 20
7252125.07
 30
0.0
  0
VERTEX
  8
21
  6
DASHDOT
 62
     7
  5
524
 10
946807.054
 20
7252135.065
 30
0.0
  0
SEQEND
  8
21
  6
DASHDOT
 62
     7
  5
525
  0
LINE
  8
21
  6
DASHDOT
 62
     7
  5
526
 10
946830.782
 20
7252094.302
 30
0.0
 11
946830.782
 21
7252094.281
 31
0.0
  0
LINE
  8
6
  6
CONTINUOUS
 62
     7
  5
527
 10
947410.381
 20
7252072.76
 30
0.0
 11
947407.152
 21
7251970.956
 31
0.0
  0
LINE
  8
6
  6
CONTINUOUS
 62
     7
  5
528
 10
947407.152
 20
7251970.956
 30
0.0
 11
946824.979
 21
7251989.424
 31
0.0
  0
LINE
  8
6
  6
CONTINUOUS
 62
     7
  5
529
 10
946824.982
 20
7251989.456
 30
0.0
 11
946828.625
 21
7252024.355
 31
0.0
  0
LINE
  8
6
  6
CONTINUOUS
 62
     7
  5
52A
 10
946828.625
 20
7252024.355
 30
0.0
 11
946830.782
 21
7252094.302
 31
0.0
  0
ARC
  8
6
  6
CONTINUOUS
 62
     7
  5
52B
 10
946860.767264
 20
7252093.35129
 30
0.0
 40
30.0
 50
88.1831
 51
178.223656
210
0.0
220
0.0
230
1.0
  0
POLYLINE
  8
6
  6
CONTINUOUS
 62
     7
  5
52C
 66
     1
 10
0.0
 20
0.0
 30
0.0
  0
VERTEX
  8
6
  6
CONTINUOUS
 62
     7
  5
52D
 10
947410.418
 20
7252072.721
 30
0.0
  0
VERTEX
  8
6
  6
CONTINUOUS
 62
     7
  5
52E
 10
947394.438
 20
7252089.719
 30
0.0
  0
VERTEX
  8
6
  6
CONTINUOUS
 62
     7
  5
52F
 10
947106.076
 20
7252098.75
 30
0.0
  0
VERTEX
  8
6
  6
CONTINUOUS
 62
     7
  5
530
 10
947106.585
 20
7252115.558
 30
0.0
  0
VERTEX
  8
6
  6
CONTINUOUS
 62
     7
  5
531
 10
946861.718
 20
7252123.336
 30
0.0
  0
SEQEND
  8
6
  6
CONTINUOUS
 62
     7
  5
532
  0
TEXT
  8
11
  6
CONTINUOUS
 62
     7
  5
533
 10
946779.658
 20
7251989.566
 30
0.0
 40
8.0
  1
52.41'
 50
358.1831
  7
txt
 72
     4
 11
946798.200559
 21
7251992.979814
 31
0.0
210
0.0
220
0.0
230
1.0
  0
TEXT
  8
11
  6
CONTINUOUS
 62
     7
  5
534
 10
946834.947
 20
7251992.142
 30
0.0
 40
8.0
  1
35.09'
 50
82.756697
  7
txt
 72
     4
 11
946833.428966
 21
7252011.923259
 31
0.0
210
0.0
220
0.0
230
1.0
  0
TEXT
  8
11
  6
CONTINUOUS
 62
     7
  5
535
 10
946840.042
 20
7252049.065
 30
0.0
 40
8.0
  1
69.98'
 50
88.1831
  7
txt
 72
     4
 11
946836.649112
 21
7252068.267227
 31
0.0
210
0.0
220
0.0
230
1.0
  0
TEXT
  8
11
  6
CONTINUOUS
 62
     7
  5
536
 10
946843.283
 20
7252113.152
 30
0.0
 40
6.0
  1
R=30'
 50
313.1831
  7
txt
 72
     4
 11
946854.13484
 21
7252105.972968
 31
0.0
210
0.0
220
0.0
230
1.0
  0
TEXT
  8
11
  6
CONTINUOUS
 62
     7
  5
537
 10
946860.469
 20
7252112.347
 30
0.0
 40
8.0
  1
20'
 50
358.1831
  7
txt
 72
     4
 11
946870.196993
 21
7252116.040425
 31
0.0
210
0.0
220
0.0
230
1.0
  0
TEXT
  8
13
  6
CONTINUOUS
 62
    14
  5
539
 10
946826.312
 20
7252025.944
 30
0.0
 40
8.0
  1
V6246 P329
 50
88.1831
  7
ROMANS
 72
     4
 11
946823.529381
 21
7252064.38455
 31
0.0
210
0.0
220
0.0
230
1.0
  0
TEXT
  8
13
  6
CONTINUOUS
 62
    14
  5
53A
 10
947002.739
 20
7252123.83
 30
0.0
 40
8.0
  1
V507 P359
 50
358.1831
  7
ROMANS
 72
     4
 11
947037.181561
 21
7252126.739442
 31
0.0
210
0.0
220
0.0
230
1.0
  0
TEXT
  8
13
  6
CONTINUOUS
 62
    14
  5
53B
 10
947146.199
 20
7252101.536
 30
0.0
 40
8.0
  1
V5452 P155
 50
358.1831
  7
ROMANS
 72
     4
 11
947184.650545
 21
7252104.318271
 31
0.0
210
0.0
220
0.0
230
1.0
  0
TEXT
  8
13
  6
CONTINUOUS
 62
    14
  5
53C
 10
947266.805
 20
7252096.67
 30
0.0
 40
8.0
  1
V5471 P135
 50
358.1831
  7
ROMANS
 72
     4
 11
947305.256545
 21
7252099.452271
 31
0.0
210
0.0
220
0.0
230
1.0
  0
SOLID
  8
21
  6
DASHDOT
 62
     7
  5
53D
 10
947256.001
 20
7252093.993
 30
0.0
 11
947106.076
 21
7252098.75
 31
0.0
 12
947256.519
 22
7252110.802
 32
0.0
 13
947106.585
 23
7252115.558
 33
0.0
  0
SOLID
  8
21
  6
DASHDOT
 62
     7
  5
53E
 10
947256.519
 20
7252110.802
 30
0.0
 11
947323.986
 21
7252108.674
 31
0.0
 12
947256.001
 22
7252093.993
 32
0.0
 13
947323.469
 23
7252091.912
 33
0.0
  0
POLYLINE
  8
21
  6
DASHDOT
 62
     7
  5
53F
 66
     1
 10
0.0
 20
0.0
 30
0.0
 70
     1
  0
VERTEX
  8
21
  6
DASHDOT
 62
     7
  5
540
 10
947323.986
 20
7252108.674
 30
0.0
  0
VERTEX
  8
21
  6
DASHDOT
 62
     7
  5
541
 10
947411.443
 20
7252105.915
 30
0.0
  0
VERTEX
  8
21
  6
DASHDOT
 62
     7
  5
542
 10
947410.418
 20
7252072.721
 30
0.0
  0
VERTEX
  8
21
  6
DASHDOT
 62
     7
  5
543
 10
947394.438
 20
7252089.719
 30
0.0
  0
VERTEX
  8
21
  6
DASHDOT
 62
     7
  5
544
 10
947323.469
 20
7252091.912
 30
0.0
  0
SEQEND
  8
21
  6
DASHDOT
 62
     7
  5
545
  0
TEXT
  8
11
  6
CONTINUOUS
 62
     7
  5
546
 10
947405.658
 20
7252017.202
 30
0.0
 40
8.0
  1
101.79'
 50
88.1831
  7
txt
 72
     4
 11
947402.314034
 21
7252037.946452
 31
0.0
210
0.0
220
0.0
230
1.0
  0
TEXT
  8
11
  6
CONTINUOUS
 62
     7
  5
547
 10
947347.989
 20
7252080.744
 30
0.0
 40
8.0
  1
63.5'
 50
358.1831
  7
txt
 72
     4
 11
947363.572048
 21
7252084.251694
 31
0.0
210
0.0
220
0.0
230
1.0
  0
SOLID
  8
21
  6
DASHDOT
 62
     7
  5
548
 10
947461.724
 20
7252114.298
 30
0.0
 11
948071.418
 21
7252094.957
 31
0.0
 12
947461.407
 22
7252104.303
 32
0.0
 13
948071.1
 23
7252084.962
 33
0.0
  0
LINE
  8
6
  6
CONTINUOUS
 62
     7
  5
549
 10
948071.1
 20
7252084.962
 30
0.0
 11
948066.82
 21
7251950.03
 31
0.0
  0
LINE
  8
6
  6
CONTINUOUS
 62
     7
  5
54A
 10
948066.82
 20
7251950.03
 30
0.0
 11
947457.127
 21
7251969.371
 31
0.0
  0
LINE
  8
6
  6
CONTINUOUS
 62
     7
  5
54B
 10
947457.127
 20
7251969.371
 30
0.0
 11
947461.4
 21
7252104.092
 31
0.0
  0
TEXT
  8
13
  6
CONTINUOUS
 62
    14
  5
54C
 10
947540.318
 20
7252087.715
 30
0.0
 40
8.0
  1
V5445 P128
 50
358.1831
  7
ROMANS
 72
     4
 11
947578.75855
 21
7252090.497619
 31
0.0
210
0.0
220
0.0
230
1.0
  0
TEXT
  8
13
  6
CONTINUOUS
 62
    14
  5
54D
 10
947689.897
 20
7252085.421
 30
0.0
 40
8.0
  1
V5452 P157
 50
358.1831
  7
ROMANS
 72
     4
 11
947728.33755
 21
7252088.203619
 31
0.0
210
0.0
220
0.0
230
1.0
  0
SOLID
  8
21
  6
DASHDOT
 62
     7
  5
54E
 10
947691.301
 20
7252097.011
 30
0.0
 11
947766.264
 21
7252094.645
 31
0.0
 12
947690.792
 22
7252080.497
 32
0.0
 13
947765.756
 23
7252078.183
 33
0.0
  0
SOLID
  8
21
  6
DASHDOT
 62
     7
  5
54F
 10
947766.264
 20
7252094.645
 30
0.0
 11
947841.226
 21
7252092.28
 31
0.0
 12
947765.756
 22
7252078.183
 32
0.0
 13
947840.719
 23
7252075.878
 33
0.0
  0
TEXT
  8
13
  6
CONTINUOUS
 62
    14
  5
550
 10
947768.327
 20
7252082.455
 30
0.0
 40
8.0
  1
V5445 P128
 50
358.1831
  7
ROMANS
 72
     4
 11
947806.76755
 21
7252085.237619
 31
0.0
210
0.0
220
0.0
230
1.0
  0
TEXT
  8
13
  6
CONTINUOUS
 62
    14
  5
551
 10
947887.703
 20
7252092.754
 30
0.0
 40
8.0
  1
V507 P359
 50
358.1831
  7
ROMANS
 72
     4
 11
947922.145561
 21
7252095.663442
 31
0.0
210
0.0
220
0.0
230
1.0
  0
TEXT
  8
11
  6
CONTINUOUS
 62
     7
  5
552
 10
947490.771
 20
7252093.236
 30
0.0
 40
8.0
  1
63.5'
 50
358.1831
  7
txt
 72
     4
 11
947506.354048
 21
7252096.743694
 31
0.0
210
0.0
220
0.0
230
1.0
  0
LINE
  8
6
  6
CONTINUOUS
 62
     7
  5
553
 10
948121.075
 20
7252083.377
 30
0.0
 11
948730.768
 21
7252064.037
 31
0.0
  0
LINE
  8
6
  6
CONTINUOUS
 62
     7
  5
554
 10
948730.768
 20
7252064.037
 30
0.0
 11
948726.488
 21
7251929.105
 31
0.0
  0
LINE
  8
6
  6
CONTINUOUS
 62
     7
  5
555
 10
948726.488
 20
7251929.105
 30
0.0
 11
948116.795
 21
7251948.445
 31
0.0
  0
LINE
  8
6
  6
CONTINUOUS
 62
     7
  5
556
 10
948116.795
 20
7251948.445
 30
0.0
 11
948121.075
 21
7252083.377
 31
0.0
  0
SOLID
  8
21
  6
DASHDOT
 62
     7
  5
557
 10
948121.393
 20
7252093.372
 30
0.0
 11
948731.086
 21
7252074.032
 31
0.0
 12
948121.075
 22
7252083.377
 32
0.0
 13
948730.768
 23
7252064.037
 33
0.0
  0
TEXT
  8
13
  6
CONTINUOUS
 62
    14
  5
558
 10
948302.627
 20
7252080.188
 30
0.0
 40
8.0
  1
V507 P359
 50
358.1831
  7
ROMANS
 72
     4
 11
948337.069561
 21
7252083.097442
 31
0.0
210
0.0
220
0.0
230
1.0
  0
LINE
  8
6
  6
CONTINUOUS
 62
     7
  5
559
 10
948780.743
 20
7252062.452
 30
0.0
 11
949185.54
 21
7252049.61
 31
0.0
  0
LINE
  8
6
  6
CONTINUOUS
 62
     7
  5
55A
 10
949185.54
 20
7252049.61
 30
0.0
 11
949181.259
 21
7251914.679
 31
0.0
  0
LINE
  8
6
  6
CONTINUOUS
 62
     7
  5
55B
 10
949181.259
 20
7251914.679
 30
0.0
 11
948776.463
 21
7251927.519
 31
0.0
  0
LINE
  8
6
  6
CONTINUOUS
 62
     7
  5
55C
 10
948776.463
 20
7251927.519
 30
0.0
 11
948780.743
 21
7252062.452
 31
0.0
  0
LINE
  8
6
  6
CONTINUOUS
 62
     7
  5
55D
 10
949200.532
 20
7252049.135
 30
0.0
 11
949365.45
 21
7252043.904
 31
0.0
  0
LINE
  8
6
  6
CONTINUOUS
 62
     7
  5
55E
 10
949365.45
 20
7252043.904
 30
0.0
 11
949361.169
 21
7251908.971
 31
0.0
  0
LINE
  8
6
  6
CONTINUOUS
 62
     7
  5
55F
 10
949361.169
 20
7251908.971
 30
0.0
 11
949196.252
 21
7251914.203
 31
0.0
  0
LINE
  8
6
  6
CONTINUOUS
 62
     7
  5
560
 10
949196.252
 20
7251914.203
 30
0.0
 11
949200.532
 21
7252049.135
 31
0.0
  0
TEXT
  8
13
  6
CONTINUOUS
 62
    14
  5
561
 10
948992.96
 20
7252058.387
 30
0.0
 40
8.0
  1
V507 P359
 50
358.1831
  7
ROMANS
 72
     4
 11
949027.402561
 21
7252061.296442
 31
0.0
210
0.0
220
0.0
230
1.0
  0
SOLID
  8
21
  6
DASHDOT
 62
     7
  5
562
 10
948781.061
 20
7252072.447
 30
0.0
 11
949365.767
 21
7252053.899
 31
0.0
 12
948780.743
 22
7252062.452
 32
0.0
 13
949365.45
 23
7252043.904
 33
0.0
  0
TEXT
  8
11
  6
CONTINUOUS
 62
     7
  5
563
 10
949638.266
 20
7251080.394
 30
0.0
 40
10.0
  1
N01%%d16'00"E
 50
86.916339
  7
txt
 72
     4
 11
949635.723021
 21
7251126.137031
 31
0.0
210
0.0
220
0.0
230
1.0
  0
LINE
  8
6
  6
CONTINUOUS
 62
     7
  5
564
 10
946668.489
 20
7247451.503
 30
0.0
 11
946652.802
 21
7246957.006
 31
0.0
  0
TEXT
  8
11
  6
CONTINUOUS
 62
     7
  5
565
 10
946787.206
 20
7247296.97
 30
0.0
 40
7.999
  1
278.3'
 50
358.1831
  7
txt
 72
     4
 11
946807.004927
 21
7247300.34396
 31
0.0
210
0.0
220
0.0
230
1.0
  0
TEXT
  8
11
  6
CONTINUOUS
 62
     7
  5
566
 10
946757.798
 20
7246956.983
 30
0.0
 40
8.0
  1
217.3'
 50
358.1831
  7
txt
 72
     4
 11
946776.182639
 21
7246960.401823
 31
0.0
210
0.0
220
0.0
230
1.0
  0
TEXT
  8
11
  6
CONTINUOUS
 62
     7
  5
567
 10
946936.217
 20
7247180.786
 30
0.0
 40
8.0
  1
205.9'
 50
88.1831
  7
txt
 72
     4
 11
946932.835114
 21
7247200.335053
 31
0.0
210
0.0
220
0.0
230
1.0
  0
TEXT
  8
11
  6
CONTINUOUS
 62
     7
  5
568
 10
946869.627
 20
7247024.724
 30
0.0
 40
8.0
  1
150'
 50
88.1831
  7
txt
 72
     4
 11
946866.015439
 21
7247037.032695
 31
0.0
210
0.0
220
0.0
230
1.0
  0
TEXT
  8
11
  6
CONTINUOUS
 62
     7
  5
569
 10
946887.307
 20
7246950.326
 30
0.0
 40
8.0
  1
60'
 50
358.1831
  7
txt
 72
     4
 11
946896.845088
 21
7246954.025449
 31
0.0
210
0.0
220
0.0
230
1.0
  0
TEXT
  8
13
  6
CONTINUOUS
 62
    14
  5
56A
 10
946755.95
 20
7247143.579
 30
0.0
 40
8.0
  1
V1966 P829
 50
358.1831
  7
txt
 72
     4
 11
946792.748376
 21
7247146.413712
 31
0.0
210
0.0
220
0.0
230
1.0
  0
TEXT
  8
11
  6
CONTINUOUS
 62
     7
  5
56B
 10
946676.638
 20
7247375.829
 30
0.0
 40
8.0
  1
139'
 50
88.1831
  7
txt
 72
     4
 11
946673.021429
 21
7247387.979774
 31
0.0
210
0.0
220
0.0
230
1.0
  0
TEXT
  8
11
  6
CONTINUOUS
 62
     7
  5
56C
 10
946690.756
 20
7247489.599
 30
0.0
 40
8.0
  1
111.84'
 50
88.1831
  7
txt
 72
     4
 11
946687.379123
 21
7247509.305973
 31
0.0
210
0.0
220
0.0
230
1.0
  0
TEXT
  8
11
  6
CONTINUOUS
 62
     7
  5
56D
 10
946806.663
 20
7247560.088
 30
0.0
 40
8.0
  1
268.03'
 50
358.1831
  7
txt
 72
     4
 11
946830.210042
 21
7247563.343064
 31
0.0
210
0.0
220
0.0
230
1.0
  0
TEXT
  8
11
  6
CONTINUOUS
 62
     7
  5
56E
 10
947457.196
 20
7247548.935
 30
0.0
 40
8.0
  1
1021.97'
 50
358.1831
  7
txt
 72
     4
 11
947481.938441
 21
7247552.152144
 31
0.0
210
0.0
220
0.0
230
1.0
  0
CIRCLE
  8
8
  6
CONTINUOUS
 62
     7
  5
570
 10
946677.032295
 20
7247563.12894
 30
0.0
 40
2.0
210
0.0
220
0.0
230
1.0
  0
CIRCLE
  8
8
  6
CONTINUOUS
 62
     7
  5
571
 10
946692.500337
 20
7247577.645815
 30
0.0
 40
2.0
210
0.0
220
0.0
230
1.0
  0
TEXT
  8
11
  6
CONTINUOUS
 62
     7
  5
572
 10
948924.177
 20
7246900.004
 30
0.0
 40
8.0
  1
72.9'
 50
43.1831
  7
txt
 72
     4
 11
948932.738169
 21
7246913.524407
 31
0.0
210
0.0
220
0.0
230
1.0
  0
TEXT
  8
11
  6
CONTINUOUS
 62
     7
  5
573
 10
948911.101
 20
7246876.761
 30
0.0
 40
8.0
  1
S45%%d00'00"W
 50
43.1831
  7
txt
 72
     4
 11
948938.213725
 21
7246907.692184
 31
0.0
210
0.0
220
0.0
230
1.0
  0
TEXT
  8
11
  6
CONTINUOUS
 62
     7
  5
574
 10
948977.551
 20
7247113.533
 30
0.0
 40
8.0
  1
585.36'
 50
84.601661
  7
txt
 72
     4
 11
948975.776221
 21
7247137.269248
 31
0.0
210
0.0
220
0.0
230
1.0
  0
TEXT
  8
11
  6
CONTINUOUS
 62
     7
  5
575
 10
948983.863
 20
7247095.29
 30
0.0
 40
8.0
  1
S03%%d34'53"W
 50
84.601661
  7
txt
 72
     4
 11
948983.741009
 21
7247136.516328
 31
0.0
210
0.0
220
0.0
230
1.0
  0
TEXT
  8
11
  6
CONTINUOUS
 62
     7
  5
576
 10
949018.349
 20
7247567.199
 30
0.0
 40
8.0
  1
166.14'
 50
86.951828
  7
txt
 72
     4
 11
949015.451565
 21
7247588.010517
 31
0.0
210
0.0
220
0.0
230
1.0
  0
TEXT
  8
11
  6
CONTINUOUS
 62
     7
  5
577
 10
949025.484
 20
7247550.739
 30
0.0
 40
8.0
  1
N01%%d13'53"E
 50
86.951828
  7
txt
 72
     4
 11
949023.440457
 21
7247587.585798
 31
0.0
210
0.0
220
0.0
230
1.0
  0
TEXT
  8
11
  6
CONTINUOUS
 62
     7
  5
578
 10
949029.792
 20
7247849.419
 30
0.0
 40
8.0
  1
340.84'
 50
88.1831
  7
txt
 72
     4
 11
949026.554945
 21
7247873.533756
 31
0.0
210
0.0
220
0.0
230
1.0
  0
TEXT
  8
11
  6
CONTINUOUS
 62
     7
  5
579
 10
949321.694
 20
7247165.317
 30
0.0
 40
8.0
  1
N03%%d36'14"W
 50
271.786883
  7
txt
 72
     4
 11
949326.921403
 21
7247126.035899
 31
0.0
210
0.0
220
0.0
230
1.0
  0
TEXT
  8
11
  6
CONTINUOUS
 62
     7
  5
57A
 10
949331.06
 20
7246918.798
 30
0.0
 40
8.0
  1
N45%%d00'00"W
 50
313.1831
  7
txt
 72
     4
 11
949361.991184
 21
7246891.685275
 31
0.0
210
0.0
220
0.0
230
1.0
  0
TEXT
  8
11
  6
CONTINUOUS
 62
     7
  5
57B
 10
949355.145
 20
7246904.825
 30
0.0
 40
8.0
  1
73.1'
 50
313.1831
  7
txt
 72
     4
 11
949367.825048
 21
7246897.159253
 31
0.0
210
0.0
220
0.0
230
1.0
  0
TEXT
  8
11
  6
CONTINUOUS
 62
     7
  5
57C
 10
949330.184
 20
7247149.771
 30
0.0
 40
8.0
  1
452.09'
 50
271.786883
  7
txt
 72
     4
 11
949334.918604
 21
7247126.286214
 31
0.0
210
0.0
220
0.0
230
1.0
  0
TEXT
  8
11
  6
CONTINUOUS
 62
     7
  5
57D
 10
949341.345
 20
7248181.717
 30
0.0
 40
8.0
  1
1676.74'
 50
268.705342
  7
txt
 72
     4
 11
949344.754091
 21
7248155.525288
 31
0.0
210
0.0
220
0.0
230
1.0
  0
TEXT
  8
11
  6
CONTINUOUS
 62
     7
  5
57E
 10
949333.618
 20
7248193.826
 30
0.0
 40
8.0
  1
S00%%d31'20"E
 50
268.705342
  7
txt
 72
     4
 11
949336.757521
 21
7248155.706334
 31
0.0
210
0.0
220
0.0
230
1.0
  0
TEXT
  8
11
  6
CONTINUOUS
 62
     7
  5
57F
 10
948153.866
 20
7248131.978
 30
0.0
 40
8.0
  1
N27%%d40'54"E
 50
60.501381
  7
txt
 72
     4
 11
948170.046165
 21
7248168.701387
 31
0.0
210
0.0
220
0.0
230
1.0
  0
TEXT
  8
11
  6
CONTINUOUS
 62
     7
  5
580
 10
948154.917
 20
7248150.083
 30
0.0
 40
8.0
  1
225.32'
 50
60.501381
  7
txt
 72
     4
 11
948163.082821
 21
7248172.640285
 31
0.0
210
0.0
220
0.0
230
1.0
  0
TEXT
  8
11
  6
CONTINUOUS
 62
     7
  5
581
 10
948083.236
 20
7248210.835
 30
0.0
 40
8.0
  1
N55%%d51'54"E
 50
32.318044
  7
txt
 72
     4
 11
948113.484889
 21
7248234.704094
 31
0.0
210
0.0
220
0.0
230
1.0
  0
TEXT
  8
11
  6
CONTINUOUS
 62
     7
  5
582
 10
948091.517
 20
7248225.54
 30
0.0
 40
8.0
  1
207.65'
 50
32.318044
  7
txt
 72
     4
 11
948109.2078
 21
7248241.464663
 31
0.0
210
0.0
220
0.0
230
1.0
  0
TEXT
  8
11
  6
CONTINUOUS
 62
     7
  5
583
 10
948086.245
 20
7248442.991
 30
0.0
 40
8.0
  1
S56%%d10'55"E
 50
324.36505
  7
txt
 72
     4
 11
948119.389909
 21
7248424.152571
 31
0.0
210
0.0
220
0.0
230
1.0
  0
TEXT
  8
11
  6
CONTINUOUS
 62
     7
  5
584
 10
948102.522
 20
7248441.167
 30
0.0
 40
8.0
  1
207.05'
 50
324.36505
  7
txt
 72
     4
 11
948124.050337
 21
7248430.655942
 31
0.0
210
0.0
220
0.0
230
1.0
  0
TEXT
  8
11
  6
CONTINUOUS
 62
     7
  5
585
 10
948151.315
 20
7248526.758
 30
0.0
 40
8.0
  1
S27%%d52'22"E
 50
296.055836
  7
txt
 72
     4
 11
948172.295612
 21
7248492.954051
 31
0.0
210
0.0
220
0.0
230
1.0
  0
TEXT
  8
11
  6
CONTINUOUS
 62
     7
  5
586
 10
948165.486
 20
7248515.989
 30
0.0
 40
8.0
  1
224.76'
 50
296.055836
  7
txt
 72
     4
 11
948179.482588
 21
7248496.469077
 31
0.0
210
0.0
220
0.0
230
1.0
  0
TEXT
  8
11
  6
CONTINUOUS
 62
     7
  5
587
 10
947261.241
 20
7248889.273
 30
0.0
 40
8.0
  1
1312.55'
 50
358.1831
  7
txt
 72
     4
 11
947286.173345
 21
7248892.48412
 31
0.0
210
0.0
220
0.0
230
1.0
  0
TEXT
  8
11
  6
CONTINUOUS
 62
     7
  5
588
 10
949292.993
 20
7250441.4
 30
0.0
 40
8.0
  1
N02%%d22'40"W
 50
270.560861
  7
txt
 72
     4
 11
949297.394146
 21
7250400.441119
 31
0.0
210
0.0
220
0.0
230
1.0
  0
TEXT
  8
11
  6
CONTINUOUS
 62
     7
  5
589
 10
949301.163
 20
7250423.943
 30
0.0
 40
8.0
  1
459.39'
 50
270.560861
  7
txt
 72
     4
 11
949305.392491
 21
7250400.519279
 31
0.0
210
0.0
220
0.0
230
1.0
  0
TEXT
  8
11
  6
CONTINUOUS
 62
     7
  5
58A
 10
949628.968
 20
7250697.633
 30
0.0
 40
8.0
  1
91.25'
 50
86.916528
  7
txt
 72
     4
 11
949625.944499
 21
7250715.868037
 31
0.0
210
0.0
220
0.0
230
1.0
  0
TEXT
  8
11
  6
CONTINUOUS
 62
     7
  5
58B
 10
949635.967
 20
7250678.844
 30
0.0
 40
8.0
  1
N01%%d16'00"E
 50
86.916528
  7
txt
 72
     4
 11
949633.932496
 21
7250715.438418
 31
0.0
210
0.0
220
0.0
230
1.0
  0
TEXT
  8
11
  6
CONTINUOUS
 62
     7
  5
58C
 10
949403.351
 20
7249200.018
 30
0.0
 40
8.0
  1
N11%%d10'27"E
 50
77.008883
  7
txt
 72
     4
 11
949407.388595
 21
7249235.31272
 31
0.0
210
0.0
220
0.0
230
1.0
  0
TEXT
  8
11
  6
CONTINUOUS
 62
     7
  5
58D
 10
949398.458
 20
7249214.392
 30
0.0
 40
8.0
  1
408.18'
 50
77.008883
  7
txt
 72
     4
 11
949399.594326
 21
7249237.11105
 31
0.0
210
0.0
220
0.0
230
1.0
  0
TEXT
  8
11
  6
CONTINUOUS
 62
     7
  5
58E
 10
946773.725
 20
7250194.521
 30
0.0
 40
10.0
  1
2519.76'
 50
88.1831
  7
txt
 72
     4
 11
946769.753506
 21
7250227.023259
 31
0.0
210
0.0
220
0.0
230
1.0
  0
TEXT
  8
11
  6
CONTINUOUS
 62
     7
  5
58F
 10
947987.35
 20
7251353.681
 30
0.0
 40
8.0
  1
 
 50
358.1831
  7
txt
 72
     4
 11
947990.141482
 21
7251357.594462
 31
0.0
210
0.0
220
0.0
230
1.0
  0
TEXT
  8
11
  6
CONTINUOUS
 62
     7
  5
590
 10
947972.671
 20
7251362.15
 30
0.0
 40
8.0
  1
2530'
 50
358.1831
  7
txt
 72
     4
 11
947990.394971
 21
7251365.589781
 31
0.0
210
0.0
220
0.0
230
1.0
  0
CIRCLE
  8
8
  6
CONTINUOUS
 62
     7
  5
591
 10
946861.718122
 20
7252123.336005
 30
0.0
 40
2.0
210
0.0
220
0.0
230
1.0
  0
CIRCLE
  8
8
  6
CONTINUOUS
 62
     7
  5
592
 10
946830.781372
 20
7252094.281265
 30
0.0
 40
2.0
210
0.0
220
0.0
230
1.0
  0
CIRCLE
  8
8
  6
CONTINUOUS
 62
     7
  5
593
 10
946828.62525
 20
7252024.355471
 30
0.0
 40
2.0
210
0.0
220
0.0
230
1.0
  0
CIRCLE
  8
8
  6
CONTINUOUS
 62
     7
  5
594
 10
950020.85893
 20
7251189.195999
 30
0.0
 40
2.0
210
0.0
220
0.0
230
1.0
  0
CIRCLE
  8
8
  6
CONTINUOUS
 62
     7
  5
595
 10
950166.297857
 20
7251034.769137
 30
0.0
 40
2.0
210
0.0
220
0.0
230
1.0
  0
CIRCLE
  8
8
  6
CONTINUOUS
 62
     7
  5
596
 10
950168.544809
 20
7251109.734584
 30
0.0
 40
2.0
210
0.0
220
0.0
230
1.0
  0
CIRCLE
  8
8
  6
CONTINUOUS
 62
     7
  5
597
 10
950095.825346
 20
7251186.948016
 30
0.0
 40
2.0
210
0.0
220
0.0
230
1.0
  0
CIRCLE
  8
8
  6
CONTINUOUS
 62
     7
  5
598
 10
950595.625696
 20
7251021.900582
 30
0.0
 40
2.0
210
0.0
220
0.0
230
1.0
  0
CIRCLE
  8
8
  6
CONTINUOUS
 62
     7
  5
599
 10
950597.871649
 20
7251096.866061
 30
0.0
 40
2.0
210
0.0
220
0.0
230
1.0
  0
CIRCLE
  8
8
  6
CONTINUOUS
 62
     7
  5
59A
 10
950675.086048
 20
7251169.584494
 30
0.0
 40
2.0
210
0.0
220
0.0
230
1.0
  0
CIRCLE
  8
8
  6
CONTINUOUS
 62
     7
  5
59B
 10
950750.051559
 20
7251167.339541
 30
0.0
 40
2.0
210
0.0
220
0.0
230
1.0
  0
CIRCLE
  8
8
  6
CONTINUOUS
 62
     7
  5
59C
 10
950773.544802
 20
7251952.010165
 30
0.0
 40
2.0
210
0.0
220
0.0
230
1.0
  0
CIRCLE
  8
8
  6
CONTINUOUS
 62
     7
  5
59D
 10
950788.986825
 20
7251966.526866
 30
0.0
 40
2.0
210
0.0
220
0.0
230
1.0
  0
CIRCLE
  8
8
  6
CONTINUOUS
 62
     7
  5
59E
 10
950698.576706
 20
7251954.205175
 30
0.0
 40
2.0
210
0.0
220
0.0
230
1.0
  0
CIRCLE
  8
8
  6
CONTINUOUS
 62
     7
  5
59F
 10
950684.033843
 20
7251969.674042
 30
0.0
 40
2.0
210
0.0
220
0.0
230
1.0
  0
CIRCLE
  8
8
  6
CONTINUOUS
 62
     7
  5
5A0
 10
950340.763476
 20
7251979.962798
 30
0.0
 40
2.0
210
0.0
220
0.0
230
1.0
  0
CIRCLE
  8
8
  6
CONTINUOUS
 62
     7
  5
5A1
 10
950264.917645
 20
7251986.784964
 30
0.0
 40
2.0
210
0.0
220
0.0
230
1.0
  0
CIRCLE
  8
8
  6
CONTINUOUS
 62
     7
  5
5A2
 10
950248.581008
 20
7251972.294641
 30
0.0
 40
2.0
210
0.0
220
0.0
230
1.0
  0
CIRCLE
  8
8
  6
CONTINUOUS
 62
     7
  5
5A3
 10
950174.023339
 20
7251981.656241
 30
0.0
 40
2.0
210
0.0
220
0.0
230
1.0
  0
CIRCLE
  8
8
  6
CONTINUOUS
 62
     7
  5
5A4
 10
950160.375234
 20
7251997.071712
 30
0.0
 40
2.0
210
0.0
220
0.0
230
1.0
  0
CIRCLE
  8
8
  6
CONTINUOUS
 62
     7
  5
5A5
 10
949697.304591
 20
7252023.286812
 30
0.0
 40
2.0
210
0.0
220
0.0
230
1.0
  0
CIRCLE
  8
8
  6
CONTINUOUS
 62
     7
  5
5A6
 10
949712.746646
 20
7252037.804512
 30
0.0
 40
2.0
210
0.0
220
0.0
230
1.0
  0
CIRCLE
  8
8
  6
CONTINUOUS
 62
     7
  5
5A7
 10
950030.877647
 20
7251523.417379
 30
0.0
 40
2.0
210
0.0
220
0.0
230
1.0
  0
CIRCLE
  8
8
  6
CONTINUOUS
 62
     7
  5
5A8
 10
950105.039808
 20
7251494.333403
 30
0.0
 40
2.0
210
0.0
220
0.0
230
1.0
  0
CIRCLE
  8
8
  6
CONTINUOUS
 62
     7
  5
5A9
 10
950164.975362
 20
7251652.993878
 30
0.0
 40
2.0
210
0.0
220
0.0
230
1.0
  0
CIRCLE
  8
8
  6
CONTINUOUS
 62
     7
  5
5AA
 10
950245.051202
 20
7251847.772953
 30
0.0
 40
2.0
210
0.0
220
0.0
230
1.0
  0
TEXT
  8
11
  6
CONTINUOUS
 62
     7
  5
5AB
 10
948030.611
 20
7248753.887
 30
0.0
 40
8.0
  1
246.98'
 50
88.1831
  7
txt
 72
     4
 11
948027.356951
 21
7248777.466026
 31
0.0
210
0.0
220
0.0
230
1.0
  0
TEXT
  8
11
  6
CONTINUOUS
 62
     7
  5
5AC
 10
950769.174
 20
7251141.816
 30
0.0
 40
8.0
  1
35'
 50
88.1831
  7
txt
 72
     4
 11
950765.481589
 21
7251151.575977
 31
0.0
210
0.0
220
0.0
230
1.0
  0
TEXT
  8
11
  6
CONTINUOUS
 62
     7
  5
5AD
 10
950725.474
 20
7251073.003
 30
0.0
 40
8.0
  1
94.87'
 50
55.342761
  7
txt
 72
     4
 11
950733.377343
 21
7251091.469105
 31
0.0
210
0.0
220
0.0
230
1.0
  0
TEXT
  8
11
  6
CONTINUOUS
 62
     7
  5
5AE
 10
950647.182
 20
7251114.446
 30
0.0
 40
8.0
  1
106.06'
 50
55.342761
  7
txt
 72
     4
 11
950656.285227
 21
7251134.647725
 31
0.0
210
0.0
220
0.0
230
1.0
  0
TEXT
  8
11
  6
CONTINUOUS
 62
     7
  5
5AF
 10
950634.545
 20
7251014.299
 30
0.0
 40
8.0
  1
94.87'
 50
20.342761
  7
txt
 72
     4
 11
950651.610762
 21
7251024.892377
 31
0.0
210
0.0
220
0.0
230
1.0
  0
TEXT
  8
11
  6
CONTINUOUS
 62
     7
  5
5B0
 10
950099.526
 20
7251132.15
 30
0.0
 40
8.0
  1
R=75'
 50
317.933314
  7
txt
 72
     4
 11
950114.784622
 21
7251123.767065
 31
0.0
210
0.0
220
0.0
230
1.0
  0
TEXT
  8
11
  6
CONTINUOUS
 62
     7
  5
5B1
 10
950016.564
 20
7251138.198
 30
0.0
 40
8.0
  1
85.82'
 50
292.933314
  7
txt
 72
     4
 11
950027.906204
 21
7251121.65611
 31
0.0
210
0.0
220
0.0
230
1.0
  0
TEXT
  8
11
  6
CONTINUOUS
 62
     7
  5
5B2
 10
950106.748
 20
7251142.897
 30
0.0
 40
8.0
  1
106.06'
 50
317.933314
  7
txt
 72
     4
 11
950125.607095
 21
7251131.264589
 31
0.0
210
0.0
220
0.0
230
1.0
  0
TEXT
  8
11
  6
CONTINUOUS
 62
     7
  5
5B3
 10
950082.007
 20
7251048.597
 30
0.0
 40
8.0
  1
142.58'
 50
337.933314
  7
txt
 72
     4
 11
950104.291122
 21
7251043.879618
 31
0.0
210
0.0
220
0.0
230
1.0
  0
CIRCLE
  8
8
  6
CONTINUOUS
 62
     7
  5
5B4
 10
950109.988861
 20
7251703.9989
 30
0.0
 40
2.0
210
0.0
220
0.0
230
1.0
  0
TEXT
  8
19
  6
CONTINUOUS
 62
     1
  5
5B5
 10
951988.455
 20
7249847.511
 30
0.0
 40
24.0
  1
S ASH AVE (S. AVE. A)
 50
88.1831
  7
ROMANC
 72
     4
 11
951983.932071
 21
7250083.411
 31
0.0
210
0.0
220
0.0
230
1.0
  0
TEXT
  8
19
  6
CONTINUOUS
 62
     1
  5
5B6
 10
946724.559
 20
7249479.456
 30
0.0
 40
24.0
  1
S      AVE P
 50
88.1831
  7
ROMANC
 72
     4
 11
946717.238181
 21
7249627.154366
 31
0.0
210
0.0
220
0.0
230
1.0
  0
TEXT
  8
19
  6
CONTINUOUS
 62
     1
  5
5B7
 10
946651.753
 20
7247194.865
 30
0.0
 40
24.0
  1
S AVE P
 50
88.1831
  7
ROMANC
 72
     4
 11
946642.544938
 21
7247283.069291
 31
0.0
210
0.0
220
0.0
230
1.0
  0
TEXT
  8
19
  6
CONTINUOUS
 62
     1
  5
5B8
 10
946791.503
 20
7251745.812
 30
0.0
 40
24.0
  1
S AVE P
 50
88.1831
  7
ROMANC
 72
     4
 11
946782.294938
 21
7251834.016291
 31
0.0
210
0.0
220
0.0
230
1.0
  0
POLYLINE
  8
6
  6
CONTINUOUS
 62
     7
  5
5B9
 66
     1
 10
0.0
 20
0.0
 30
0.0
  0
VERTEX
  8
6
  6
CONTINUOUS
 62
     7
  5
5BA
 10
947690.768
 20
7252080.511
 30
0.0
  0
VERTEX
  8
6
  6
CONTINUOUS
 62
     7
  5
5BB
 10
947840.719
 20
7252075.878
 30
0.0
  0
VERTEX
  8
6
  6
CONTINUOUS
 62
     7
  5
5BC
 10
947841.226
 20
7252092.28
 30
0.0
  0
VERTEX
  8
6
  6
CONTINUOUS
 62
     7
  5
5BD
 10
948071.1
 20
7252084.962
 30
0.0
  0
SEQEND
  8
6
  6
CONTINUOUS
 62
     7
  5
5BE
  0
LINE
  8
6
  6
CONTINUOUS
 62
     7
  5
5BF
 10
947461.4
 20
7252104.092
 30
0.0
 11
947691.291
 21
7252096.989
 31
0.0
  0
TEXT
  8
22
  6
CONTINUOUS
 62
     3
  5
5C0
 10
947571.372
 20
7252080.335
 30
0.0
 40
6.0
  1
QCD
 50
358.1831
  7
txt
 72
     4
 11
947579.894878
 21
7252083.06615
 31
0.0
210
0.0
220
0.0
230
1.0
  0
TEXT
  8
22
  6
CONTINUOUS
 62
     3
  5
5C1
 10
947643.285
 20
7252079.808
 30
0.0
 40
6.0
  1
QCD
 50
358.1831
  7
txt
 72
     4
 11
947651.807878
 21
7252082.53915
 31
0.0
210
0.0
220
0.0
230
1.0
  0
TEXT
  8
11
  6
CONTINUOUS
 62
     7
  5
5C2
 10
947470.672
 20
7252025.389
 30
0.0
 40
8.0
  1
135'
 50
88.1831
  7
txt
 72
     4
 11
947467.061453
 21
7252037.729679
 31
0.0
210
0.0
220
0.0
230
1.0
  0
TEXT
  8
11
  6
CONTINUOUS
 62
     7
  5
5C3
 10
947687.864
 20
7252023.471
 30
0.0
 40
8.0
  1
135'
 50
88.1831
  7
txt
 72
     4
 11
947684.253453
 21
7252035.811679
 31
0.0
210
0.0
220
0.0
230
1.0
  0
LINE
  8
6
  6
CONTINUOUS
 62
     7
  5
5C4
 10
949517.188
 20
7246866.49
 30
0.0
 11
951896.401
 21
7246784.644
 31
0.0
  0
LINE
  8
6
  6
CONTINUOUS
 62
     7
  5
5C5
 10
951070.07
 20
7251997.641
 30
0.0
 11
952029.133
 21
7251969.414
 31
0.0
  0
LINE
  8
6
  6
CONTINUOUS
 62
     7
  5
5C6
 10
952029.133
 20
7251969.414
 30
0.0
 11
951958.275
 21
7249792.355
 31
0.0
  0
LINE
  8
6
  6
CONTINUOUS
 62
     7
  5
5C7
 10
951958.275
 20
7249792.355
 30
0.0
 11
951994.273
 21
7249791.707
 31
0.0
  0
TEXT
  8
22
  6
CONTINUOUS
 62
     3
  5
5C8
 10
947721.865
 20
7252096.621
 30
0.0
 40
6.0
  1
75'
 50
358.1831
  7
ROMANS
 72
     4
 11
947728.956597
 21
7252099.397553
 31
0.0
210
0.0
220
0.0
230
1.0
  0
TEXT
  8
22
  6
CONTINUOUS
 62
     3
  5
5C9
 10
947774.93
 20
7252066.443
 30
0.0
 40
6.0
  1
16.47'
 50
88.1831
  7
ROMANS
 72
     4
 11
947772.438797
 21
7252082.530073
 31
0.0
210
0.0
220
0.0
230
1.0
  0
POLYLINE
  8
58
  6
DIVIDE
 62
   216
  5
5CB
 66
     1
 10
0.0
 20
0.0
 30
0.0
  0
VERTEX
  8
58
  6
DIVIDE
 62
   216
  5
5CC
 10
946760.856
 20
7246893.894
 30
0.0
  0
VERTEX
  8
58
  6
DIVIDE
 62
   216
  5
5CD
 10
946923.505
 20
7252021.313
 30
0.0
  0
VERTEX
  8
58
  6
DIVIDE
 62
   216
  5
5CE
 10
949690.451
 20
7251933.542
 30
0.0
  0
VERTEX
  8
58
  6
DIVIDE
 62
   216
  5
5CF
 10
949660.195
 20
7251370.218
 30
0.0
  0
VERTEX
  8
58
  6
DIVIDE
 62
   216
  5
5D0
 10
950229.029
 20
7251352.811
 30
0.0
  0
VERTEX
  8
58
  6
DIVIDE
 62
   216
  5
5D1
 10
950246.891
 20
7251915.893
 30
0.0
  0
VERTEX
  8
58
  6
DIVIDE
 62
   216
  5
5D2
 10
952050.926
 20
7251858.666
 30
0.0
  0
SEQEND
  8
58
  6
DIVIDE
 62
   216
  5
5D3
  0
TEXT
  8
13
  6
CONTINUOUS
 62
    14
  5
5D4
 10
947485.937
 20
7252076.708
 30
0.0
 40
8.0
  1
V7015
 50
358.1831
  7
txt
 72
     4
 11
947503.691955
 21
7252080.146798
 31
0.0
210
0.0
220
0.0
230
1.0
  0
TEXT
  8
13
  6
CONTINUOUS
 62
    14
  5
5D5
 10
947488.673
 20
7252062.615
 30
0.0
 40
8.0
  1
P290
 50
358.1831
  7
txt
 72
     4
 11
947503.248555
 21
7252066.154653
 31
0.0
210
0.0
220
0.0
230
1.0
  0
TEXT
  8
13
  6
CONTINUOUS
 62
    14
  5
5D6
 10
947497.42
 20
7252048.33
 30
0.0
 40
8.0
  1
T1
 50
358.1831
  7
txt
 72
     4
 11
947502.804178
 21
7252052.161218
 31
0.0
210
0.0
220
0.0
230
1.0
  0
TEXT
  8
22
  6
CONTINUOUS
 62
     3
  5
5D7
 10
947493.755
 20
7252085.428
 30
0.0
 40
6.0
  1
QCD
 50
358.1831
  7
txt
 72
     4
 11
947502.277878
 21
7252088.15915
 31
0.0
210
0.0
220
0.0
230
1.0
  0
TEXT
  8
13
  6
CONTINUOUS
 62
    14
  5
5D8
 10
947560.817
 20
7252071.366
 30
0.0
 40
8.0
  1
V7015
 50
358.1831
  7
txt
 72
     4
 11
947578.571955
 21
7252074.804798
 31
0.0
210
0.0
220
0.0
230
1.0
  0
TEXT
  8
13
  6
CONTINUOUS
 62
    14
  5
5D9
 10
947563.552
 20
7252057.273
 30
0.0
 40
8.0
  1
P290
 50
358.1831
  7
txt
 72
     4
 11
947578.127555
 21
7252060.812653
 31
0.0
210
0.0
220
0.0
230
1.0
  0
TEXT
  8
13
  6
CONTINUOUS
 62
    14
  5
5DA
 10
947570.884
 20
7252043.034
 30
0.0
 40
8.0
  1
T2
 50
358.1831
  7
txt
 72
     4
 11
947577.684465
 21
7252046.820291
 31
0.0
210
0.0
220
0.0
230
1.0
  0
TEXT
  8
13
  6
CONTINUOUS
 62
    14
  5
5DB
 10
947633.795
 20
7252070.801
 30
0.0
 40
8.0
  1
V7015
 50
358.1831
  7
txt
 72
     4
 11
947651.549955
 21
7252074.239798
 31
0.0
210
0.0
220
0.0
230
1.0
  0
TEXT
  8
13
  6
CONTINUOUS
 62
    14
  5
5DC
 10
947636.53
 20
7252056.707
 30
0.0
 40
8.0
  1
P290
 50
358.1831
  7
txt
 72
     4
 11
947651.105555
 21
7252060.246653
 31
0.0
210
0.0
220
0.0
230
1.0
  0
TEXT
  8
13
  6
CONTINUOUS
 62
    14
  5
5DD
 10
947643.862
 20
7252042.467
 30
0.0
 40
8.0
  1
T3
 50
358.1831
  7
txt
 72
     4
 11
947650.662465
 21
7252046.253291
 31
0.0
210
0.0
220
0.0
230
1.0
  0
ENDSEC
  0
EOF
