  0
SECTION
  2
HEADER
  9
$ACADVER
  1
AC1009
  9
$INSBASE
 10
0.0
 20
0.0
 30
0.0
  9
$EXTMIN
 10
962939.073
 20
7262069.287
 30
0.0
  9
$EXTMAX
 10
968357.918
 20
7267527.707
 30
0.0
  9
$LIMMIN
 10
0.0
 20
0.0
  9
$LIMMAX
 10
12.0
 20
9.0
  9
$ORTHOMODE
 70
     0
  9
$REGENMODE
 70
     1
  9
$FILLMODE
 70
     1
  9
$QTEXTMODE
 70
     0
  9
$MIRRTEXT
 70
     1
  9
$DRAGMODE
 70
     2
  9
$LTSCALE
 40
1.0
  9
$OSMODE
 70
     0
  9
$ATTMODE
 70
     1
  9
$TEXTSIZE
 40
0.2
  9
$TRACEWID
 40
0.05
  9
$TEXTSTYLE
  7
STANDARD
  9
$CLAYER
  8
0
  9
$CELTYPE
  6
CONTINUOUS
  9
$CECOLOR
 62
   256
  9
$DIMSCALE
 40
1.0
  9
$DIMASZ
 40
0.18
  9
$DIMEXO
 40
0.0625
  9
$DIMDLI
 40
0.38
  9
$DIMRND
 40
0.0
  9
$DIMDLE
 40
0.0
  9
$DIMEXE
 40
0.18
  9
$DIMTP
 40
0.0
  9
$DIMTM
 40
0.0
  9
$DIMTXT
 40
0.18
  9
$DIMCEN
 40
0.09
  9
$DIMTSZ
 40
0.0
  9
$DIMTOL
 70
     0
  9
$DIMLIM
 70
     0
  9
$DIMTIH
 70
     1
  9
$DIMTOH
 70
     1
  9
$DIMSE1
 70
     0
  9
$DIMSE2
 70
     0
  9
$DIMTAD
 70
     0
  9
$DIMZIN
 70
     0
  9
$DIMBLK
  1

  9
$DIMASO
 70
     1
  9
$DIMSHO
 70
     1
  9
$DIMPOST
  1

  9
$DIMAPOST
  1

  9
$DIMALT
 70
     0
  9
$DIMALTD
 70
     2
  9
$DIMALTF
 40
25.4
  9
$DIMLFAC
 40
1.0
  9
$DIMTOFL
 70
     0
  9
$DIMTVP
 40
0.0
  9
$DIMTIX
 70
     0
  9
$DIMSOXD
 70
     0
  9
$DIMSAH
 70
     0
  9
$DIMBLK1
  1

  9
$DIMBLK2
  1

  9
$DIMSTYLE
  2
STANDARD
  9
$DIMCLRD
 70
     0
  9
$DIMCLRE
 70
     0
  9
$DIMCLRT
 70
     0
  9
$DIMTFAC
 40
1.0
  9
$DIMGAP
 40
0.09
  9
$LUNITS
 70
     2
  9
$LUPREC
 70
     4
  9
$AXISMODE
 70
     0
  9
$AXISUNIT
 10
0.0
 20
0.0
  9
$SKETCHINC
 40
0.1
  9
$FILLETRAD
 40
0.0
  9
$AUNITS
 70
     0
  9
$AUPREC
 70
     0
  9
$MENU
  1
acad
  9
$ELEVATION
 40
0.0
  9
$PELEVATION
 40
0.0
  9
$THICKNESS
 40
0.0
  9
$LIMCHECK
 70
     0
  9
$BLIPMODE
 70
     1
  9
$CHAMFERA
 40
0.0
  9
$CHAMFERB
 40
0.0
  9
$SKPOLY
 70
     0
  9
$TDCREATE
 40
2453013.902175926
  9
$TDUPDATE
 40
2453013.902175926
  9
$TDINDWG
 40
0.0000000000
  9
$TDUSRTIMER
 40
0.0000000000
  9
$USRTIMER
 70
     1
  9
$ANGBASE
 50
0.0
  9
$ANGDIR
 70
     0
  9
$PDMODE
 70
     0
  9
$PDSIZE
 40
0.0
  9
$PLINEWID
 40
0.0
  9
$COORDS
 70
     0
  9
$SPLFRAME
 70
     0
  9
$SPLINETYPE
 70
     6
  9
$SPLINESEGS
 70
    10
  9
$ATTDIA
 70
     0
  9
$ATTREQ
 70
     1
  9
$HANDLING
 70
     1
  9
$HANDSEED
  5
D1
  9
$SURFTAB1
 70
     6
  9
$SURFTAB2
 70
     6
  9
$SURFTYPE
 70
     6
  9
$SURFU
 70
     6
  9
$SURFV
 70
     6
  9
$UCSNAME
  2

  9
$UCSORG
 10
0.0
 20
0.0
 30
0.0
  9
$UCSXDIR
 10
1.0
 20
0.0
 30
0.0
  9
$UCSYDIR
 10
0.0
 20
1.0
 30
0.0
  9
$PUCSNAME
  2

  9
$PUCSORG
 10
0.0
 20
0.0
 30
0.0
  9
$PUCSXDIR
 10
1.0
 20
0.0
 30
0.0
  9
$PUCSYDIR
 10
0.0
 20
1.0
 30
0.0
  9
$USERI1
 70
     0
  9
$USERI2
 70
     0
  9
$USERI3
 70
     0
  9
$USERI4
 70
     0
  9
$USERI5
 70
     0
  9
$USERR1
 40
0.0
  9
$USERR2
 40
0.0
  9
$USERR3
 40
0.0
  9
$USERR4
 40
0.0
  9
$USERR5
 40
0.0
  9
$WORLDVIEW
 70
     1
  9
$SHADEDGE
 70
     3
  9
$SHADEDIF
 70
    70
  9
$TILEMODE
 70
     1
  9
$MAXACTVP
 70
    16
  9
$PINSBASE
 10
0.0
 20
0.0
 30
0.0
  9
$PLIMCHECK
 70
     0
  9
$PEXTMIN
 10
-1.000000E+20
 20
-1.000000E+20
 30
-1.000000E+20
  9
$PEXTMAX
 10
-1.000000E+20
 20
-1.000000E+20
 30
-1.000000E+20
  9
$PLIMMIN
 10
0.0
 20
0.0
  9
$PLIMMAX
 10
12.0
 20
9.0
  9
$UNITMODE
 70
     0
  9
$VISRETAIN
 70
     0
  9
$PLINEGEN
 70
     1
  9
$PSLTSCALE
 70
     0
  9
$TREEDEPTH
 70
  3020
  9
$DWGCODEPAGE
  3
ansi_1252
  0
ENDSEC
  0
SECTION
  2
TABLES
  0
TABLE
  2
VPORT
 70
     1
  0
VPORT
  2
*ACTIVE
 70
     0
 10
0.0
 20
0.0
 11
1.0
 21
1.0
 12
0.0
 22
0.0
 13
0.0
 23
0.0
 14
0.0
 24
0.0
 15
0.0
 25
0.0
 16
0.0
 26
0.0
 36
1.0
 17
965652.121019
 27
7264912.760111
 37
0.0
 40
5996.843243
 41
1.503125
 42
50.0
 43
0.004
 44
0.0
 50
1.817236
 51
0.0
 71
     0
 72
   100
 73
     1
 74
     0
 75
     0
 76
     0
 77
     0
 78
     0
  0
ENDTAB
  0
TABLE
  2
LTYPE
 70
     7
  0
LTYPE
  2
CONTINUOUS
 70
     0
  3
Solid line
 72
    65
 73
     0
 40
0.0
  0
LTYPE
  2
DOT
 70
    64
  3
. . . . . . . . . . . . . . . . . . . . . . . . . . . . . . . . .
 72
    65
 73
     2
 40
0.25
 49
0.0
 49
-0.25
  0
LTYPE
  2
HIDDEN
 70
    64
  3
__ __ __ __ __ __ __ __ __ __ __ __ __ __ __ __ __ __ __ __ __ 
 72
    65
 73
     2
 40
0.375
 49
0.25
 49
-0.125
  0
LTYPE
  2
DASHED
 70
    64
  3
__ __ __ __ __ __ __ __ __ __ __ __ __ __ __ __ __ __ __ __ __
 72
    65
 73
     2
 40
0.75
 49
0.5
 49
-0.25
  0
LTYPE
  2
DASHDOT
 70
    64
  3
__ . __ . __ . __ . __ . __ . __ . __ . __ . __ . __ . __ . _
 72
    65
 73
     4
 40
1.0
 49
0.5
 49
-0.25
 49
0.0
 49
-0.25
  0
LTYPE
  2
DIVIDE
 70
    64
  3
____ . . ____ . . ____ . . ____ . . ____ . . ____ . . ____ . .
 72
    65
 73
     6
 40
1.25
 49
0.5
 49
-0.25
 49
0.0
 49
-0.25
 49
0.0
 49
-0.25
  0
LTYPE
  2
CENTER
 70
    64
  3
____ _ ____ _ ____ _ ____ _ ____ _ ____ _ ____ _ ____ _ ____ _
 72
    65
 73
     4
 40
2.0
 49
1.25
 49
-0.25
 49
0.25
 49
-0.25
  0
ENDTAB
  0
TABLE
  2
LAYER
 70
    12
  0
LAYER
  2
0
 70
     0
 62
     7
  6
CONTINUOUS
  0
LAYER
  2
CONSTRUCTION_CLASS
 70
     1
 62
     7
  6
CONTINUOUS
  0
LAYER
  2
PATTERN_CLASS
 70
     0
 62
     7
  6
CONTINUOUS
  0
LAYER
  2
6
 70
    64
 62
     7
  6
CONTINUOUS
  0
LAYER
  2
11
 70
    64
 62
     7
  6
CONTINUOUS
  0
LAYER
  2
1
 70
    64
 62
     7
  6
CONTINUOUS
  0
LAYER
  2
22
 70
    64
 62
     7
  6
CONTINUOUS
  0
LAYER
  2
15
 70
    64
 62
     7
  6
CONTINUOUS
  0
LAYER
  2
19
 70
    64
 62
     7
  6
CONTINUOUS
  0
LAYER
  2
21
 70
    64
 62
     7
  6
CONTINUOUS
  0
LAYER
  2
13
 70
    64
 62
     7
  6
CONTINUOUS
  0
LAYER
  2
10
 70
    64
 62
     7
  6
CONTINUOUS
  0
ENDTAB
  0
TABLE
  2
STYLE
 70
     4
  0
STYLE
  2
STANDARD
 70
     0
 40
0.0
 41
1.0
 50
0.0
 71
     0
 42
0.0
  3
txt
  4

  0
STYLE
  2
ROMANS
 70
     0
 40
0.2
 41
1.0
 50
0.0
 71
     0
 42
0.2
  3
ROMANS
  4

  0
STYLE
  2
ROMANC
 70
     0
 40
0.2
 41
1.0
 50
0.0
 71
     0
 42
0.2
  3
ROMANC
  4

  0
STYLE
  2
txt
 70
     0
 40
0.2
 41
1.0
 50
0.0
 71
     0
 42
0.2
  3
TXT
  4

  0
ENDTAB
  0
TABLE
  2
VIEW
 70
     0
  0
ENDTAB
  0
TABLE
  2
UCS
 70
     0
  0
ENDTAB
  0
TABLE
  2
APPID
 70
     1
  0
APPID
  2
ACAD
 70
     0
  0
ENDTAB
  0
TABLE
  2
DIMSTYLE
 70
     1
  0
DIMSTYLE
  2
STANDARD
 70
     0
  3

  4

  5

  6

  7

 40
1.0
 41
0.18
 42
0.0625
 43
0.38
 44
0.18
 45
0.0
 46
0.0
 47
0.0
 48
0.0
140
0.18
141
0.09
142
0.0
143
25.4
144
1.0
145
0.0
146
1.0
147
0.09
 71
     0
 72
     0
 73
     1
 74
     1
 75
     0
 76
     0
 77
     0
 78
     0
170
     0
171
     2
172
     0
173
     0
174
     0
175
     0
176
     0
177
     0
178
     0
  0
ENDTAB
  0
ENDSEC
  0
SECTION
  2
BLOCKS
  0
ENDSEC
  0
SECTION
  2
ENTITIES
  0
LINE
  8
6
  6
CONTINUOUS
 62
     7
  5
29
 10
967321.1
 20
7262187.208
 30
0.0
 11
967320.791
 21
7262177.212
 31
0.0
  0
LINE
  8
6
  6
CONTINUOUS
 62
     7
  5
2A
 10
967320.791
 20
7262177.212
 30
0.0
 11
968061.94
 21
7262154.352
 31
0.0
  0
LINE
  8
6
  6
CONTINUOUS
 62
     7
  5
2B
 10
968061.94
 20
7262154.352
 30
0.0
 11
968062.248
 21
7262164.348
 31
0.0
  0
LINE
  8
6
  6
CONTINUOUS
 62
     7
  5
2C
 10
968062.248
 20
7262164.348
 30
0.0
 11
968224.171
 21
7262159.353
 31
0.0
  0
LINE
  8
6
  6
CONTINUOUS
 62
     7
  5
2D
 10
968224.171
 20
7262159.353
 30
0.0
 11
968223.729
 21
7262145.016
 31
0.0
  0
TEXT
  8
11
  6
CONTINUOUS
 62
     7
  5
30
 10
967174.568
 20
7267383.095
 30
0.0
 40
8.0
  1
300'
 50
358.2333
  7
ROMANS
 72
     4
 11
967188.017982
 21
7267386.682044
 31
0.0
210
0.0
220
0.0
230
1.0
  0
TEXT
  8
11
  6
CONTINUOUS
 62
     7
  5
31
 10
967126.728
 20
7265545.329
 30
0.0
 40
8.0
  1
300'
 50
358.2333
  7
ROMANS
 72
     4
 11
967140.177982
 21
7265548.916044
 31
0.0
210
0.0
220
0.0
230
1.0
  0
TEXT
  8
11
  6
CONTINUOUS
 62
     7
  5
32
 10
967013.026
 20
7266506.13
 30
0.0
 40
8.0
  1
2003.2'
 50
88.2333
  7
ROMANS
 72
     4
 11
967009.808914
 21
7266531.574277
 31
0.0
210
0.0
220
0.0
230
1.0
  0
TEXT
  8
11
  6
CONTINUOUS
 62
     7
  5
33
 10
967070.461
 20
7263114.664
 30
0.0
 40
8.0
  1
506.1'
 50
88.2333
  7
ROMANS
 72
     4
 11
967067.120595
 21
7263136.110179
 31
0.0
210
0.0
220
0.0
230
1.0
  0
TEXT
  8
11
  6
CONTINUOUS
 62
     7
  5
34
 10
968136.949
 20
7262164.453
 30
0.0
 40
8.0
  1
162'
 50
358.2333
  7
ROMANS
 72
     4
 11
968150.398982
 21
7262168.040044
 31
0.0
210
0.0
220
0.0
230
1.0
  0
TEXT
  8
11
  6
CONTINUOUS
 62
     7
  5
35
 10
968044.247
 20
7262158.312
 30
0.0
 40
8.0
  1
10'
 50
358.2333
  7
ROMANS
 72
     4
 11
968053.698883
 21
7262162.022364
 31
0.0
210
0.0
220
0.0
230
1.0
  0
TEXT
  8
11
  6
CONTINUOUS
 62
     7
  5
36
 10
967327.152
 20
7262181.049
 30
0.0
 40
8.0
  1
10'
 50
358.2333
  7
ROMANS
 72
     4
 11
967336.603883
 21
7262184.759364
 31
0.0
210
0.0
220
0.0
230
1.0
  0
TEXT
  8
11
  6
CONTINUOUS
 62
     7
  5
37
 10
967664.181
 20
7262181.642
 30
0.0
 40
8.0
  1
741.5'
 50
358.2333
  7
ROMANS
 72
     4
 11
967685.627179
 21
7262184.982405
 31
0.0
210
0.0
220
0.0
230
1.0
  0
TEXT
  8
11
  6
CONTINUOUS
 62
     7
  5
38
 10
967449.259
 20
7262103.363
 30
0.0
 40
8.0
  1
90'
 50
88.2333
  7
ROMANS
 72
     4
 11
967445.548636
 21
7262112.814883
 31
0.0
210
0.0
220
0.0
230
1.0
  0
TEXT
  8
11
  6
CONTINUOUS
 62
     7
  5
39
 10
966436.228
 20
7262138.337
 30
0.0
 40
8.0
  1
110'
 50
88.2333
  7
ROMANS
 72
     4
 11
966432.640956
 21
7262151.786982
 31
0.0
210
0.0
220
0.0
230
1.0
  0
TEXT
  8
11
  6
CONTINUOUS
 62
     7
  5
3A
 10
962996.518
 20
7262265.374
 30
0.0
 40
8.0
  1
90'
 50
88.2333
  7
ROMANS
 72
     4
 11
962992.807636
 21
7262274.825883
 31
0.0
210
0.0
220
0.0
230
1.0
  0
POLYLINE
  8
1
  6
HIDDEN
 62
   253
  5
3C
 66
     1
 10
0.0
 20
0.0
 30
0.0
 70
     1
  0
VERTEX
  8
1
  6
HIDDEN
 62
   253
  5
3D
 10
963081.688
 20
7267527.707
 30
0.0
  0
VERTEX
  8
1
  6
HIDDEN
 62
   253
  5
3E
 10
968357.918
 20
7267360.306
 30
0.0
  0
VERTEX
  8
1
  6
HIDDEN
 62
   253
  5
3F
 10
968215.469
 20
7262069.287
 30
0.0
  0
VERTEX
  8
1
  6
HIDDEN
 62
   253
  5
40
 10
962939.073
 20
7262236.746
 30
0.0
  0
SEQEND
  8
1
  6
HIDDEN
 62
   253
  5
41
  0
TEXT
  8
11
  6
CONTINUOUS
 62
     7
  5
42
 10
963746.171
 20
7263280.483
 30
0.0
 40
8.0
  1
1512.86'
 50
358.2333
  7
ROMANS
 72
     4
 11
963775.613376
 21
7263283.576767
 31
0.0
210
0.0
220
0.0
230
1.0
  0
TEXT
  8
11
  6
CONTINUOUS
 62
     7
  5
43
 10
963743.817
 20
7263361.477
 30
0.0
 40
8.0
  1
1512.84'
 50
358.2333
  7
ROMANS
 72
     4
 11
963773.259376
 21
7263364.570767
 31
0.0
210
0.0
220
0.0
230
1.0
  0
TEXT
  8
11
  6
CONTINUOUS
 62
     7
  5
44
 10
966445.988
 20
7262200.24
 30
0.0
 40
8.0
  1
10.05'
 50
358.2333
  7
ROMANS
 72
     4
 11
966467.434179
 21
7262203.580405
 31
0.0
210
0.0
220
0.0
230
1.0
  0
TEXT
  8
11
  6
CONTINUOUS
 62
     7
  5
45
 10
966740.988
 20
7263033.341
 30
0.0
 40
8.0
  1
509.38'
 50
88.2333
  7
ROMANS
 72
     1
 11
966741.769012
 21
7263058.661958
 31
0.0
210
0.0
220
0.0
230
1.0
  0
TEXT
  8
11
  6
CONTINUOUS
 62
     7
  5
46
 10
966753.118
 20
7263426.617
 30
0.0
 40
8.0
  1
369.03'
 50
88.2333
  7
ROMANS
 72
     1
 11
966753.899012
 21
7263451.937958
 31
0.0
210
0.0
220
0.0
230
1.0
  0
TEXT
  8
11
  6
CONTINUOUS
 62
     7
  5
47
 10
966448.923
 20
7263844.317
 30
0.0
 40
8.0
  1
694.18'
 50
333.698317
  7
ROMANS
 72
     1
 11
966471.633361
 21
7263833.09201
 31
0.0
210
0.0
220
0.0
230
1.0
  0
TEXT
  8
11
  6
CONTINUOUS
 62
     7
  5
48
 10
964082.457
 20
7264752.702
 30
0.0
 40
8.0
  1
2177.78'
 50
358.2333
  7
ROMANS
 72
     4
 11
964111.899376
 21
7264755.795767
 31
0.0
210
0.0
220
0.0
230
1.0
  0
TEXT
  8
11
  6
CONTINUOUS
 62
     7
  5
49
 10
963747.92
 20
7264729.74
 30
0.0
 40
8.0
  1
1512.34'
 50
358.2333
  7
ROMANS
 72
     4
 11
963777.362376
 21
7264732.833767
 31
0.0
210
0.0
220
0.0
230
1.0
  0
TEXT
  8
11
  6
CONTINUOUS
 62
     7
  5
4A
 10
965821.51
 20
7264118.8
 30
0.0
 40
8.0
  1
658.94'
 50
339.581019
  7
ROMANS
 72
     1
 11
965845.251238
 21
7264109.961759
 31
0.0
210
0.0
220
0.0
230
1.0
  0
TEXT
  8
11
  6
CONTINUOUS
 62
     7
  5
4B
 10
965359.597
 20
7264495.157
 30
0.0
 40
8.0
  1
567.13'
 50
301.085511
  7
ROMANS
 72
     1
 11
965372.676853
 21
7264473.461878
 31
0.0
210
0.0
220
0.0
230
1.0
  0
TEXT
  8
11
  6
CONTINUOUS
 62
     7
  5
4C
 10
963083.197
 20
7263337.334
 30
0.0
 40
8.0
  1
50'
 50
88.2333
  7
ROMANS
 72
     4
 11
963079.486636
 21
7263346.785883
 31
0.0
210
0.0
220
0.0
230
1.0
  0
TEXT
  8
11
  6
CONTINUOUS
 62
     7
  5
4D
 10
964539.288
 20
7263284.609
 30
0.0
 40
8.0
  1
50'
 50
88.2333
  7
ROMANS
 72
     4
 11
964535.577636
 21
7263294.060883
 31
0.0
210
0.0
220
0.0
230
1.0
  0
TEXT
  8
22
  6
CONTINUOUS
 62
     3
  5
4F
 10
963023.494
 20
7262418.54
 30
0.0
 40
8.0
  1
25' UTILITY CORRIDOR
 50
88.2333
  7
ROMANS
 72
     4
 11
963021.916661
 21
7262497.145995
 31
0.0
210
0.0
220
0.0
230
1.0
  0
TEXT
  8
22
  6
CONTINUOUS
 62
     3
  5
50
 10
963043.53
 20
7263147.996
 30
0.0
 40
8.0
  1
25' UTILITY CORRIDOR
 50
88.2333
  7
ROMANS
 72
     4
 11
963041.952661
 21
7263226.601995
 31
0.0
210
0.0
220
0.0
230
1.0
  0
TEXT
  8
22
  6
CONTINUOUS
 62
     3
  5
51
 10
963069.696
 20
7263810.971
 30
0.0
 40
8.0
  1
25' UTILITY CORRIDOR
 50
88.2333
  7
ROMANS
 72
     4
 11
963068.118661
 21
7263889.576995
 31
0.0
210
0.0
220
0.0
230
1.0
  0
TEXT
  8
22
  6
CONTINUOUS
 62
     3
  5
52
 10
963089.708
 20
7264570.044
 30
0.0
 40
8.0
  1
25' UTILITY CORRIDOR
 50
88.2333
  7
ROMANS
 72
     4
 11
963088.130661
 21
7264648.649995
 31
0.0
210
0.0
220
0.0
230
1.0
  0
TEXT
  8
22
  6
CONTINUOUS
 62
     3
  5
53
 10
964624.504
 20
7264497.781
 30
0.0
 40
8.0
  1
25' UTILITY CORRIDOR
 50
88.2333
  7
ROMANS
 72
     4
 11
964622.926661
 21
7264576.386995
 31
0.0
210
0.0
220
0.0
230
1.0
  0
TEXT
  8
22
  6
CONTINUOUS
 62
     3
  5
54
 10
964589.458
 20
7263338.803
 30
0.0
 40
8.0
  1
25' UTILITY CORRIDOR
 50
88.2333
  7
ROMANS
 72
     4
 11
964587.880661
 21
7263417.408995
 31
0.0
210
0.0
220
0.0
230
1.0
  0
TEXT
  8
22
  6
CONTINUOUS
 62
     3
  5
55
 10
964556.635
 20
7262320.314
 30
0.0
 40
8.0
  1
25' UTILITY CORRIDOR
 50
88.2333
  7
ROMANS
 72
     4
 11
964555.057661
 21
7262398.919995
 31
0.0
210
0.0
220
0.0
230
1.0
  0
TEXT
  8
22
  6
CONTINUOUS
 62
     3
  5
56
 10
963705.637
 20
7263321.522
 30
0.0
 40
8.0
  1
50' UTILITY CORRIDOR
 50
358.2333
  7
ROMANS
 72
     4
 11
963784.242995
 21
7263323.099339
 31
0.0
210
0.0
220
0.0
230
1.0
  0
TEXT
  8
22
  6
CONTINUOUS
 62
     3
  5
57
 10
963178.193
 20
7264741.087
 30
0.0
 40
8.0
  1
20' OVERHEAD ELECTRICAL EASEMENT-LPL
 50
358.2333
  7
ROMANS
 72
     4
 11
963320.581661
 21
7264740.696994
 31
0.0
210
0.0
220
0.0
230
1.0
  0
TEXT
  8
22
  6
CONTINUOUS
 62
     3
  5
58
 10
964817.93
 20
7264701.844
 30
0.0
 40
8.0
  1
20' OVERHEAD ELECTRICAL EASEMENT-LPL
 50
358.2333
  7
ROMANS
 72
     4
 11
964960.318661
 21
7264701.453994
 31
0.0
210
0.0
220
0.0
230
1.0
  0
TEXT
  8
15
  6
CONTINUOUS
 62
    30
  5
5B
 10
964130.826
 20
7263738.205
 30
0.0
 40
50.0
  1
PLAINS      CO-OP
 50
28.2333
  7
ROMANC
 72
     4
 11
964492.893013
 21
7263960.990567
 31
0.0
210
0.0
220
0.0
230
1.0
  0
TEXT
  8
15
  6
CONTINUOUS
 62
    30
  5
5C
 10
964525.516
 20
7263865.005
 30
0.0
 40
50.0
  1
 
 50
28.2333
  7
ROMANC
 72
     4
 11
964528.372651
 21
7263894.914783
 31
0.0
210
0.0
220
0.0
230
1.0
  0
TEXT
  8
15
  6
CONTINUOUS
 62
    30
  5
5D
 10
964560.996
 20
7263798.928
 30
0.0
 40
50.0
  1
 
 50
28.2333
  7
ROMANC
 72
     4
 11
964563.852651
 21
7263828.837783
 31
0.0
210
0.0
220
0.0
230
1.0
  0
TEXT
  8
15
  6
CONTINUOUS
 62
    30
  5
5E
 10
964596.476
 20
7263732.851
 30
0.0
 40
50.0
  1
 
 50
28.2333
  7
ROMANC
 72
     4
 11
964599.332651
 21
7263762.760783
 31
0.0
210
0.0
220
0.0
230
1.0
  0
TEXT
  8
15
  6
CONTINUOUS
 62
    30
  5
5F
 10
964631.955
 20
7263666.773
 30
0.0
 40
50.0
  1
 
 50
28.2333
  7
ROMANC
 72
     4
 11
964634.811651
 21
7263696.682783
 31
0.0
210
0.0
220
0.0
230
1.0
  0
TEXT
  8
15
  6
CONTINUOUS
 62
    30
  5
60
 10
964667.435
 20
7263600.696
 30
0.0
 40
50.0
  1
 
 50
28.2333
  7
ROMANC
 72
     4
 11
964670.291651
 21
7263630.605783
 31
0.0
210
0.0
220
0.0
230
1.0
  0
TEXT
  8
15
  6
CONTINUOUS
 62
    30
  5
61
 10
964702.915
 20
7263534.619
 30
0.0
 40
50.0
  1
 
 50
28.2333
  7
ROMANC
 72
     4
 11
964705.771651
 21
7263564.528783
 31
0.0
210
0.0
220
0.0
230
1.0
  0
TEXT
  8
15
  6
CONTINUOUS
 62
    30
  5
62
 10
964517.745
 20
7263350.065
 30
0.0
 40
50.0
  1
OIL    MILL
 50
28.2333
  7
ROMANC
 72
     4
 11
964741.250874
 21
7263498.451019
 31
0.0
210
0.0
220
0.0
230
1.0
  0
TEXT
  8
11
  6
CONTINUOUS
 62
     7
  5
63
 10
964602.167
 20
7262262.186
 30
0.0
 40
8.0
  1
3462.88'
 50
358.2333
  7
ROMANS
 72
     4
 11
964631.609376
 21
7262265.279767
 31
0.0
210
0.0
220
0.0
230
1.0
  0
TEXT
  8
19
  6
CONTINUOUS
 62
     1
  5
65
 10
963090.69
 20
7266140.706
 30
0.0
 40
24.0
  1
GUAVA   AVE
 50
88.2333
  7
ROMANC
 72
     4
 11
963083.379621
 21
7266292.931739
 31
0.0
210
0.0
220
0.0
230
1.0
  0
TEXT
  8
19
  6
CONTINUOUS
 62
     1
  5
66
 10
963031.279
 20
7263463.219
 30
0.0
 40
24.0
  1
GUAVA   AVE
 50
88.2333
  7
ROMANC
 72
     4
 11
963023.968621
 21
7263615.444739
 31
0.0
210
0.0
220
0.0
230
1.0
  0
TEXT
  8
19
  6
CONTINUOUS
 62
     1
  5
67
 10
967184.133
 20
7266876.452
 30
0.0
 40
24.0
  1
E LOOP 289
 50
88.2333
  7
ROMANC
 72
     4
 11
967175.957536
 21
7267000.631077
 31
0.0
210
0.0
220
0.0
230
1.0
  0
TEXT
  8
19
  6
CONTINUOUS
 62
     1
  5
68
 10
967057.659
 20
7264636.107
 30
0.0
 40
24.0
  1
E LOOP 289
 50
88.2333
  7
ROMANC
 72
     4
 11
967049.483536
 21
7264760.286077
 31
0.0
210
0.0
220
0.0
230
1.0
  0
TEXT
  8
19
  6
CONTINUOUS
 62
     1
  5
69
 10
966892.923
 20
7262726.753
 30
0.0
 40
24.0
  1
E LOOP 289
 50
88.2333
  7
ROMANC
 72
     4
 11
966884.747536
 21
7262850.932077
 31
0.0
210
0.0
220
0.0
230
1.0
  0
TEXT
  8
19
  6
CONTINUOUS
 62
     1
  5
6A
 10
965164.494
 20
7262199.891
 30
0.0
 40
24.0
  1
FARM RD 835
 50
358.2333
  7
ROMANC
 72
     4
 11
965310.395746
 21
7262207.396439
 31
0.0
210
0.0
220
0.0
230
1.0
  0
TEXT
  8
11
  6
CONTINUOUS
 62
     7
  5
6B
 10
966689.825
 20
7262574.064
 30
0.0
 40
8.0
  1
439.2'
 50
80.433344
  7
ROMANS
 72
     1
 11
966693.370436
 21
7262595.10032
 31
0.0
210
0.0
220
0.0
230
1.0
  0
TEXT
  8
11
  6
CONTINUOUS
 62
     7
  5
6C
 10
966581.088
 20
7262246.233
 30
0.0
 40
8.0
  1
R=215'
 50
35.433344
  7
ROMANS
 72
     1
 11
966598.469926
 21
7262258.600923
 31
0.0
210
0.0
220
0.0
230
1.0
  0
TEXT
  8
11
  6
CONTINUOUS
 62
     7
  5
6D
 10
966568.074
 20
7262252.129
 30
0.0
 40
8.0
  1
282.57'
 50
40.433344
  7
ROMANS
 72
     1
 11
966587.357253
 21
7262268.559695
 31
0.0
210
0.0
220
0.0
230
1.0
  0
LINE
  8
21
  6
DASHDOT
 62
     7
  5
6F
 10
964595.1
 20
7264740.769
 30
0.0
 11
964551.169
 21
7263316.499
 31
0.0
  0
LINE
  8
21
  6
DASHDOT
 62
     7
  5
70
 10
964620.094
 20
7264740.187
 30
0.0
 11
964543.679
 21
7262262.749
 31
0.0
  0
LINE
  8
21
  6
DASHDOT
 62
     7
  5
71
 10
964549.627
 20
7263266.523
 30
0.0
 11
963037.339
 21
7263313.169
 31
0.0
  0
LINE
  8
21
  6
DASHDOT
 62
     7
  5
72
 10
964551.169
 20
7263316.499
 30
0.0
 11
963038.901
 21
7263363.144
 31
0.0
  0
LINE
  8
21
  6
DASHDOT
 62
     7
  5
73
 10
964549.627
 20
7263266.523
 30
0.0
 11
964518.69
 21
7262263.52
 31
0.0
  0
LINE
  8
6
  6
CONTINUOUS
 62
     7
  5
74
 10
965235.223
 20
7264725.876
 30
0.0
 11
963058.032
 21
7264776.53
 31
0.0
  0
LINE
  8
21
  6
DASHDOT
 62
     7
  5
75
 10
965247.456
 20
7264705.586
 30
0.0
 11
963057.559
 21
7264756.536
 31
0.0
  0
TEXT
  8
22
  6
CONTINUOUS
 62
     3
  5
76
 10
963076.856
 20
7264021.328
 30
0.0
 40
8.0
  1
1414.43'
 50
88.2333
  7
ROMANS
 72
     4
 11
963073.762233
 21
7264050.770376
 31
0.0
210
0.0
220
0.0
230
1.0
  0
TEXT
  8
22
  6
CONTINUOUS
 62
     3
  5
77
 10
963057.69
 20
7262773.191
 30
0.0
 40
8.0
  1
1002.96'
 50
88.2333
  7
ROMANS
 72
     4
 11
963054.596233
 21
7262802.633376
 31
0.0
210
0.0
220
0.0
230
1.0
  0
TEXT
  8
22
  6
CONTINUOUS
 62
     3
  5
78
 10
964526.245
 20
7262708.928
 30
0.0
 40
8.0
  1
1003.48'
 50
88.2333
  7
ROMANS
 72
     4
 11
964523.151233
 21
7262738.370376
 31
0.0
210
0.0
220
0.0
230
1.0
  0
ARC
  8
6
  6
CONTINUOUS
 62
     7
  5
79
 10
966449.428654
 20
7262428.469048
 30
0.0
 40
215.000349
 50
267.965475
 51
350.129728
210
0.0
220
0.0
230
1.0
  0
LINE
  8
6
  6
CONTINUOUS
 62
     7
  5
7A
 10
966661.247
 20
7262391.614
 30
0.0
 11
966734.7
 21
7262824.923
 31
0.0
  0
LINE
  8
6
  6
CONTINUOUS
 62
     7
  5
7B
 10
966734.7
 20
7262824.923
 30
0.0
 11
966753.941
 21
7263333.94
 31
0.0
  0
LINE
  8
6
  6
CONTINUOUS
 62
     7
  5
7C
 10
966767.892
 20
7263702.705
 30
0.0
 11
966145.579
 21
7264010.295
 31
0.0
  0
LINE
  8
6
  6
CONTINUOUS
 62
     7
  5
7D
 10
965528.042
 20
7264240.188
 30
0.0
 11
965235.223
 21
7264725.876
 31
0.0
  0
LINE
  8
6
  6
CONTINUOUS
 62
     7
  5
7E
 10
966145.579
 20
7264010.295
 30
0.0
 11
965528.042
 21
7264240.188
 31
0.0
  0
TEXT
  8
22
  6
CONTINUOUS
 62
     3
  5
7F
 10
964568.391
 20
7263980.938
 30
0.0
 40
8.0
  1
1425.88'
 50
88.2333
  7
ROMANS
 72
     4
 11
964565.297233
 21
7264010.380376
 31
0.0
210
0.0
220
0.0
230
1.0
  0
TEXT
  8
22
  6
CONTINUOUS
 62
     3
  5
80
 10
964598.609
 20
7263586.467
 30
0.0
 40
8.0
  1
2479.56'
 50
88.2333
  7
ROMANS
 72
     4
 11
964595.515233
 21
7263615.909376
 31
0.0
210
0.0
220
0.0
230
1.0
  0
TEXT
  8
13
  6
CONTINUOUS
 62
    14
  5
83
 10
964816.26
 20
7264988.953
 30
0.0
 40
8.0
  1
V202 P403
 50
358.2333
  7
txt
 72
     4
 11
964851.546596
 21
7264991.866505
 31
0.0
210
0.0
220
0.0
230
1.0
  0
POLYLINE
  8
6
  6
CONTINUOUS
 62
     7
  5
84
 66
     1
 10
0.0
 20
0.0
 30
0.0
  0
VERTEX
  8
6
  6
CONTINUOUS
 62
     7
  5
85
 10
967067.688
 20
7262814.457
 30
0.0
  0
VERTEX
  8
6
  6
CONTINUOUS
 62
     7
  5
86
 10
967108.252
 20
7263468.057
 30
0.0
  0
VERTEX
  8
6
  6
CONTINUOUS
 62
     7
  5
87
 10
967261.152
 20
7264375.262
 30
0.0
  0
VERTEX
  8
6
  6
CONTINUOUS
 62
     7
  5
88
 10
967344.119
 20
7267376.299
 30
0.0
  0
SEQEND
  8
6
  6
CONTINUOUS
 62
     7
  5
89
  0
POLYLINE
  8
6
  6
CONTINUOUS
 62
     7
  5
8A
 66
     1
 10
0.0
 20
0.0
 30
0.0
  0
VERTEX
  8
6
  6
CONTINUOUS
 62
     7
  5
8B
 10
966767.892
 20
7263702.705
 30
0.0
  0
VERTEX
  8
6
  6
CONTINUOUS
 62
     7
  5
8C
 10
966791.977
 20
7264338.839
 30
0.0
  0
VERTEX
  8
6
  6
CONTINUOUS
 62
     7
  5
8D
 10
966976.999
 20
7265343.647
 30
0.0
  0
VERTEX
  8
6
  6
CONTINUOUS
 62
     7
  5
8E
 10
967044.253
 20
7267385.286
 30
0.0
  0
SEQEND
  8
6
  6
CONTINUOUS
 62
     7
  5
8F
  0
ARC
  8
6
  6
CONTINUOUS
 62
     7
  5
90
 10
967327.854317
 20
7262402.101786
 30
0.0
 40
215.000233
 50
186.033333
 51
268.199722
210
0.0
220
0.0
230
1.0
  0
LINE
  8
6
  6
CONTINUOUS
 62
     7
  5
91
 10
966753.941
 20
7263333.94
 30
0.0
 11
966767.892
 21
7263702.705
 31
0.0
  0
LINE
  8
6
  6
CONTINUOUS
 62
     7
  5
92
 10
967114.045
 20
7262379.504
 30
0.0
 11
967067.688
 21
7262814.457
 31
0.0
  0
POLYLINE
  8
21
  6
DASHDOT
 62
     7
  5
93
 66
     1
 10
0.0
 20
0.0
 30
0.0
 70
     1
  0
VERTEX
  8
21
  6
DASHDOT
 62
     7
  5
94
 10
966441.083
 20
7262193.566
 30
0.0
  0
VERTEX
  8
21
  6
DASHDOT
 62
     7
  5
95
 10
962942.645
 20
7262301.735
 30
0.0
  0
VERTEX
  8
21
  6
DASHDOT
 62
     7
  5
96
 10
962942.957
 20
7262311.729
 30
0.0
  0
VERTEX
  8
21
  6
DASHDOT
 62
     7
  5
97
 10
966441.439
 20
7262203.56
 30
0.0
  0
VERTEX
  8
21
  6
DASHDOT
 62
     7
  5
98
 10
966441.083
 20
7262193.566
 30
0.0
  0
SEQEND
  8
21
  6
DASHDOT
 62
     7
  5
99
  0
TEXT
  8
13
  6
CONTINUOUS
 62
    14
  5
9A
 10
963051.768
 20
7262300.89
 30
0.0
 40
8.0
  1
V2297 P100
 50
358.2333
  7
txt
 72
     4
 11
963089.320519
 21
7262303.733613
 31
0.0
210
0.0
220
0.0
230
1.0
  0
TEXT
  8
13
  6
CONTINUOUS
 62
    14
  5
9B
 10
967314.754
 20
7263593.397
 30
0.0
 40
8.0
  1
1846 P460
 50
358.2333
  7
txt
 72
     4
 11
967347.899615
 21
7263596.376542
 31
0.0
210
0.0
220
0.0
230
1.0
  0
POLYLINE
  8
21
  6
DASHDOT
 62
     7
  5
9C
 66
     1
 10
0.0
 20
0.0
 30
0.0
  0
VERTEX
  8
21
  6
DASHDOT
 62
     7
  5
9D
 10
967282.807
 20
7263608.9
 30
0.0
  0
VERTEX
  8
21
  6
DASHDOT
 62
     7
  5
9E
 10
967342.403
 20
7263573.375
 30
0.0
  0
VERTEX
  8
21
  6
DASHDOT
 62
     7
  5
9F
 10
967343.421
 20
7263606.6
 30
0.0
  0
VERTEX
  8
21
  6
DASHDOT
 62
     7
  5
A0
 10
967282.803
 20
7263608.892
 30
0.0
  0
SEQEND
  8
21
  6
DASHDOT
 62
     7
  5
A1
  0
POLYLINE
  8
21
  6
DASHDOT
 62
     7
  5
A2
 66
     1
 10
0.0
 20
0.0
 30
0.0
  0
VERTEX
  8
21
  6
DASHDOT
 62
     7
  5
A3
 10
967194.558
 20
7262232.23
 30
0.0
  0
VERTEX
  8
21
  6
DASHDOT
 62
     7
  5
A4
 10
967270.056
 20
7263535.005
 30
0.0
  0
VERTEX
  8
21
  6
DASHDOT
 62
     7
  5
A5
 10
967136.832
 20
7263614.422
 30
0.0
  0
VERTEX
  8
21
  6
DASHDOT
 62
     7
  5
A6
 10
967282.807
 20
7263608.9
 30
0.0
  0
VERTEX
  8
21
  6
DASHDOT
 62
     7
  5
A7
 10
967342.402
 20
7263573.374
 30
0.0
  0
VERTEX
  8
21
  6
DASHDOT
 62
     7
  5
A8
 10
967262.663
 20
7262197.422
 30
0.0
  0
SEQEND
  8
21
  6
DASHDOT
 62
     7
  5
A9
  0
TEXT
  8
22
  6
CONTINUOUS
 62
     3
  5
AA
 10
967278.346
 20
7262989.598
 30
0.0
 40
6.0
  1
OVERHEAD ELECTRICAL TRANSMISSION LINE EASEMENT
 50
86.7333
  7
txt
 72
     4
 11
967282.804924
 21
7263120.366399
 31
0.0
210
0.0
220
0.0
230
1.0
  0
TEXT
  8
13
  6
CONTINUOUS
 62
    14
  5
AB
 10
967268.517
 20
7262791.795
 30
0.0
 40
8.0
  1
V1627 P738
 50
86.7333
  7
txt
 72
     4
 11
967266.662785
 21
7262829.503933
 31
0.0
210
0.0
220
0.0
230
1.0
  0
TEXT
  8
11
  6
CONTINUOUS
 62
     7
  5
AC
 10
967086.04
 20
7262678.332
 30
0.0
 40
8.0
  1
440.2'
 50
276.100017
  7
ROMANS
 72
     1
 11
967088.306938
 21
7262657.119789
 31
0.0
210
0.0
220
0.0
230
1.0
  0
TEXT
  8
11
  6
CONTINUOUS
 62
     7
  5
AD
 10
967169.063
 20
7262262.463
 30
0.0
 40
8.0
  1
307'
 50
313.2333
  7
txt
 72
     4
 11
967181.318228
 21
7262255.267365
 31
0.0
210
0.0
220
0.0
230
1.0
  0
TEXT
  8
11
  6
CONTINUOUS
 62
     7
  5
AE
 10
967205.697
 20
7262262.842
 30
0.0
 40
8.0
  1
R=215'
 50
43.2333
  7
txt
 72
     4
 11
967217.161331
 21
7262279.110471
 31
0.0
210
0.0
220
0.0
230
1.0
  0
TEXT
  8
11
  6
CONTINUOUS
 62
     7
  5
AF
 10
967213.195
 20
7264110.403
 30
0.0
 40
8.0
  1
1068.1'
 50
80.931411
  7
ROMANS
 72
     1
 11
967217.187904
 21
7264135.419347
 31
0.0
210
0.0
220
0.0
230
1.0
  0
TEXT
  8
11
  6
CONTINUOUS
 62
     7
  5
B0
 10
966901.393
 20
7264950.975
 30
0.0
 40
8.0
  1
1061.7'
 50
78.006183
  7
ROMANS
 72
     1
 11
966906.657353
 21
7264975.754981
 31
0.0
210
0.0
220
0.0
230
1.0
  0
TEXT
  8
11
  6
CONTINUOUS
 62
     7
  5
B1
 10
967335.56
 20
7266509.661
 30
0.0
 40
8.0
  1
3002.1'
 50
88.2333
  7
ROMANS
 72
     4
 11
967332.342914
 21
7266535.105277
 31
0.0
210
0.0
220
0.0
230
1.0
  0
TEXT
  8
19
  6
CONTINUOUS
 62
     1
  5
B2
 10
963219.747
 20
7262248.67
 30
0.0
 40
24.0
  1
E 50TH ST
 50
358.2333
  7
ROMANC
 72
     4
 11
963333.631973
 21
7262257.162981
 31
0.0
210
0.0
220
0.0
230
1.0
  0
TEXT
  8
19
  6
CONTINUOUS
 62
     1
  5
B3
 10
967731.053
 20
7262104.006
 30
0.0
 40
24.0
  1
E 50TH ST
 50
358.2333
  7
ROMANC
 72
     4
 11
967844.937973
 21
7262112.498981
 31
0.0
210
0.0
220
0.0
230
1.0
  0
LINE
  8
6
  6
CONTINUOUS
 62
     7
  5
B4
 10
963058.032
 20
7264776.53
 30
0.0
 11
962981.481
 21
7262325.536
 31
0.0
  0
ARC
  8
6
  6
CONTINUOUS
 62
     7
  5
B5
 10
962996.473447
 20
7262325.068154
 30
0.0
 40
15.0
 50
178.211075
 51
268.213858
210
0.0
220
0.0
230
1.0
  0
LINE
  8
6
  6
CONTINUOUS
 62
     7
  5
B6
 10
962996.006
 20
7262310.075
 30
0.0
 11
966441.439
 21
7262203.56
 31
0.0
  0
LINE
  8
21
  6
DASHDOT
 62
     7
  5
B7
 10
963083.02
 20
7264775.75
 30
0.0
 11
963038.901
 21
7263363.144
 31
0.0
  0
LINE
  8
21
  6
DASHDOT
 62
     7
  5
B8
 10
963037.339
 20
7263313.169
 30
0.0
 11
963006.001
 21
7262309.78
 31
0.0
  0
LINE
  8
6
  6
CONTINUOUS
 62
     7
  5
B9
 10
966441.439
 20
7262203.56
 30
0.0
 11
966441.796
 21
7262213.604
 31
0.0
  0
POLYLINE
  8
21
  6
DASHDOT
 62
     7
  5
BA
 66
     1
 10
0.0
 20
0.0
 30
0.0
  0
VERTEX
  8
21
  6
DASHDOT
 62
     7
  5
BB
 10
966442.40937
 20
7262233.594817
 30
0.0
 42
0.258379
  0
VERTEX
  8
21
  6
DASHDOT
 62
     7
  5
BC
 10
966618.065479
 20
7262326.284426
 30
0.0
  0
VERTEX
  8
21
  6
DASHDOT
 62
     7
  5
BD
 10
966618.065
 20
7262326.285
 30
0.0
  0
VERTEX
  8
21
  6
DASHDOT
 62
     7
  5
BE
 10
966638.255
 20
7262325.661
 30
0.0
  0
VERTEX
  8
21
  6
DASHDOT
 62
     7
  5
BF
 10
966638.255877
 20
7262325.661662
 30
0.0
 42
-0.284237
  0
VERTEX
  8
21
  6
DASHDOT
 62
     7
  5
C0
 10
966441.795775
 20
7262213.604232
 30
0.0
  0
VERTEX
  8
21
  6
DASHDOT
 62
     7
  5
C1
 10
966441.796
 20
7262213.604
 30
0.0
  0
VERTEX
  8
21
  6
DASHDOT
 62
     7
  5
C2
 10
962943.207
 20
7262321.516
 30
0.0
  0
VERTEX
  8
21
  6
DASHDOT
 62
     7
  5
C3
 10
962943.824
 20
7262341.507
 30
0.0
  0
VERTEX
  8
21
  6
DASHDOT
 62
     7
  5
C4
 10
966442.409
 20
7262233.595
 30
0.0
  0
SEQEND
  8
21
  6
DASHDOT
 62
     7
  5
C5
  0
TEXT
  8
22
  6
CONTINUOUS
 62
     3
  5
C6
 10
963940.688
 20
7262297.185
 30
0.0
 40
6.0
  1
20' UCE
 50
358.2333
  7
txt
 72
     4
 11
963957.212675
 21
7262299.676731
 31
0.0
210
0.0
220
0.0
230
1.0
  0
TEXT
  8
22
  6
CONTINUOUS
 62
     3
  5
C7
 10
963078.529
 20
7262342.041
 30
0.0
 40
6.0
  1
RESOLUTION 2411 DATED08/28/1986
 50
357.2333
  7
txt
 72
     4
 11
963163.870383
 21
7262340.920328
 31
0.0
210
0.0
220
0.0
230
1.0
  0
TEXT
  8
10
  6
CONTINUOUS
 62
   134
  5
C9
 10
964766.148
 20
7265062.522
 30
0.0
 40
13.999
  1
CITY OF LUBBOCK
 50
358.2333
  7
ROMANS
 11
964766.579587
 21
7265076.514346
 31
0.0
210
0.0
220
0.0
230
1.0
 73
     3
  0
TEXT
  8
10
  6
CONTINUOUS
 62
   134
  5
CA
 10
964765.5
 20
7265041.535
 30
0.0
 40
13.999
  1
 
 50
358.2333
  7
ROMANS
 11
964765.931587
 21
7265055.527346
 31
0.0
210
0.0
220
0.0
230
1.0
 73
     3
  0
TEXT
  8
10
  6
CONTINUOUS
 62
   134
  5
CB
 10
964764.853
 20
7265020.546
 30
0.0
 40
13.999
  1
  SEWER FARM
 50
358.2333
  7
ROMANS
 11
964765.284587
 21
7265034.538346
 31
0.0
210
0.0
220
0.0
230
1.0
 73
     3
  0
TEXT
  8
10
  6
CONTINUOUS
 62
   134
  5
CC
 10
967763.122
 20
7264963.806
 30
0.0
 40
13.999
  1
UNSUBDIVIDED
 50
358.2333
  7
ROMANS
210
0.0
220
0.0
230
1.0
  0
TEXT
  8
10
  6
CONTINUOUS
 62
   134
  5
CD
 10
964460.794
 20
7263554.928
 30
0.0
 40
13.999
  1
TRACT        A
 50
358.2333
  7
ROMANS
 72
     4
 11
964556.624337
 21
7263558.975489
 31
0.0
210
0.0
220
0.0
230
1.0
  0
ENDSEC
  0
EOF
