  0
SECTION
  2
HEADER
  9
$ACADVER
  1
AC1009
  9
$INSBASE
 10
0.0
 20
0.0
 30
0.0
  9
$EXTMIN
 10
963038.836
 20
7267192.73
 30
0.0
  9
$EXTMAX
 10
973802.023
 20
7272892.235
 30
0.0
  9
$LIMMIN
 10
0.0
 20
0.0
  9
$LIMMAX
 10
12.0
 20
9.0
  9
$ORTHOMODE
 70
     0
  9
$REGENMODE
 70
     1
  9
$FILLMODE
 70
     1
  9
$QTEXTMODE
 70
     0
  9
$MIRRTEXT
 70
     1
  9
$DRAGMODE
 70
     2
  9
$LTSCALE
 40
1.0
  9
$OSMODE
 70
     0
  9
$ATTMODE
 70
     1
  9
$TEXTSIZE
 40
0.2
  9
$TRACEWID
 40
0.05
  9
$TEXTSTYLE
  7
STANDARD
  9
$CLAYER
  8
0
  9
$CELTYPE
  6
CONTINUOUS
  9
$CECOLOR
 62
   256
  9
$DIMSCALE
 40
1.0
  9
$DIMASZ
 40
0.18
  9
$DIMEXO
 40
0.0625
  9
$DIMDLI
 40
0.38
  9
$DIMRND
 40
0.0
  9
$DIMDLE
 40
0.0
  9
$DIMEXE
 40
0.18
  9
$DIMTP
 40
0.0
  9
$DIMTM
 40
0.0
  9
$DIMTXT
 40
0.18
  9
$DIMCEN
 40
0.09
  9
$DIMTSZ
 40
0.0
  9
$DIMTOL
 70
     0
  9
$DIMLIM
 70
     0
  9
$DIMTIH
 70
     1
  9
$DIMTOH
 70
     1
  9
$DIMSE1
 70
     0
  9
$DIMSE2
 70
     0
  9
$DIMTAD
 70
     0
  9
$DIMZIN
 70
     0
  9
$DIMBLK
  1

  9
$DIMASO
 70
     1
  9
$DIMSHO
 70
     1
  9
$DIMPOST
  1

  9
$DIMAPOST
  1

  9
$DIMALT
 70
     0
  9
$DIMALTD
 70
     2
  9
$DIMALTF
 40
25.4
  9
$DIMLFAC
 40
1.0
  9
$DIMTOFL
 70
     0
  9
$DIMTVP
 40
0.0
  9
$DIMTIX
 70
     0
  9
$DIMSOXD
 70
     0
  9
$DIMSAH
 70
     0
  9
$DIMBLK1
  1

  9
$DIMBLK2
  1

  9
$DIMSTYLE
  2
STANDARD
  9
$DIMCLRD
 70
     0
  9
$DIMCLRE
 70
     0
  9
$DIMCLRT
 70
     0
  9
$DIMTFAC
 40
1.0
  9
$DIMGAP
 40
0.09
  9
$LUNITS
 70
     2
  9
$LUPREC
 70
     4
  9
$AXISMODE
 70
     0
  9
$AXISUNIT
 10
0.0
 20
0.0
  9
$SKETCHINC
 40
0.1
  9
$FILLETRAD
 40
0.0
  9
$AUNITS
 70
     0
  9
$AUPREC
 70
     0
  9
$MENU
  1
acad
  9
$ELEVATION
 40
0.0
  9
$PELEVATION
 40
0.0
  9
$THICKNESS
 40
0.0
  9
$LIMCHECK
 70
     0
  9
$BLIPMODE
 70
     1
  9
$CHAMFERA
 40
0.0
  9
$CHAMFERB
 40
0.0
  9
$SKPOLY
 70
     0
  9
$TDCREATE
 40
2453013.902152778
  9
$TDUPDATE
 40
2453013.902152778
  9
$TDINDWG
 40
0.0000000000
  9
$TDUSRTIMER
 40
0.0000000000
  9
$USRTIMER
 70
     1
  9
$ANGBASE
 50
0.0
  9
$ANGDIR
 70
     0
  9
$PDMODE
 70
     0
  9
$PDSIZE
 40
0.0
  9
$PLINEWID
 40
0.0
  9
$COORDS
 70
     0
  9
$SPLFRAME
 70
     0
  9
$SPLINETYPE
 70
     6
  9
$SPLINESEGS
 70
    10
  9
$ATTDIA
 70
     0
  9
$ATTREQ
 70
     1
  9
$HANDLING
 70
     1
  9
$HANDSEED
  5
136
  9
$SURFTAB1
 70
     6
  9
$SURFTAB2
 70
     6
  9
$SURFTYPE
 70
     6
  9
$SURFU
 70
     6
  9
$SURFV
 70
     6
  9
$UCSNAME
  2

  9
$UCSORG
 10
0.0
 20
0.0
 30
0.0
  9
$UCSXDIR
 10
1.0
 20
0.0
 30
0.0
  9
$UCSYDIR
 10
0.0
 20
1.0
 30
0.0
  9
$PUCSNAME
  2

  9
$PUCSORG
 10
0.0
 20
0.0
 30
0.0
  9
$PUCSXDIR
 10
1.0
 20
0.0
 30
0.0
  9
$PUCSYDIR
 10
0.0
 20
1.0
 30
0.0
  9
$USERI1
 70
     0
  9
$USERI2
 70
     0
  9
$USERI3
 70
     0
  9
$USERI4
 70
     0
  9
$USERI5
 70
     0
  9
$USERR1
 40
0.0
  9
$USERR2
 40
0.0
  9
$USERR3
 40
0.0
  9
$USERR4
 40
0.0
  9
$USERR5
 40
0.0
  9
$WORLDVIEW
 70
     1
  9
$SHADEDGE
 70
     3
  9
$SHADEDIF
 70
    70
  9
$TILEMODE
 70
     1
  9
$MAXACTVP
 70
    16
  9
$PINSBASE
 10
0.0
 20
0.0
 30
0.0
  9
$PLIMCHECK
 70
     0
  9
$PEXTMIN
 10
-1.000000E+20
 20
-1.000000E+20
 30
-1.000000E+20
  9
$PEXTMAX
 10
-1.000000E+20
 20
-1.000000E+20
 30
-1.000000E+20
  9
$PLIMMIN
 10
0.0
 20
0.0
  9
$PLIMMAX
 10
12.0
 20
9.0
  9
$UNITMODE
 70
     0
  9
$VISRETAIN
 70
     0
  9
$PLINEGEN
 70
     1
  9
$PSLTSCALE
 70
     0
  9
$TREEDEPTH
 70
  3020
  9
$DWGCODEPAGE
  3
ansi_1252
  0
ENDSEC
  0
SECTION
  2
TABLES
  0
TABLE
  2
VPORT
 70
     1
  0
VPORT
  2
*ACTIVE
 70
     0
 10
0.0
 20
0.0
 11
1.0
 21
1.0
 12
0.0
 22
0.0
 13
0.0
 23
0.0
 14
0.0
 24
0.0
 15
0.0
 25
0.0
 16
0.0
 26
0.0
 36
1.0
 17
963064.432289
 27
7267556.059441
 37
0.0
 40
284.259
 41
1.225627
 42
50.0
 43
0.004
 44
0.0
 50
1.742625
 51
0.0
 71
     0
 72
   100
 73
     1
 74
     0
 75
     0
 76
     0
 77
     0
 78
     0
  0
ENDTAB
  0
TABLE
  2
LTYPE
 70
     7
  0
LTYPE
  2
CONTINUOUS
 70
     0
  3
Solid line
 72
    65
 73
     0
 40
0.0
  0
LTYPE
  2
DOT
 70
    64
  3
. . . . . . . . . . . . . . . . . . . . . . . . . . . . . . . . .
 72
    65
 73
     2
 40
0.25
 49
0.0
 49
-0.25
  0
LTYPE
  2
HIDDEN
 70
    64
  3
__ __ __ __ __ __ __ __ __ __ __ __ __ __ __ __ __ __ __ __ __ 
 72
    65
 73
     2
 40
0.375
 49
0.25
 49
-0.125
  0
LTYPE
  2
DASHED
 70
    64
  3
__ __ __ __ __ __ __ __ __ __ __ __ __ __ __ __ __ __ __ __ __
 72
    65
 73
     2
 40
0.75
 49
0.5
 49
-0.25
  0
LTYPE
  2
DASHDOT
 70
    64
  3
__ . __ . __ . __ . __ . __ . __ . __ . __ . __ . __ . __ . _
 72
    65
 73
     4
 40
1.0
 49
0.5
 49
-0.25
 49
0.0
 49
-0.25
  0
LTYPE
  2
DIVIDE
 70
    64
  3
____ . . ____ . . ____ . . ____ . . ____ . . ____ . . ____ . .
 72
    65
 73
     6
 40
1.25
 49
0.5
 49
-0.25
 49
0.0
 49
-0.25
 49
0.0
 49
-0.25
  0
LTYPE
  2
CENTER
 70
    64
  3
____ _ ____ _ ____ _ ____ _ ____ _ ____ _ ____ _ ____ _ ____ _
 72
    65
 73
     4
 40
2.0
 49
1.25
 49
-0.25
 49
0.25
 49
-0.25
  0
ENDTAB
  0
TABLE
  2
LAYER
 70
    20
  0
LAYER
  2
0
 70
     0
 62
     7
  6
CONTINUOUS
  0
LAYER
  2
CONSTRUCTION_CLASS
 70
     1
 62
     7
  6
CONTINUOUS
  0
LAYER
  2
PATTERN_CLASS
 70
     0
 62
     7
  6
CONTINUOUS
  0
LAYER
  2
6
 70
    64
 62
     7
  6
CONTINUOUS
  0
LAYER
  2
19
 70
    64
 62
     7
  6
CONTINUOUS
  0
LAYER
  2
11
 70
    64
 62
     7
  6
CONTINUOUS
  0
LAYER
  2
1
 70
    64
 62
     7
  6
CONTINUOUS
  0
LAYER
  2
21
 70
    64
 62
     7
  6
CONTINUOUS
  0
LAYER
  2
22
 70
    64
 62
     7
  6
CONTINUOUS
  0
LAYER
  2
13
 70
    64
 62
     7
  6
CONTINUOUS
  0
LAYER
  2
27
 70
    64
 62
     7
  6
CONTINUOUS
  0
LAYER
  2
10
 70
    64
 62
     7
  6
CONTINUOUS
  0
LAYER
  2
28
 70
    64
 62
     7
  6
CONTINUOUS
  0
LAYER
  2
25
 70
    64
 62
     7
  6
CONTINUOUS
  0
LAYER
  2
-1
 70
    64
 62
     7
  6
CONTINUOUS
  0
LAYER
  2
-6
 70
    64
 62
     7
  6
CONTINUOUS
  0
LAYER
  2
-13
 70
    64
 62
     7
  6
CONTINUOUS
  0
LAYER
  2
-19
 70
    64
 62
     7
  6
CONTINUOUS
  0
LAYER
  2
-10
 70
    64
 62
     7
  6
CONTINUOUS
  0
LAYER
  2
-58
 70
    64
 62
     7
  6
CONTINUOUS
  0
ENDTAB
  0
TABLE
  2
STYLE
 70
     4
  0
STYLE
  2
STANDARD
 70
     0
 40
0.0
 41
1.0
 50
0.0
 71
     0
 42
0.0
  3
txt
  4

  0
STYLE
  2
ROMANC
 70
     0
 40
0.2
 41
1.0
 50
0.0
 71
     0
 42
0.2
  3
ROMANC
  4

  0
STYLE
  2
ROMANS
 70
     0
 40
0.2
 41
1.0
 50
0.0
 71
     0
 42
0.2
  3
ROMANS
  4

  0
STYLE
  2
txt
 70
     0
 40
0.2
 41
1.0
 50
0.0
 71
     0
 42
0.2
  3
TXT
  4

  0
ENDTAB
  0
TABLE
  2
VIEW
 70
     0
  0
ENDTAB
  0
TABLE
  2
UCS
 70
     0
  0
ENDTAB
  0
TABLE
  2
APPID
 70
     1
  0
APPID
  2
ACAD
 70
     0
  0
ENDTAB
  0
TABLE
  2
DIMSTYLE
 70
     1
  0
DIMSTYLE
  2
STANDARD
 70
     0
  3

  4

  5

  6

  7

 40
1.0
 41
0.18
 42
0.0625
 43
0.38
 44
0.18
 45
0.0
 46
0.0
 47
0.0
 48
0.0
140
0.18
141
0.09
142
0.0
143
25.4
144
1.0
145
0.0
146
1.0
147
0.09
 71
     0
 72
     0
 73
     1
 74
     1
 75
     0
 76
     0
 77
     0
 78
     0
170
     0
171
     2
172
     0
173
     0
174
     0
175
     0
176
     0
177
     0
178
     0
  0
ENDTAB
  0
ENDSEC
  0
SECTION
  2
BLOCKS
  0
ENDSEC
  0
SECTION
  2
ENTITIES
  0
LINE
  8
6
  6
CONTINUOUS
 62
     7
  5
29
 10
967589.153
 20
7272561.495
 30
0.0
 11
967595.071
 21
7272238.35
 31
0.0
  0
LINE
  8
6
  6
CONTINUOUS
 62
     7
  5
2A
 10
967595.071
 20
7272238.35
 30
0.0
 11
967672.65
 21
7272154.227
 31
0.0
  0
LINE
  8
6
  6
CONTINUOUS
 62
     7
  5
2B
 10
967111.773
 20
7272572.477
 30
0.0
 11
967021.665
 21
7271758.549
 31
0.0
  0
LINE
  8
6
  6
CONTINUOUS
 62
     7
  5
2C
 10
967021.665
 20
7271758.549
 30
0.0
 11
967144.817
 21
7270869.041
 31
0.0
  0
LINE
  8
6
  6
CONTINUOUS
 62
     7
  5
2D
 10
968503.432
 20
7272663.019
 30
0.0
 11
967744.696
 21
7271963.305
 31
0.0
  0
ARC
  8
6
  6
CONTINUOUS
 62
     7
  5
2E
 10
967890.452335
 20
7271805.254471
 30
0.0
 40
215.0
 50
132.682544
 51
166.846819
210
0.0
220
0.0
230
1.0
  0
LINE
  8
6
  6
CONTINUOUS
 62
     7
  5
2F
 10
963529.018
 20
7268127.558
 30
0.0
 11
963844.389
 21
7268418.411
 31
0.0
  0
LINE
  8
6
  6
CONTINUOUS
 62
     7
  5
30
 10
963844.389
 20
7268418.411
 30
0.0
 11
964095.979
 21
7267898.043
 31
0.0
  0
LINE
  8
6
  6
CONTINUOUS
 62
     7
  5
31
 10
963745.58
 20
7267722.907
 30
0.0
 11
964095.979
 21
7267898.043
 31
0.0
  0
LINE
  8
6
  6
CONTINUOUS
 62
     7
  5
32
 10
963529.018
 20
7268127.558
 30
0.0
 11
963610.756
 21
7268042.801
 31
0.0
  0
LINE
  8
6
  6
CONTINUOUS
 62
     7
  5
33
 10
968449.399
 20
7272733.327
 30
0.0
 11
964421.413
 21
7269018.686
 31
0.0
  0
LINE
  8
6
  6
CONTINUOUS
 62
     7
  5
34
 10
968305.351
 20
7272737.71
 30
0.0
 11
964353.068
 21
7269092.88
 31
0.0
  0
LINE
  8
6
  6
CONTINUOUS
 62
     7
  5
35
 10
963610.756
 20
7268042.801
 30
0.0
 11
963745.58
 21
7267722.907
 31
0.0
  0
TEXT
  8
19
  6
CONTINUOUS
 62
     1
  5
38
 10
967303.551
 20
7272009.465
 30
0.0
 40
24.0
  1
EAST     LOOP     289
 50
88.0659
  7
ROMANC
 72
     4
 11
967300.540703
 21
7272275.877371
 31
0.0
210
0.0
220
0.0
230
1.0
  0
TEXT
  8
19
  6
CONTINUOUS
 62
     1
  5
39
 10
967172.531
 20
7267606.35
 30
0.0
 40
24.0
  1
EAST     LOOP     289
 50
88.0659
  7
ROMANC
 72
     4
 11
967169.520703
 21
7267872.762371
 31
0.0
210
0.0
220
0.0
230
1.0
  0
TEXT
  8
19
  6
CONTINUOUS
 62
     1
  5
3A
 10
967249.642
 20
7269699.073
 30
0.0
 40
24.0
  1
EAST     LOOP     289
 50
88.0659
  7
ROMANC
 72
     4
 11
967246.631703
 21
7269965.485371
 31
0.0
210
0.0
220
0.0
230
1.0
  0
TEXT
  8
11
  6
CONTINUOUS
 62
     7
  5
3D
 10
967009.311
 20
7272626.853
 30
0.0
 40
8.0
  1
15'
 50
88.0659
  7
ROMANS
 72
     4
 11
967005.628268
 21
7272636.315683
 31
0.0
210
0.0
220
0.0
230
1.0
  0
TEXT
  8
11
  6
CONTINUOUS
 62
     7
  5
3E
 10
967692.646
 20
7272628.247
 30
0.0
 40
8.0
  1
60'
 50
88.0659
  7
ROMANS
 72
     4
 11
967688.963268
 21
7272637.709683
 31
0.0
210
0.0
220
0.0
230
1.0
  0
TEXT
  8
11
  6
CONTINUOUS
 62
     7
  5
3F
 10
967071.247
 20
7272621.751
 30
0.0
 40
8.0
  1
R
 50
320.775375
  7
ROMANS
 72
     1
 11
967073.199175
 21
7272620.157447
 31
0.0
210
0.0
220
0.0
230
1.0
  0
TEXT
  8
11
  6
CONTINUOUS
 62
     7
  5
40
 10
967077.67
 20
7272616.647
 30
0.0
 40
8.0
  1
=
 50
315.803306
  7
ROMANS
 72
     1
 11
967080.059597
 21
7272614.323487
 31
0.0
210
0.0
220
0.0
230
1.0
  0
TEXT
  8
11
  6
CONTINUOUS
 62
     7
  5
41
 10
967083.589
 20
7272610.974
 30
0.0
 40
8.0
  1
8
 50
310.831236
  7
ROMANS
 72
     1
 11
967085.114393
 21
7272609.208762
 31
0.0
210
0.0
220
0.0
230
1.0
  0
TEXT
  8
11
  6
CONTINUOUS
 62
     7
  5
42
 10
967088.959
 20
7272604.778
 30
0.0
 40
8.0
  1
5
 50
305.859167
  7
ROMANS
 72
     1
 11
967090.332103
 21
7272602.878283
 31
0.0
210
0.0
220
0.0
230
1.0
  0
TEXT
  8
11
  6
CONTINUOUS
 62
     7
  5
43
 10
967093.728
 20
7272598.113
 30
0.0
 40
8.0
  1
'
 50
300.887097
  7
ROMANS
 72
     1
 11
967094.412806
 21
7272596.968187
 31
0.0
210
0.0
220
0.0
230
1.0
  0
TEXT
  8
11
  6
CONTINUOUS
 62
     7
  5
44
 10
967674.734
 20
7271872.268
 30
0.0
 40
8.0
  1
R
 50
59.876253
  7
ROMANS
 72
     1
 11
967675.998711
 21
7271874.447658
 31
0.0
210
0.0
220
0.0
230
1.0
  0
TEXT
  8
11
  6
CONTINUOUS
 62
     7
  5
45
 10
967678.718
 20
7271879.132
 30
0.0
 40
8.0
  1
=
 50
59.876253
  7
ROMANS
 72
     1
 11
967680.39073
 21
7271882.014857
 31
0.0
210
0.0
220
0.0
230
1.0
  0
TEXT
  8
11
  6
CONTINUOUS
 62
     7
  5
46
 10
967682.942
 20
7271886.042
 30
0.0
 40
8.0
  1
2
 50
56.750125
  7
ROMANS
 72
     1
 11
967684.221164
 21
7271887.993058
 31
0.0
210
0.0
220
0.0
230
1.0
  0
TEXT
  8
11
  6
CONTINUOUS
 62
     7
  5
47
 10
967687.368
 20
7271892.827
 30
0.0
 40
8.0
  1
1
 50
53.623994
  7
ROMANS
 72
     1
 11
967688.158578
 21
7271893.900255
 31
0.0
210
0.0
220
0.0
230
1.0
  0
TEXT
  8
11
  6
CONTINUOUS
 62
     7
  5
48
 10
967692.074
 20
7271899.216
 30
0.0
 40
8.0
  1
5
 50
53.623994
  7
ROMANS
 72
     1
 11
967693.464184
 21
7271901.103253
 31
0.0
210
0.0
220
0.0
230
1.0
  0
TEXT
  8
11
  6
CONTINUOUS
 62
     7
  5
49
 10
967697.041
 20
7271905.611
 30
0.0
 40
8.0
  1
'
 50
50.497867
  7
ROMANS
 72
     1
 11
967697.888931
 21
7271906.639544
 31
0.0
210
0.0
220
0.0
230
1.0
  0
TEXT
  8
11
  6
CONTINUOUS
 62
     7
  5
4A
 10
967686.893
 20
7271865.208
 30
0.0
 40
8.0
  1
1
 50
63.002381
  7
ROMANS
 72
     1
 11
967680.369917
 21
7271870.027365
 31
0.0
210
0.0
220
0.0
230
1.0
 73
     3
  0
TEXT
  8
11
  6
CONTINUOUS
 62
     7
  5
4B
 10
967690.523
 20
7271871.582
 30
0.0
 40
8.0
  1
2
 50
59.876253
  7
ROMANS
 72
     1
 11
967684.774313
 21
7271877.614867
 31
0.0
210
0.0
220
0.0
230
1.0
 73
     3
  0
TEXT
  8
11
  6
CONTINUOUS
 62
     7
  5
4C
 10
967694.318
 20
7271877.858
 30
0.0
 40
8.0
  1
8
 50
56.750125
  7
ROMANS
 72
     1
 11
967688.906865
 21
7271884.19539
 31
0.0
210
0.0
220
0.0
230
1.0
 73
     3
  0
TEXT
  8
11
  6
CONTINUOUS
 62
     7
  5
4D
 10
967698.279
 20
7271884.037
 30
0.0
 40
8.0
  1
.
 50
53.623994
  7
ROMANS
 72
     1
 11
967692.621916
 21
7271889.846052
 31
0.0
210
0.0
220
0.0
230
1.0
 73
     3
  0
TEXT
  8
11
  6
CONTINUOUS
 62
     7
  5
4E
 10
967702.987
 20
7271890.427
 30
0.0
 40
8.0
  1
2
 50
53.623994
  7
ROMANS
 72
     1
 11
967697.929522
 21
7271897.050051
 31
0.0
210
0.0
220
0.0
230
1.0
 73
     3
  0
TEXT
  8
11
  6
CONTINUOUS
 62
     7
  5
4F
 10
967707.459
 20
7271896.24
 30
0.0
 40
8.0
  1
'
 50
50.497867
  7
ROMANS
 72
     1
 11
967702.134123
 21
7271902.3574
 31
0.0
210
0.0
220
0.0
230
1.0
 73
     3
  0
TEXT
  8
11
  6
CONTINUOUS
 62
     7
  5
50
 10
967428.534
 20
7270831.059
 30
0.0
 40
8.0
  1
R
 50
83.76525
  7
ROMANS
 72
     1
 11
967428.807678
 21
7270833.564095
 31
0.0
210
0.0
220
0.0
230
1.0
  0
TEXT
  8
11
  6
CONTINUOUS
 62
     7
  5
51
 10
967429.396
 20
7270838.95
 30
0.0
 40
8.0
  1
=
 50
83.76525
  7
ROMANS
 72
     1
 11
967429.757971
 21
7270842.263286
 31
0.0
210
0.0
220
0.0
230
1.0
  0
TEXT
  8
11
  6
CONTINUOUS
 62
     7
  5
52
 10
967430.282
 20
7270846.941
 30
0.0
 40
8.0
  1
5
 50
81.789253
  7
ROMANS
 72
     1
 11
967430.616757
 21
7270849.260973
 31
0.0
210
0.0
220
0.0
230
1.0
  0
TEXT
  8
11
  6
CONTINUOUS
 62
     7
  5
53
 10
967431.415
 20
7270854.796
 30
0.0
 40
8.0
  1
3
 50
81.789253
  7
ROMANS
 72
     1
 11
967431.748186
 21
7270857.105085
 31
0.0
210
0.0
220
0.0
230
1.0
  0
TEXT
  8
11
  6
CONTINUOUS
 62
     7
  5
54
 10
967432.549
 20
7270862.652
 30
0.0
 40
8.0
  1
8
 50
81.789253
  7
ROMANS
 72
     1
 11
967432.882186
 21
7270864.961085
 31
0.0
210
0.0
220
0.0
230
1.0
  0
TEXT
  8
11
  6
CONTINUOUS
 62
     7
  5
55
 10
967433.89
 20
7270870.578
 30
0.0
 40
8.0
  1
.
 50
79.813256
  7
ROMANS
 72
     1
 11
967434.123805
 21
7270871.879161
 31
0.0
210
0.0
220
0.0
230
1.0
  0
TEXT
  8
11
  6
CONTINUOUS
 62
     7
  5
56
 10
967435.293
 20
7270878.39
 30
0.0
 40
8.0
  1
1
 50
79.813256
  7
ROMANS
 72
     1
 11
967435.52875
 21
7270879.701987
 31
0.0
210
0.0
220
0.0
230
1.0
  0
TEXT
  8
11
  6
CONTINUOUS
 62
     7
  5
57
 10
967436.814
 20
7270886.285
 30
0.0
 40
8.0
  1
'
 50
77.837258
  7
ROMANS
 72
     1
 11
967437.094849
 21
7270887.588078
 31
0.0
210
0.0
220
0.0
230
1.0
  0
TEXT
  8
11
  6
CONTINUOUS
 62
     7
  5
58
 10
967442.718
 20
7270831.975
 30
0.0
 40
8.0
  1
1
 50
83.76525
  7
ROMANS
 72
     1
 11
967434.910085
 21
7270834.168934
 31
0.0
210
0.0
220
0.0
230
1.0
 73
     3
  0
TEXT
  8
11
  6
CONTINUOUS
 62
     7
  5
59
 10
967443.58
 20
7270839.864
 30
0.0
 40
8.0
  1
0
 50
83.76525
  7
ROMANS
 72
     1
 11
967435.915222
 21
7270843.368138
 31
0.0
210
0.0
220
0.0
230
1.0
 73
     3
  0
TEXT
  8
11
  6
CONTINUOUS
 62
     7
  5
5A
 10
967444.488
 20
7270847.366
 30
0.0
 40
8.0
  1
5
 50
81.789253
  7
ROMANS
 72
     1
 11
967436.904762
 21
7270850.828489
 31
0.0
210
0.0
220
0.0
230
1.0
 73
     3
  0
TEXT
  8
11
  6
CONTINUOUS
 62
     7
  5
5B
 10
967445.621
 20
7270855.222
 30
0.0
 40
8.0
  1
.
 50
81.789253
  7
ROMANS
 72
     1
 11
967437.891805
 21
7270857.672965
 31
0.0
210
0.0
220
0.0
230
1.0
 73
     3
  0
TEXT
  8
11
  6
CONTINUOUS
 62
     7
  5
5C
 10
967446.698
 20
7270862.703
 30
0.0
 40
8.0
  1
7
 50
79.813256
  7
ROMANS
 72
     1
 11
967439.236715
 21
7270866.41408
 31
0.0
210
0.0
220
0.0
230
1.0
 73
     3
  0
TEXT
  8
11
  6
CONTINUOUS
 62
     7
  5
5D
 10
967448.102
 20
7270870.514
 30
0.0
 40
8.0
  1
'
 50
79.813256
  7
ROMANS
 72
     1
 11
967440.463858
 21
7270873.240844
 31
0.0
210
0.0
220
0.0
230
1.0
 73
     3
  0
TEXT
  8
11
  6
CONTINUOUS
 62
     7
  5
5E
 10
967251.794
 20
7270487.58
 30
0.0
 40
8.0
  1
300'
 50
358.0659
  7
ROMANS
 72
     4
 11
967265.254404
 21
7270491.127732
 31
0.0
210
0.0
220
0.0
230
1.0
  0
TEXT
  8
11
  6
CONTINUOUS
 62
     7
  5
5F
 10
963404.581
 20
7268012.428
 30
0.0
 40
8.0
  1
218'
 50
308.806664
  7
ROMANS
 72
     4
 11
963416.053777
 21
7268004.544836
 31
0.0
210
0.0
220
0.0
230
1.0
  0
TEXT
  8
11
  6
CONTINUOUS
 62
     7
  5
60
 10
963248.095
 20
7268173.394
 30
0.0
 40
8.0
  1
218'
 50
308.806664
  7
ROMANS
 72
     4
 11
963259.567777
 21
7268165.510836
 31
0.0
210
0.0
220
0.0
230
1.0
  0
TEXT
  8
11
  6
CONTINUOUS
 62
     7
  5
61
 10
963637.206
 20
7268320.524
 30
0.0
 40
8.0
  1
100'
 50
309.364628
  7
ROMANS
 72
     4
 11
963648.755001
 21
7268312.752934
 31
0.0
210
0.0
220
0.0
230
1.0
  0
TEXT
  8
11
  6
CONTINUOUS
 62
     7
  5
62
 10
963578.546
 20
7268398.515
 30
0.0
 40
8.0
  1
100'
 50
309.364628
  7
ROMANS
 72
     4
 11
963590.095001
 21
7268390.743934
 31
0.0
210
0.0
220
0.0
230
1.0
  0
TEXT
  8
11
  6
CONTINUOUS
 62
     7
  5
63
 10
964275.078
 20
7269030.761
 30
0.0
 40
8.0
  1
100'
 50
309.364628
  7
ROMANS
 72
     4
 11
964286.627001
 21
7269022.989934
 31
0.0
210
0.0
220
0.0
230
1.0
  0
TEXT
  8
11
  6
CONTINUOUS
 62
     7
  5
64
 10
964341.499
 20
7268956.778
 30
0.0
 40
8.0
  1
100'
 50
309.364628
  7
ROMANS
 72
     4
 11
964353.048001
 21
7268949.006934
 31
0.0
210
0.0
220
0.0
230
1.0
  0
TEXT
  8
11
  6
CONTINUOUS
 62
     7
  5
65
 10
964443.194
 20
7269082.42
 30
0.0
 40
8.0
  1
50'
 50
309.364628
  7
ROMANS
 72
     4
 11
964452.205988
 21
7269077.741435
 31
0.0
210
0.0
220
0.0
230
1.0
  0
TEXT
  8
11
  6
CONTINUOUS
 62
     7
  5
66
 10
964411.589
 20
7269118.104
 30
0.0
 40
8.0
  1
50'
 50
309.364628
  7
ROMANS
 72
     4
 11
964420.600988
 21
7269113.425435
 31
0.0
210
0.0
220
0.0
230
1.0
  0
TEXT
  8
11
  6
CONTINUOUS
 62
     7
  5
67
 10
965220.385
 20
7269820.587
 30
0.0
 40
8.0
  1
50'
 50
309.364628
  7
ROMANS
 72
     4
 11
965229.396988
 21
7269815.908435
 31
0.0
210
0.0
220
0.0
230
1.0
  0
TEXT
  8
11
  6
CONTINUOUS
 62
     7
  5
68
 10
965256.49
 20
7269779.074
 30
0.0
 40
8.0
  1
50'
 50
309.364628
  7
ROMANS
 72
     4
 11
965265.501988
 21
7269774.395435
 31
0.0
210
0.0
220
0.0
230
1.0
  0
TEXT
  8
11
  6
CONTINUOUS
 62
     7
  5
69
 10
966969.292
 20
7271479.931
 30
0.0
 40
8.0
  1
50'
 50
309.364628
  7
ROMANS
 72
     4
 11
966978.303988
 21
7271475.252435
 31
0.0
210
0.0
220
0.0
230
1.0
  0
TEXT
  8
11
  6
CONTINUOUS
 62
     7
  5
6A
 10
967002.734
 20
7271439.597
 30
0.0
 40
8.0
  1
50'
 50
309.364628
  7
ROMANS
 72
     4
 11
967011.745988
 21
7271434.918435
 31
0.0
210
0.0
220
0.0
230
1.0
  0
TEXT
  8
11
  6
CONTINUOUS
 62
     7
  5
6B
 10
967662.73
 20
7272118.671
 30
0.0
 40
8.0
  1
50'
 50
309.364628
  7
ROMANS
 72
     4
 11
967671.741988
 21
7272113.992435
 31
0.0
210
0.0
220
0.0
230
1.0
  0
TEXT
  8
11
  6
CONTINUOUS
 62
     7
  5
6C
 10
967705.474
 20
7272082.675
 30
0.0
 40
8.0
  1
50'
 50
309.364628
  7
ROMANS
 72
     4
 11
967714.485988
 21
7272077.996435
 31
0.0
210
0.0
220
0.0
230
1.0
  0
TEXT
  8
11
  6
CONTINUOUS
 62
     7
  5
6D
 10
968209.744
 20
7272621.586
 30
0.0
 40
8.0
  1
50'
 50
309.364628
  7
ROMANS
 72
     4
 11
968218.755988
 21
7272616.907435
 31
0.0
210
0.0
220
0.0
230
1.0
  0
TEXT
  8
11
  6
CONTINUOUS
 62
     7
  5
6E
 10
968244.335
 20
7272585.796
 30
0.0
 40
8.0
  1
50'
 50
309.364628
  7
ROMANS
 72
     4
 11
968253.346988
 21
7272581.117435
 31
0.0
210
0.0
220
0.0
230
1.0
  0
POLYLINE
  8
1
  6
HIDDEN
 62
   253
  5
70
 66
     1
 10
0.0
 20
0.0
 30
0.0
 70
     1
  0
VERTEX
  8
1
  6
HIDDEN
 62
   253
  5
71
 10
963081.687
 20
7267527.706
 30
0.0
  0
VERTEX
  8
1
  6
HIDDEN
 62
   253
  5
72
 10
968357.917
 20
7267360.305
 30
0.0
  0
VERTEX
  8
1
  6
HIDDEN
 62
   253
  5
73
 10
968502.529
 20
7272731.711
 30
0.0
  0
VERTEX
  8
1
  6
HIDDEN
 62
   253
  5
74
 10
963226.286
 20
7272892.235
 30
0.0
  0
SEQEND
  8
1
  6
HIDDEN
 62
   253
  5
75
  0
POLYLINE
  8
21
  6
DASHDOT
 62
     7
  5
77
 66
     1
 10
0.0
 20
0.0
 30
0.0
  0
VERTEX
  8
21
  6
DASHDOT
 62
     7
  5
78
 10
966325.782
 20
7270212.908
 30
0.0
  0
VERTEX
  8
21
  6
DASHDOT
 62
     7
  5
79
 10
966323.685
 20
7270152.945
 30
0.0
  0
VERTEX
  8
21
  6
DASHDOT
 62
     7
  5
7A
 10
966326.982
 20
7270152.834
 30
0.0
  0
VERTEX
  8
21
  6
DASHDOT
 62
     7
  5
7B
 10
966326.55
 20
7270140.471
 30
0.0
  0
VERTEX
  8
21
  6
DASHDOT
 62
     7
  5
7C
 10
966323.196
 20
7270139.136
 30
0.0
  0
VERTEX
  8
21
  6
DASHDOT
 62
     7
  5
7D
 10
966321.032
 20
7270077.245
 30
0.0
  0
VERTEX
  8
21
  6
DASHDOT
 62
     7
  5
7E
 10
966179.691
 20
7270082.023
 30
0.0
  0
SEQEND
  8
21
  6
DASHDOT
 62
     7
  5
7F
  0
TEXT
  8
22
  6
CONTINUOUS
 62
     3
  5
81
 10
965865.493
 20
7269882.857
 30
0.0
 40
6.0
  1
CONSTRUCTION AND OVERHEAD ELECTRIC UTILITY EASEMENT
 50
22.0659
  7
ROMANS
 72
     4
 11
966005.231417
 21
7269942.739142
 31
0.0
210
0.0
220
0.0
230
1.0
  0
TEXT
  8
22
  6
CONTINUOUS
 62
     3
  5
82
 10
966175.405
 20
7270005.002
 30
0.0
 40
6.0
  1
637.49'
 50
22.0659
  7
ROMANS
 72
     4
 11
966191.886277
 21
7270014.92004
 31
0.0
210
0.0
220
0.0
230
1.0
  0
TEXT
  8
22
  6
CONTINUOUS
 62
     3
  5
83
 10
966396.39
 20
7270136.807
 30
0.0
 40
6.0
  1
111.63'
 50
88.0659
  7
ROMANS
 72
     4
 11
966394.032959
 21
7270155.897426
 31
0.0
210
0.0
220
0.0
230
1.0
  0
TEXT
  8
22
  6
CONTINUOUS
 62
     3
  5
84
 10
966323.785
 20
7270186.778
 30
0.0
 40
6.0
  1
60'
 50
88.0659
  7
ROMANS
 72
     4
 11
966321.022959
 21
7270193.875262
 31
0.0
210
0.0
220
0.0
230
1.0
  0
TEXT
  8
22
  6
CONTINUOUS
 62
     3
  5
85
 10
966333.806
 20
7270131.697
 30
0.0
 40
6.0
  1
12.37'
 50
88.0659
  7
ROMANS
 72
     4
 11
966331.347709
 21
7270147.789135
 31
0.0
210
0.0
220
0.0
230
1.0
  0
TEXT
  8
22
  6
CONTINUOUS
 62
     3
  5
86
 10
966319.741
 20
7270088.597
 30
0.0
 40
6.0
  1
61.93'
 50
88.0659
  7
ROMANS
 72
     4
 11
966317.282709
 21
7270104.689135
 31
0.0
210
0.0
220
0.0
230
1.0
  0
TEXT
  8
22
  6
CONTINUOUS
 62
     3
  5
87
 10
966223.23
 20
7270082.107
 30
0.0
 40
6.0
  1
141.42'
 50
358.0659
  7
ROMANS
 72
     4
 11
966242.320426
 21
7270084.464041
 31
0.0
210
0.0
220
0.0
230
1.0
  0
TEXT
  8
22
  6
CONTINUOUS
 62
     3
  5
88
 10
965791.406
 20
7269881.09
 30
0.0
 40
6.0
  1
65.35'
 50
88.0659
  7
ROMANS
 72
     4
 11
965788.947709
 21
7269897.182135
 31
0.0
210
0.0
220
0.0
230
1.0
  0
TEXT
  8
22
  6
CONTINUOUS
 62
     3
  5
89
 10
967440.446
 20
7270230.114
 30
0.0
 40
6.0
  1
OVERHEAD ELECTRICAL TRANSMISSION LINE EASEMENT
 50
88.0659
  7
ROMANS
 72
     4
 11
967442.071459
 21
7270367.137202
 31
0.0
210
0.0
220
0.0
230
1.0
  0
TEXT
  8
13
  6
CONTINUOUS
 62
    14
  5
8B
 10
967454.098
 20
7270640.61
 30
0.0
 40
8.0
  1
V1853 P165
 50
88.0659
  7
ROMANS
 72
     4
 11
967451.394389
 21
7270679.067156
 31
0.0
210
0.0
220
0.0
230
1.0
  0
POLYLINE
  8
21
  6
DASHDOT
 62
     7
  5
8C
 66
     1
 10
0.0
 20
0.0
 30
0.0
  0
VERTEX
  8
21
  6
DASHDOT
 62
     7
  5
8D
 10
965787.141
 20
7267461.037
 30
0.0
  0
VERTEX
  8
21
  6
DASHDOT
 62
     7
  5
8E
 10
965961.543
 20
7267703.835
 30
0.0
  0
VERTEX
  8
21
  6
DASHDOT
 62
     7
  5
8F
 10
966372.978
 20
7267718.737
 30
0.0
  0
VERTEX
  8
21
  6
DASHDOT
 62
     7
  5
90
 10
966490.502
 20
7267633.618
 30
0.0
  0
VERTEX
  8
21
  6
DASHDOT
 62
     7
  5
91
 10
966680.004
 20
7267432.196
 30
0.0
  0
VERTEX
  8
21
  6
DASHDOT
 62
     7
  5
92
 10
966660.865
 20
7267407.973
 30
0.0
  0
VERTEX
  8
21
  6
DASHDOT
 62
     7
  5
93
 10
966467.618
 20
7267614.757
 30
0.0
  0
VERTEX
  8
21
  6
DASHDOT
 62
     7
  5
94
 10
966365.381
 20
7267687.579
 30
0.0
  0
VERTEX
  8
21
  6
DASHDOT
 62
     7
  5
95
 10
965974.952
 20
7267674.587
 30
0.0
  0
VERTEX
  8
21
  6
DASHDOT
 62
     7
  5
96
 10
965814.017
 20
7267443.115
 30
0.0
  0
VERTEX
  8
21
  6
DASHDOT
 62
     7
  5
97
 10
965789.755
 20
7267460.95
 30
0.0
  0
SEQEND
  8
21
  6
DASHDOT
 62
     7
  5
98
  0
TEXT
  8
13
  6
CONTINUOUS
 62
    14
  5
9A
 10
966248.895
 20
7267696.985
 30
0.0
 40
8.0
  1
V3324 P001
 50
1.5659
  7
txt
 72
     4
 11
966286.72352
 21
7267702.020609
 31
0.0
210
0.0
220
0.0
230
1.0
  0
TEXT
  8
22
  6
CONTINUOUS
 62
     3
  5
9B
 10
965981.23
 20
7267694.638
 30
0.0
 40
6.0
  1
30'UNDERGROUND SEWER
 50
1.5659
  7
txt
 72
     4
 11
966038.856461
 21
7267699.214451
 31
0.0
210
0.0
220
0.0
230
1.0
  0
TEXT
  8
22
  6
CONTINUOUS
 62
     3
  5
9C
 10
966003.077
 20
7267687.231
 30
0.0
 40
6.0
  1
LINE EASEMENT
 50
1.5659
  7
txt
 72
     4
 11
966039.073542
 21
7267691.216155
 31
0.0
210
0.0
220
0.0
230
1.0
  0
LINE
  8
6
  6
CONTINUOUS
 62
     7
  5
9D
 10
967026.692
 20
7272676.795
 30
0.0
 11
964984.829
 21
7272734.55
 31
0.0
  0
LINE
  8
6
  6
CONTINUOUS
 62
     7
  5
9E
 10
967026.267
 20
7272661.801
 30
0.0
 11
967026.692
 21
7272676.795
 31
0.0
  0
ARC
  8
6
  6
CONTINUOUS
 62
     7
  5
9F
 10
967673.938518
 20
7272567.522343
 30
0.0
 40
85.0
 50
86.209456
 51
184.065692
210
0.0
220
0.0
230
1.0
  0
TEXT
  8
11
  6
CONTINUOUS
 62
     7
  5
A0
 10
967576.787
 20
7272314.018
 30
0.0
 40
8.0
  1
323.2'
 50
271.049217
  7
ROMANS
 72
     1
 11
967577.177634
 21
7272292.688577
 31
0.0
210
0.0
220
0.0
230
1.0
  0
TEXT
  8
11
  6
CONTINUOUS
 62
     7
  5
A1
 10
967560.406
 20
7272334.73
 30
0.0
 40
8.0
  1
S02%%d59'00"E
 50
271.049217
  7
ROMANS
 72
     1
 11
967569.182887
 21
7272292.383616
 31
0.0
210
0.0
220
0.0
230
1.0
 73
     3
  0
POLYLINE
  8
21
  6
DASHDOT
 62
     7
  5
A2
 66
     1
 10
0.0
 20
0.0
 30
0.0
  0
VERTEX
  8
21
  6
DASHDOT
 62
     7
  5
A3
 10
967571.986
 20
7272522.596
 30
0.0
  0
VERTEX
  8
21
  6
DASHDOT
 62
     7
  5
A4
 10
967577.904
 20
7272199.451
 30
0.0
  0
VERTEX
  8
21
  6
DASHDOT
 62
     7
  5
A5
 10
967593.441
 20
7272182.602
 30
0.0
  0
VERTEX
  8
21
  6
DASHDOT
 62
     7
  5
A6
 10
967593.143
 20
7272198.95
 30
0.0
  0
VERTEX
  8
21
  6
DASHDOT
 62
     7
  5
A7
 10
967574.254
 20
7272543.752
 30
0.0
  0
SEQEND
  8
21
  6
DASHDOT
 62
     7
  5
A8
  0
TEXT
  8
13
  6
CONTINUOUS
 62
    14
  5
A9
 10
967581.033
 20
7272209.63
 30
0.0
 40
8.0
  1
V1853 P169
 50
358.0659
  7
txt
 72
     4
 11
967616.989581
 21
7272212.418054
 31
0.0
210
0.0
220
0.0
230
1.0
  0
TEXT
  8
22
  6
CONTINUOUS
 62
     3
  5
AA
 10
967579.447
 20
7272511.782
 30
0.0
 40
6.0
  1
OVERHEAD ELECTRICAL POWER TRANSMISSION EASEMENT
 50
273.0659
  7
txt
 72
     4
 11
967589.722109
 21
7272376.034261
 31
0.0
210
0.0
220
0.0
230
1.0
  0
TEXT
  8
11
  6
CONTINUOUS
 62
     7
  5
AB
 10
967583.45
 20
7272175.484
 30
0.0
 40
8.0
  1
S44%%d37'00"E
 50
312.682725
  7
ROMANS
 72
     1
 11
967618.14332
 21
7272149.664946
 31
0.0
210
0.0
220
0.0
230
1.0
 73
     3
  0
TEXT
  8
11
  6
CONTINUOUS
 62
     7
  5
AC
 10
967614.835
 20
7272165.053
 30
0.0
 40
8.0
  1
100'
 50
312.682725
  7
ROMANS
 72
     1
 11
967623.873948
 21
7272155.251658
 31
0.0
210
0.0
220
0.0
230
1.0
  0
TEXT
  8
11
  6
CONTINUOUS
 62
     7
  5
AD
 10
968120.096
 20
7272299.617
 30
0.0
 40
8.0
  1
1059.8'
 50
42.682544
  7
ROMANS
 72
     1
 11
968138.718825
 21
7272316.791146
 31
0.0
210
0.0
220
0.0
230
1.0
  0
TEXT
  8
11
  6
CONTINUOUS
 62
     7
  5
AE
 10
968118.162
 20
7272276.067
 30
0.0
 40
8.0
  1
S45%%d23'00"W
 50
42.682544
  7
ROMANS
 72
     1
 11
968144.248748
 21
7272311.007007
 31
0.0
210
0.0
220
0.0
230
1.0
 73
     3
  0
TEXT
  8
11
  6
CONTINUOUS
 62
     7
  5
AF
 10
967056.017
 20
7272215.643
 30
0.0
 40
8.0
  1
818.9'
 50
83.682617
  7
ROMANS
 72
     1
 11
967058.364395
 21
7272236.846458
 31
0.0
210
0.0
220
0.0
230
1.0
  0
TEXT
  8
11
  6
CONTINUOUS
 62
     7
  5
B0
 10
967069.569
 20
7272192.657
 30
0.0
 40
8.0
  1
S04%%d23'00"W
 50
83.682617
  7
ROMANS
 72
     1
 11
967066.334157
 21
7272236.141
 31
0.0
210
0.0
220
0.0
230
1.0
 73
     3
  0
TEXT
  8
11
  6
CONTINUOUS
 62
     7
  5
B1
 10
967067.468
 20
7271296.571
 30
0.0
 40
8.0
  1
S09%%d49'00"E
 50
277.882397
  7
ROMANS
 72
     1
 11
967081.220873
 21
7271255.569677
 31
0.0
210
0.0
220
0.0
230
1.0
 73
     3
  0
TEXT
  8
11
  6
CONTINUOUS
 62
     7
  5
B2
 10
967002.873
 20
7271646.689
 30
0.0
 40
8.0
  1
165.9'
 50
277.882397
  7
ROMANS
 72
     1
 11
967005.79875
 21
7271625.556571
 31
0.0
210
0.0
220
0.0
230
1.0
  0
TEXT
  8
11
  6
CONTINUOUS
 62
     7
  5
B3
 10
967060.421
 20
7271252.005
 30
0.0
 40
8.0
  1
625.1'
 50
277.882397
  7
ROMANS
 72
     1
 11
967063.34675
 21
7271230.872571
 31
0.0
210
0.0
220
0.0
230
1.0
  0
TEXT
  8
11
  6
CONTINUOUS
 62
     7
  5
B4
 10
964413.288
 20
7268981.855
 30
0.0
 40
8.0
  1
50'
 50
312.991356
  7
ROMANS
 72
     1
 11
964419.652743
 21
7268975.027584
 31
0.0
210
0.0
220
0.0
230
1.0
  0
TEXT
  8
11
  6
CONTINUOUS
 62
     7
  5
B5
 10
964308.247
 20
7269095.865
 30
0.0
 40
8.0
  1
50'
 50
312.991356
  7
ROMANS
 72
     1
 11
964314.611743
 21
7269089.037584
 31
0.0
210
0.0
220
0.0
230
1.0
  0
LINE
  8
6
  6
CONTINUOUS
 62
     7
  5
B6
 10
967680.622
 20
7271854.288
 30
0.0
 11
967465.803
 21
7270934.854
 31
0.0
  0
LINE
  8
6
  6
CONTINUOUS
 62
     7
  5
B7
 10
967342.85
 20
7267326.637
 30
0.0
 11
967451.993
 21
7270830.406
 31
0.0
  0
ARC
  8
6
  6
CONTINUOUS
 62
     7
  5
B8
 10
967989.791504
 20
7270812.428689
 30
0.0
 40
538.1
 50
166.849192
 51
178.085475
210
0.0
220
0.0
230
1.0
  0
TEXT
  8
11
  6
CONTINUOUS
 62
     7
  5
B9
 10
967382.493
 20
7269053.267
 30
0.0
 40
8.0
  1
3466'
 50
88.0659
  7
ROMANS
 72
     4
 11
967379.080268
 21
7269070.725126
 31
0.0
210
0.0
220
0.0
230
1.0
  0
LINE
  8
6
  6
CONTINUOUS
 62
     7
  5
BA
 10
967043.245
 20
7267337.171
 30
0.0
 11
967144.817
 21
7270869.041
 31
0.0
  0
TEXT
  8
11
  6
CONTINUOUS
 62
     7
  5
BB
 10
967066.595
 20
7269058.944
 30
0.0
 40
8.0
  1
3479'
 50
88.0659
  7
ROMANS
 72
     4
 11
967063.182268
 21
7269076.402126
 31
0.0
210
0.0
220
0.0
230
1.0
  0
ARC
  8
6
  6
CONTINUOUS
 62
     7
  5
BC
 10
967026.883918
 20
7272576.802454
 30
0.0
 40
85.0
 50
357.082756
 51
90.415358
210
0.0
220
0.0
230
1.0
  0
LINE
  8
27
  6
CONTINUOUS
 62
    32
  5
BE
 10
968376.75
 20
7272735.538
 30
0.0
 11
963083.764
 21
7267854.301
 31
0.0
  0
LINE
  8
6
  6
CONTINUOUS
 62
     7
  5
BF
 10
963292.125
 20
7272811.583
 30
0.0
 11
964585.677
 21
7272759.789
 31
0.0
  0
TEXT
  8
19
  6
CONTINUOUS
 62
     1
  5
C0
 10
965062.669
 20
7272706.291
 30
0.0
 40
24.0
  1
E 19TH ST
 50
358.0659
  7
ROMANC
 72
     4
 11
965173.650969
 21
7272714.550063
 31
0.0
210
0.0
220
0.0
230
1.0
  0
TEXT
  8
19
  6
CONTINUOUS
 62
     1
  5
C1
 10
966307.866
 20
7272664.242
 30
0.0
 40
24.0
  1
E 19TH ST
 50
358.0659
  7
ROMANC
 72
     4
 11
966418.847969
 21
7272672.501063
 31
0.0
210
0.0
220
0.0
230
1.0
  0
TEXT
  8
11
  6
CONTINUOUS
 62
     7
  5
C2
 10
967009.013
 20
7272660.536
 30
0.0
 40
8.0
  1
45'
 50
88.0659
  7
txt
 72
     4
 11
967005.346906
 21
7272670.491402
 31
0.0
210
0.0
220
0.0
230
1.0
  0
TEXT
  8
22
  6
CONTINUOUS
 62
     3
  5
C3
 10
966764.343
 20
7272697.444
 30
0.0
 40
6.0
  1
1123.42'
 50
358.0659
  7
txt
 72
     4
 11
966783.189565
 21
7272699.809276
 31
0.0
210
0.0
220
0.0
230
1.0
  0
TEXT
  8
22
  6
CONTINUOUS
 62
     3
  5
C4
 10
966764.412
 20
7272651.993
 30
0.0
 40
6.0
  1
1123.63'
 50
358.0659
  7
txt
 72
     4
 11
966782.974727
 21
7272654.367861
 31
0.0
210
0.0
220
0.0
230
1.0
  0
TEXT
  8
13
  6
CONTINUOUS
 62
    14
  5
C5
 10
966738.529
 20
7272668.228
 30
0.0
 40
8.0
  1
V1966 P966
 50
358.0659
  7
txt
 72
     4
 11
966774.955313
 21
7272671.000191
 31
0.0
210
0.0
220
0.0
230
1.0
  0
POLYLINE
  8
21
  6
DASHDOT
 62
     7
  5
C6
 66
     1
 10
0.0
 20
0.0
 30
0.0
 70
     1
  0
VERTEX
  8
21
  6
DASHDOT
 62
     7
  5
C7
 10
965903.721
 20
7272708.559
 30
0.0
  0
VERTEX
  8
21
  6
DASHDOT
 62
     7
  5
C8
 10
967026.692
 20
7272676.795
 30
0.0
  0
VERTEX
  8
21
  6
DASHDOT
 62
     7
  5
C9
 10
967025.42
 20
7272631.814
 30
0.0
  0
VERTEX
  8
21
  6
DASHDOT
 62
     7
  5
CA
 10
965902.24
 20
7272663.583
 30
0.0
  0
VERTEX
  8
21
  6
DASHDOT
 62
     7
  5
CB
 10
965903.347
 20
7272702.714
 30
0.0
  0
VERTEX
  8
21
  6
DASHDOT
 62
     7
  5
CC
 10
965903.721
 20
7272708.559
 30
0.0
  0
SEQEND
  8
21
  6
DASHDOT
 62
     7
  5
CD
  0
POLYLINE
  8
6
  6
CONTINUOUS
 62
     7
  5
CE
 66
     1
 10
0.0
 20
0.0
 30
0.0
  0
VERTEX
  8
6
  6
CONTINUOUS
 62
     7
  5
CF
 10
964421.481
 20
7269018.613
 30
0.0
  0
VERTEX
  8
6
  6
CONTINUOUS
 62
     7
  5
D0
 10
964455.358
 20
7268981.839
 30
0.0
  0
VERTEX
  8
6
  6
CONTINUOUS
 62
     7
  5
D1
 10
963529.018
 20
7268127.558
 30
0.0
  0
VERTEX
  8
6
  6
CONTINUOUS
 62
     7
  5
D2
 10
963610.756
 20
7268042.801
 30
0.0
  0
VERTEX
  8
6
  6
CONTINUOUS
 62
     7
  5
D3
 10
963073.425
 20
7267548.243
 30
0.0
  0
VERTEX
  8
6
  6
CONTINUOUS
 62
     7
  5
D4
 10
963076.653
 20
7267643.721
 30
0.0
  0
SEQEND
  8
6
  6
CONTINUOUS
 62
     7
  5
D5
  0
TEXT
  8
11
  6
CONTINUOUS
 62
     7
  5
D6
 10
963641.773
 20
7268237.963
 30
0.0
 40
8.0
  1
429.01'
 50
42.684
  7
ROMANS
 72
     1
 11
963660.395388
 21
7268255.137619
 31
0.0
210
0.0
220
0.0
230
1.0
  0
TEXT
  8
11
  6
CONTINUOUS
 62
     7
  5
D7
 10
963967.978
 20
7268171.772
 30
0.0
 40
8.0
  1
577.2'
 50
296.556892
  7
ROMANS
 72
     1
 11
963977.516137
 21
7268152.688932
 31
0.0
210
0.0
220
0.0
230
1.0
  0
TEXT
  8
11
  6
CONTINUOUS
 62
     7
  5
D8
 10
963879.873
 20
7267776.97
 30
0.0
 40
8.0
  1
391.73'
 50
26.556756
  7
ROMANS
 72
     1
 11
963902.533164
 21
7267788.295981
 31
0.0
210
0.0
220
0.0
230
1.0
  0
TEXT
  8
11
  6
CONTINUOUS
 62
     7
  5
D9
 10
963656.197
 20
7267900.071
 30
0.0
 40
8.0
  1
453.45'
 50
294.450003
  7
ROMANS
 72
     1
 11
963666.682304
 21
7267877.009793
 31
0.0
210
0.0
220
0.0
230
1.0
  0
POLYLINE
  8
21
  6
DASHDOT
 62
     7
  5
DA
 66
     1
 10
0.0
 20
0.0
 30
0.0
  0
VERTEX
  8
21
  6
DASHDOT
 62
     7
  5
DB
 10
967427.4
 20
7270790.476
 30
0.0
  0
VERTEX
  8
21
  6
DASHDOT
 62
     7
  5
DC
 10
967390.638
 20
7269672.94
 30
0.0
  0
VERTEX
  8
21
  6
DASHDOT
 62
     7
  5
DD
 10
967418.026
 20
7270011.223
 30
0.0
  0
VERTEX
  8
21
  6
DASHDOT
 62
     7
  5
DE
 10
967427.305
 20
7270293.271
 30
0.0
  0
VERTEX
  8
21
  6
DASHDOT
 62
     7
  5
DF
 10
967443.881
 20
7270842.77
 30
0.0
  0
VERTEX
  8
21
  6
DASHDOT
 62
     7
  5
E0
 10
967604.285
 20
7271525.017
 30
0.0
  0
VERTEX
  8
21
  6
DASHDOT
 62
     7
  5
E1
 10
967603.127
 20
7271588.247
 30
0.0
  0
VERTEX
  8
21
  6
DASHDOT
 62
     7
  5
E2
 10
967441.905
 20
7270898.21
 30
0.0
  0
VERTEX
  8
21
  6
DASHDOT
 62
     7
  5
E3
 10
967441.905282
 20
7270898.210621
 30
0.0
 42
0.050606
  0
VERTEX
  8
21
  6
DASHDOT
 62
     7
  5
E4
 10
967427.993614
 20
7270790.459771
 30
0.0
  0
SEQEND
  8
21
  6
DASHDOT
 62
     7
  5
E5
  0
TEXT
  8
11
  6
CONTINUOUS
 62
     7
  5
E6
 10
963088.375
 20
7267572.082
 30
0.0
 40
6.0
  1
200'
 50
88.0659
  7
txt
 72
     4
 11
963085.720284
 21
7267582.357451
 31
0.0
210
0.0
220
0.0
230
1.0
  0
TEXT
  8
22
  6
CONTINUOUS
 62
     3
  5
E7
 10
963094.476
 20
7267488.994
 30
0.0
 40
6.0
  1
RELEASED 15' UTILITY EASEMENT
 50
88.0659
  7
txt
 72
     4
 11
963094.124384
 21
7267567.470575
 31
0.0
210
0.0
220
0.0
230
1.0
  0
TEXT
  8
13
  6
CONTINUOUS
 62
    14
  5
E8
 10
963082.526
 20
7267476.926
 30
0.0
 40
8.0
  1
V3799 P121
 50
88.0659
  7
txt
 72
     4
 11
963079.73258
 21
7267512.723672
 31
0.0
210
0.0
220
0.0
230
1.0
  0
TEXT
  8
10
  6
CONTINUOUS
 62
   134
  5
EA
 10
964805.917
 20
7271262.004
 30
0.0
 40
13.999
  1
UNSUBDIVIDED
 50
358.0659
  7
ROMANS
210
0.0
220
0.0
230
1.0
  0
TEXT
  8
10
  6
CONTINUOUS
 62
   134
  5
EB
 10
965723.843
 20
7268548.924
 30
0.0
 40
13.999
  1
UNSUBDIVIDED
 50
358.0659
  7
ROMANS
210
0.0
220
0.0
230
1.0
  0
TEXT
  8
10
  6
CONTINUOUS
 62
   134
  5
EC
 10
967853.782
 20
7269515.683
 30
0.0
 40
13.999
  1
UNSUBDIVIDED
 50
358.0659
  7
ROMANS
210
0.0
220
0.0
230
1.0
  0
TEXT
  8
10
  6
CONTINUOUS
 62
   134
  5
ED
 10
967724.445
 20
7272422.674
 30
0.0
 40
13.999
  1
UNSUBDIVIDED
 50
358.0659
  7
ROMANS
210
0.0
220
0.0
230
1.0
  0
TEXT
  8
10
  6
CONTINUOUS
 62
   134
  5
EE
 10
963830.283
 20
7269461.934
 30
0.0
 40
13.999
  1
CITY PROPERTY
 50
358.0659
  7
txt
210
0.0
220
0.0
230
1.0
  0
LINE
  8
6
  6
CONTINUOUS
 62
     7
  5
EF
 10
964984.829
 20
7272734.55
 30
0.0
 11
964585.677
 21
7272759.789
 31
0.0
  0
LINE
  8
6
  6
CONTINUOUS
 62
     7
  5
F0
 10
963125.017
 20
7268172.501
 30
0.0
 11
963200.985
 21
7270142.856
 31
0.0
  0
LINE
  8
6
  6
CONTINUOUS
 62
     7
  5
F1
 10
963200.985
 20
7270142.856
 30
0.0
 11
965408.325
 21
7270065.244
 31
0.0
  0
LINE
  8
6
  6
CONTINUOUS
 62
     7
  5
F2
 10
964353.729
 20
7269092.162
 30
0.0
 11
964319.852
 21
7269128.936
 31
0.0
  0
LINE
  8
6
  6
CONTINUOUS
 62
     7
  5
F3
 10
964319.852
 20
7269128.936
 30
0.0
 11
963311.26
 21
7268199.831
 31
0.0
  0
LINE
  8
6
  6
CONTINUOUS
 62
     7
  5
F4
 10
963311.26
 20
7268199.831
 30
0.0
 11
963240.389
 21
7268280.355
 31
0.0
  0
LINE
  8
6
  6
CONTINUOUS
 62
     7
  5
F5
 10
963240.389
 20
7268280.355
 30
0.0
 11
963041.097
 21
7268096.566
 31
0.0
  0
LINE
  8
6
  6
CONTINUOUS
 62
     7
  5
F6
 10
963041.097
 20
7268096.566
 30
0.0
 11
963038.836
 21
7268028.848
 31
0.0
  0
LINE
  8
6
  6
CONTINUOUS
 62
     7
  5
F7
 10
963073.425
 20
7267548.243
 30
0.0
 11
963087.273
 21
7267734.941
 31
0.0
  0
LINE
  8
6
  6
CONTINUOUS
 62
     7
  5
F8
 10
967679.558
 20
7272652.336
 30
0.0
 11
968225.804
 21
7272664.351
 31
0.0
  0
LINE
  8
6
  6
CONTINUOUS
 62
     7
  5
F9
 10
968503.432
 20
7272663.019
 30
0.0
 11
968554.64
 21
7272661.81
 31
0.0
  0
TEXT
  8
10
  6
CONTINUOUS
 62
   134
  5
FA
 10
963700.736
 20
7267974.184
 30
0.0
 40
13.999
  1
CITY PROPERTY
 50
358.387225
  7
ROMANS
210
0.0
220
0.0
230
1.0
  0
TEXT
  8
28
  6
CONTINUOUS
 62
    32
  5
FC
 10
963760.119
 20
7268498.657
 30
0.0
 40
24.0
  1
BURLINGTON NORTHERN
 50
42.682514
  7
ROMANC
 72
     1
 11
963946.400266
 21
7268670.447173
 31
0.0
210
0.0
220
0.0
230
1.0
  0
TEXT
  8
28
  6
CONTINUOUS
 62
    32
  5
FD
 10
965859.643
 20
7270379.128
 30
0.0
 40
24.0
  1
BURLINGTON NORTHERN
 50
42.682514
  7
ROMANC
 72
     1
 11
966045.924266
 21
7270550.918173
 31
0.0
210
0.0
220
0.0
230
1.0
  0
TEXT
  8
22
  6
CONTINUOUS
 62
     3
  5
FE
 10
965944.11
 20
7269990.667
 30
0.0
 40
6.0
  1
413.9'
 50
22.0659
  7
ROMANS
 72
     4
 11
965957.81102
 21
7269999.458021
 31
0.0
210
0.0
220
0.0
230
1.0
  0
TEXT
  8
13
  6
CONTINUOUS
 62
    14
  5
FF
 10
965960.622
 20
7269963.876
 30
0.0
 40
8.0
  1
V6480 P134
 50
22.0659
  7
ROMANS
 72
     4
 11
965994.644508
 21
7269981.983674
 31
0.0
210
0.0
220
0.0
230
1.0
  0
POLYLINE
  8
21
  6
DASHDOT
 62
     7
  5
100
 66
     1
 10
0.0
 20
0.0
 30
0.0
  0
VERTEX
  8
21
  6
DASHDOT
 62
     7
  5
101
 10
966179.692
 20
7270082.018
 30
0.0
  0
VERTEX
  8
21
  6
DASHDOT
 62
     7
  5
102
 10
965795.131
 20
7269928.968
 30
0.0
  0
VERTEX
  8
21
  6
DASHDOT
 62
     7
  5
103
 10
965792.84
 20
7269863.477
 30
0.0
  0
VERTEX
  8
21
  6
DASHDOT
 62
     7
  5
104
 10
966329.238
 20
7270076.957
 30
0.0
  0
VERTEX
  8
21
  6
DASHDOT
 62
     7
  5
105
 10
966385.144
 20
7270099.207
 30
0.0
  0
VERTEX
  8
21
  6
DASHDOT
 62
     7
  5
106
 10
966389.046
 20
7270210.768
 30
0.0
  0
VERTEX
  8
21
  6
DASHDOT
 62
     7
  5
107
 10
966325.782
 20
7270212.908
 30
0.0
  0
SEQEND
  8
21
  6
DASHDOT
 62
     7
  5
108
  0
TEXT
  8
22
  6
CONTINUOUS
 62
     3
  5
109
 10
966343.231
 20
7270213.245
 30
0.0
 40
6.0
  1
63.3'
 50
358.0659
  7
ROMANS
 72
     4
 11
966356.324844
 21
7270215.804541
 31
0.0
210
0.0
220
0.0
230
1.0
  0
POLYLINE
  8
25
  6
CONTINUOUS
 62
   212
  5
10B
 66
     1
 10
0.0
 20
0.0
 30
0.0
 70
     1
  0
VERTEX
  8
25
  6
CONTINUOUS
 62
   212
  5
10C
 10
963085.019
 20
7267669.253
 30
0.0
  0
VERTEX
  8
25
  6
CONTINUOUS
 62
   212
  5
10D
 10
963092.514
 20
7267668.999
 30
0.0
  0
VERTEX
  8
25
  6
CONTINUOUS
 62
   212
  5
10E
 10
963085.765
 20
7267469.114
 30
0.0
  0
VERTEX
  8
25
  6
CONTINUOUS
 62
   212
  5
10F
 10
963070.773
 20
7267469.62
 30
0.0
  0
VERTEX
  8
25
  6
CONTINUOUS
 62
   212
  5
110
 10
963077.523
 20
7267669.507
 30
0.0
  0
SEQEND
  8
25
  6
CONTINUOUS
 62
   212
  5
111
  0
POLYLINE
  8
-1
  6
HIDDEN
 62
   253
  5
113
 66
     1
 10
0.0
 20
0.0
 30
0.0
 70
     1
  0
VERTEX
  8
-1
  6
HIDDEN
 62
   253
  5
114
 10
968357.917
 20
7267360.305
 30
0.0
  0
VERTEX
  8
-1
  6
HIDDEN
 62
   253
  5
115
 10
973639.606
 20
7267192.73
 30
0.0
  0
VERTEX
  8
-1
  6
HIDDEN
 62
   253
  5
116
 10
973788.963
 20
7272570.877
 30
0.0
  0
VERTEX
  8
-1
  6
HIDDEN
 62
   253
  5
117
 10
968502.529
 20
7272731.711
 30
0.0
  0
SEQEND
  8
-1
  6
HIDDEN
 62
   253
  5
118
  0
POLYLINE
  8
-6
  6
CONTINUOUS
 62
     7
  5
11A
 66
     1
 10
0.0
 20
0.0
 30
0.0
 70
     1
  0
VERTEX
  8
-6
  6
CONTINUOUS
 62
     7
  5
11B
 10
973634.283
 20
7267216.255
 30
0.0
  0
VERTEX
  8
-6
  6
CONTINUOUS
 62
     7
  5
11C
 10
970994.638
 20
7267278.594
 30
0.0
  0
VERTEX
  8
-6
  6
CONTINUOUS
 62
     7
  5
11D
 10
971117.246
 20
7272601.288
 30
0.0
  0
VERTEX
  8
-6
  6
CONTINUOUS
 62
     7
  5
11E
 10
973802.023
 20
7272537.881
 30
0.0
  0
SEQEND
  8
-6
  6
CONTINUOUS
 62
     7
  5
11F
  0
LINE
  8
-6
  6
CONTINUOUS
 62
     7
  5
120
 10
968355.003
 20
7267340.939
 30
0.0
 11
968493.669
 21
7270651.77
 31
0.0
  0
LINE
  8
-6
  6
CONTINUOUS
 62
     7
  5
121
 10
968493.669
 20
7270651.77
 30
0.0
 11
968523.661
 21
7270651.061
 31
0.0
  0
LINE
  8
-6
  6
CONTINUOUS
 62
     7
  5
122
 10
968523.661
 20
7270651.061
 30
0.0
 11
968557.096
 21
7272102.605
 31
0.0
  0
LINE
  8
-6
  6
CONTINUOUS
 62
     7
  5
123
 10
968557.096
 20
7272102.605
 30
0.0
 11
969124.348
 21
7272648.355
 31
0.0
  0
LINE
  8
-6
  6
CONTINUOUS
 62
     7
  5
124
 10
969124.348
 20
7272648.355
 30
0.0
 11
971117.246
 21
7272601.288
 31
0.0
  0
LINE
  8
-6
  6
CONTINUOUS
 62
     7
  5
125
 10
971117.246
 20
7272601.288
 30
0.0
 11
970994.638
 21
7267278.594
 31
0.0
  0
LINE
  8
-6
  6
CONTINUOUS
 62
     7
  5
126
 10
970994.638
 20
7267278.594
 30
0.0
 11
968354.995
 21
7267340.934
 31
0.0
  0
TEXT
  8
-13
  6
CONTINUOUS
 62
    14
  5
128
 10
969708.593
 20
7269936.579
 30
0.0
 40
8.0
  1
V3030 P104
 50
358.5935
  7
txt
 72
     4
 11
969746.379824
 21
7269939.652426
 31
0.0
210
0.0
220
0.0
230
1.0
  0
TEXT
  8
-13
  6
CONTINUOUS
 62
    14
  5
129
 10
972351.641
 20
7269865.78
 30
0.0
 40
8.0
  1
V2958 P171
 50
358.5935
  7
txt
 72
     4
 11
972387.790317
 21
7269868.893632
 31
0.0
210
0.0
220
0.0
230
1.0
  0
TEXT
  8
-19
  6
CONTINUOUS
 62
     1
  5
12B
 10
969711.898
 20
7272547.995
 30
0.0
 40
24.0
  1
E 19TH ST
 50
358.5935
  7
ROMANC
 72
     4
 11
969822.799213
 21
7272557.27566
 31
0.0
210
0.0
220
0.0
230
1.0
  0
TEXT
  8
-19
  6
CONTINUOUS
 62
     1
  5
12C
 10
972400.121
 20
7272481.991
 30
0.0
 40
24.0
  1
E 19TH ST
 50
358.5935
  7
ROMANC
 72
     4
 11
972511.022213
 21
7272491.27166
 31
0.0
210
0.0
220
0.0
230
1.0
  0
TEXT
  8
-19
  6
CONTINUOUS
 62
     1
  5
12D
 10
968561.817
 20
7271254.841
 30
0.0
 40
24.0
  1
OLIVE AVE
 50
88.5935
  7
ROMANC
 72
     4
 11
968552.547901
 21
7271366.213071
 31
0.0
210
0.0
220
0.0
230
1.0
  0
LINE
  8
-6
  6
CONTINUOUS
 62
     7
  5
12E
 10
968554.64
 20
7272661.81
 30
0.0
 11
969124.348
 21
7272648.355
 31
0.0
  0
TEXT
  8
-10
  6
CONTINUOUS
 62
   134
  5
130
 10
971104.569
 20
7269812.03
 30
0.0
 40
13.999
  1
UNSUBDIVIDED
 50
358.5935
  7
ROMANS
210
0.0
220
0.0
230
1.0
  0
LINE
  8
-58
  6
DIVIDE
 62
   216
  5
132
 10
968504.958
 20
7267337.257
 30
0.0
 11
968696.864
 21
7272611.476
 31
0.0
  0
ENDSEC
  0
EOF
