  0
SECTION
  2
HEADER
  9
$ACADVER
  1
AC1009
  9
$INSBASE
 10
0.0
 20
0.0
 30
0.0
  9
$EXTMIN
 10
963582.164
 20
7283260.105
 30
0.0
  9
$EXTMAX
 10
969037.856
 20
7288701.845
 30
0.0
  9
$LIMMIN
 10
0.0
 20
0.0
  9
$LIMMAX
 10
12.0
 20
9.0
  9
$ORTHOMODE
 70
     0
  9
$REGENMODE
 70
     1
  9
$FILLMODE
 70
     1
  9
$QTEXTMODE
 70
     0
  9
$MIRRTEXT
 70
     1
  9
$DRAGMODE
 70
     2
  9
$LTSCALE
 40
1.0
  9
$OSMODE
 70
     0
  9
$ATTMODE
 70
     1
  9
$TEXTSIZE
 40
0.2
  9
$TRACEWID
 40
0.05
  9
$TEXTSTYLE
  7
STANDARD
  9
$CLAYER
  8
0
  9
$CELTYPE
  6
CONTINUOUS
  9
$CECOLOR
 62
   256
  9
$DIMSCALE
 40
1.0
  9
$DIMASZ
 40
0.18
  9
$DIMEXO
 40
0.0625
  9
$DIMDLI
 40
0.38
  9
$DIMRND
 40
0.0
  9
$DIMDLE
 40
0.0
  9
$DIMEXE
 40
0.18
  9
$DIMTP
 40
0.0
  9
$DIMTM
 40
0.0
  9
$DIMTXT
 40
0.18
  9
$DIMCEN
 40
0.09
  9
$DIMTSZ
 40
0.0
  9
$DIMTOL
 70
     0
  9
$DIMLIM
 70
     0
  9
$DIMTIH
 70
     1
  9
$DIMTOH
 70
     1
  9
$DIMSE1
 70
     0
  9
$DIMSE2
 70
     0
  9
$DIMTAD
 70
     0
  9
$DIMZIN
 70
     0
  9
$DIMBLK
  1

  9
$DIMASO
 70
     1
  9
$DIMSHO
 70
     1
  9
$DIMPOST
  1

  9
$DIMAPOST
  1

  9
$DIMALT
 70
     0
  9
$DIMALTD
 70
     2
  9
$DIMALTF
 40
25.4
  9
$DIMLFAC
 40
1.0
  9
$DIMTOFL
 70
     0
  9
$DIMTVP
 40
0.0
  9
$DIMTIX
 70
     0
  9
$DIMSOXD
 70
     0
  9
$DIMSAH
 70
     0
  9
$DIMBLK1
  1

  9
$DIMBLK2
  1

  9
$DIMSTYLE
  2
STANDARD
  9
$DIMCLRD
 70
     0
  9
$DIMCLRE
 70
     0
  9
$DIMCLRT
 70
     0
  9
$DIMTFAC
 40
1.0
  9
$DIMGAP
 40
0.09
  9
$LUNITS
 70
     2
  9
$LUPREC
 70
     4
  9
$AXISMODE
 70
     0
  9
$AXISUNIT
 10
0.0
 20
0.0
  9
$SKETCHINC
 40
0.1
  9
$FILLETRAD
 40
0.0
  9
$AUNITS
 70
     0
  9
$AUPREC
 70
     0
  9
$MENU
  1
acad
  9
$ELEVATION
 40
0.0
  9
$PELEVATION
 40
0.0
  9
$THICKNESS
 40
0.0
  9
$LIMCHECK
 70
     0
  9
$BLIPMODE
 70
     1
  9
$CHAMFERA
 40
0.0
  9
$CHAMFERB
 40
0.0
  9
$SKPOLY
 70
     0
  9
$TDCREATE
 40
2453013.902037037
  9
$TDUPDATE
 40
2453013.902037037
  9
$TDINDWG
 40
0.0000000000
  9
$TDUSRTIMER
 40
0.0000000000
  9
$USRTIMER
 70
     1
  9
$ANGBASE
 50
0.0
  9
$ANGDIR
 70
     0
  9
$PDMODE
 70
     0
  9
$PDSIZE
 40
0.0
  9
$PLINEWID
 40
0.0
  9
$COORDS
 70
     0
  9
$SPLFRAME
 70
     0
  9
$SPLINETYPE
 70
     6
  9
$SPLINESEGS
 70
    10
  9
$ATTDIA
 70
     0
  9
$ATTREQ
 70
     1
  9
$HANDLING
 70
     1
  9
$HANDSEED
  5
92
  9
$SURFTAB1
 70
     6
  9
$SURFTAB2
 70
     6
  9
$SURFTYPE
 70
     6
  9
$SURFU
 70
     6
  9
$SURFV
 70
     6
  9
$UCSNAME
  2

  9
$UCSORG
 10
0.0
 20
0.0
 30
0.0
  9
$UCSXDIR
 10
1.0
 20
0.0
 30
0.0
  9
$UCSYDIR
 10
0.0
 20
1.0
 30
0.0
  9
$PUCSNAME
  2

  9
$PUCSORG
 10
0.0
 20
0.0
 30
0.0
  9
$PUCSXDIR
 10
1.0
 20
0.0
 30
0.0
  9
$PUCSYDIR
 10
0.0
 20
1.0
 30
0.0
  9
$USERI1
 70
     0
  9
$USERI2
 70
     0
  9
$USERI3
 70
     0
  9
$USERI4
 70
     0
  9
$USERI5
 70
     0
  9
$USERR1
 40
0.0
  9
$USERR2
 40
0.0
  9
$USERR3
 40
0.0
  9
$USERR4
 40
0.0
  9
$USERR5
 40
0.0
  9
$WORLDVIEW
 70
     1
  9
$SHADEDGE
 70
     3
  9
$SHADEDIF
 70
    70
  9
$TILEMODE
 70
     1
  9
$MAXACTVP
 70
    16
  9
$PINSBASE
 10
0.0
 20
0.0
 30
0.0
  9
$PLIMCHECK
 70
     0
  9
$PEXTMIN
 10
-1.000000E+20
 20
-1.000000E+20
 30
-1.000000E+20
  9
$PEXTMAX
 10
-1.000000E+20
 20
-1.000000E+20
 30
-1.000000E+20
  9
$PLIMMIN
 10
0.0
 20
0.0
  9
$PLIMMAX
 10
12.0
 20
9.0
  9
$UNITMODE
 70
     0
  9
$VISRETAIN
 70
     0
  9
$PLINEGEN
 70
     1
  9
$PSLTSCALE
 70
     0
  9
$TREEDEPTH
 70
  3020
  9
$DWGCODEPAGE
  3
ansi_1252
  0
ENDSEC
  0
SECTION
  2
TABLES
  0
TABLE
  2
VPORT
 70
     1
  0
VPORT
  2
*ACTIVE
 70
     0
 10
0.0
 20
0.0
 11
1.0
 21
1.0
 12
0.0
 22
0.0
 13
0.0
 23
0.0
 14
0.0
 24
0.0
 15
0.0
 25
0.0
 16
0.0
 26
0.0
 36
1.0
 17
965999.113624
 27
7285911.978789
 37
0.0
 40
5517.597
 41
1.196477
 42
50.0
 43
0.004
 44
0.0
 50
1.720975
 51
0.0
 71
     0
 72
   100
 73
     1
 74
     0
 75
     0
 76
     0
 77
     0
 78
     0
  0
ENDTAB
  0
TABLE
  2
LTYPE
 70
     7
  0
LTYPE
  2
CONTINUOUS
 70
     0
  3
Solid line
 72
    65
 73
     0
 40
0.0
  0
LTYPE
  2
DOT
 70
    64
  3
. . . . . . . . . . . . . . . . . . . . . . . . . . . . . . . . .
 72
    65
 73
     2
 40
0.25
 49
0.0
 49
-0.25
  0
LTYPE
  2
HIDDEN
 70
    64
  3
__ __ __ __ __ __ __ __ __ __ __ __ __ __ __ __ __ __ __ __ __ 
 72
    65
 73
     2
 40
0.375
 49
0.25
 49
-0.125
  0
LTYPE
  2
DASHED
 70
    64
  3
__ __ __ __ __ __ __ __ __ __ __ __ __ __ __ __ __ __ __ __ __
 72
    65
 73
     2
 40
0.75
 49
0.5
 49
-0.25
  0
LTYPE
  2
DASHDOT
 70
    64
  3
__ . __ . __ . __ . __ . __ . __ . __ . __ . __ . __ . __ . _
 72
    65
 73
     4
 40
1.0
 49
0.5
 49
-0.25
 49
0.0
 49
-0.25
  0
LTYPE
  2
DIVIDE
 70
    64
  3
____ . . ____ . . ____ . . ____ . . ____ . . ____ . . ____ . .
 72
    65
 73
     6
 40
1.25
 49
0.5
 49
-0.25
 49
0.0
 49
-0.25
 49
0.0
 49
-0.25
  0
LTYPE
  2
CENTER
 70
    64
  3
____ _ ____ _ ____ _ ____ _ ____ _ ____ _ ____ _ ____ _ ____ _
 72
    65
 73
     4
 40
2.0
 49
1.25
 49
-0.25
 49
0.25
 49
-0.25
  0
ENDTAB
  0
TABLE
  2
LAYER
 70
    14
  0
LAYER
  2
0
 70
     0
 62
     7
  6
CONTINUOUS
  0
LAYER
  2
CONSTRUCTION_CLASS
 70
     1
 62
     7
  6
CONTINUOUS
  0
LAYER
  2
PATTERN_CLASS
 70
     0
 62
     7
  6
CONTINUOUS
  0
LAYER
  2
6
 70
    64
 62
     7
  6
CONTINUOUS
  0
LAYER
  2
27
 70
    64
 62
     7
  6
CONTINUOUS
  0
LAYER
  2
19
 70
    64
 62
     7
  6
CONTINUOUS
  0
LAYER
  2
11
 70
    64
 62
     7
  6
CONTINUOUS
  0
LAYER
  2
1
 70
    64
 62
     7
  6
CONTINUOUS
  0
LAYER
  2
21
 70
    64
 62
     7
  6
CONTINUOUS
  0
LAYER
  2
22
 70
    64
 62
     7
  6
CONTINUOUS
  0
LAYER
  2
13
 70
    64
 62
     7
  6
CONTINUOUS
  0
LAYER
  2
10
 70
    64
 62
     7
  6
CONTINUOUS
  0
LAYER
  2
28
 70
    64
 62
     7
  6
CONTINUOUS
  0
LAYER
  2
15
 70
    64
 62
     7
  6
CONTINUOUS
  0
ENDTAB
  0
TABLE
  2
STYLE
 70
     4
  0
STYLE
  2
STANDARD
 70
     0
 40
0.0
 41
1.0
 50
0.0
 71
     0
 42
0.0
  3
txt
  4

  0
STYLE
  2
ROMANC
 70
     0
 40
0.2
 41
1.0
 50
0.0
 71
     0
 42
0.2
  3
ROMANC
  4

  0
STYLE
  2
ROMANS
 70
     0
 40
0.2
 41
1.0
 50
0.0
 71
     0
 42
0.2
  3
ROMANS
  4

  0
STYLE
  2
txt
 70
     0
 40
0.2
 41
1.0
 50
0.0
 71
     0
 42
0.2
  3
TXT
  4

  0
ENDTAB
  0
TABLE
  2
VIEW
 70
     0
  0
ENDTAB
  0
TABLE
  2
UCS
 70
     0
  0
ENDTAB
  0
TABLE
  2
APPID
 70
     1
  0
APPID
  2
ACAD
 70
     0
  0
ENDTAB
  0
TABLE
  2
DIMSTYLE
 70
     1
  0
DIMSTYLE
  2
STANDARD
 70
     0
  3

  4

  5

  6

  7

 40
1.0
 41
0.18
 42
0.0625
 43
0.38
 44
0.18
 45
0.0
 46
0.0
 47
0.0
 48
0.0
140
0.18
141
0.09
142
0.0
143
25.4
144
1.0
145
0.0
146
1.0
147
0.09
 71
     0
 72
     0
 73
     1
 74
     1
 75
     0
 76
     0
 77
     0
 78
     0
170
     0
171
     2
172
     0
173
     0
174
     0
175
     0
176
     0
177
     0
178
     0
  0
ENDTAB
  0
ENDSEC
  0
SECTION
  2
BLOCKS
  0
ENDSEC
  0
SECTION
  2
ENTITIES
  0
LINE
  8
6
  6
CONTINUOUS
 62
     7
  5
29
 10
963582.164
 20
7283835.162
 30
0.0
 11
963936.582
 21
7283443.537
 31
0.0
  0
LINE
  8
27
  6
CONTINUOUS
 62
    32
  5
2B
 10
963642.151
 20
7288320.626
 30
0.0
 11
964477.551
 21
7288679.725
 31
0.0
  0
TEXT
  8
19
  6
CONTINUOUS
 62
     1
  5
2E
 10
963774.842
 20
7283785.941
 30
0.0
 40
24.0
  1
LOOP 289
 50
312.318772
  7
ROMANC
210
0.0
220
0.0
230
1.0
  0
TEXT
  8
11
  6
CONTINUOUS
 62
     7
  5
31
 10
963731.374
 20
7283397.414
 30
0.0
 40
8.0
  1
393.6'
 50
358.5646
  7
ROMANS
210
0.0
220
0.0
230
1.0
  0
TEXT
  8
11
  6
CONTINUOUS
 62
     7
  5
32
 10
964151.073
 20
7283386.897
 30
0.0
 40
8.0
  1
415.6'
 50
358.5646
  7
ROMANS
210
0.0
220
0.0
230
1.0
  0
TEXT
  8
11
  6
CONTINUOUS
 62
     7
  5
33
 10
963616.614
 20
7283552.763
 30
0.0
 40
8.0
  1
411.1'
 50
88.5646
  7
ROMANS
210
0.0
220
0.0
230
1.0
  0
TEXT
  8
11
  6
CONTINUOUS
 62
     7
  5
34
 10
963628.024
 20
7284008.118
 30
0.0
 40
8.0
  1
434'
 50
88.5646
  7
ROMANS
210
0.0
220
0.0
230
1.0
  0
TEXT
  8
11
  6
CONTINUOUS
 62
     7
  5
35
 10
963786.98
 20
7283611.923
 30
0.0
 40
8.0
  1
530'
 50
312.318772
  7
ROMANS
210
0.0
220
0.0
230
1.0
  0
TEXT
  8
11
  6
CONTINUOUS
 62
     7
  5
36
 10
963980.38
 20
7283845.847
 30
0.0
 40
8.0
  1
1171.2'
 50
312.356767
  7
ROMANS
210
0.0
220
0.0
230
1.0
  0
TEXT
  8
11
  6
CONTINUOUS
 62
     7
  5
37
 10
968793.029
 20
7283265.956
 30
0.0
 40
8.0
  1
174.9'
 50
358.5646
  7
ROMANS
210
0.0
220
0.0
230
1.0
  0
TEXT
  8
11
  6
CONTINUOUS
 62
     7
  5
38
 10
968889.417
 20
7283305.994
 30
0.0
 40
8.0
  1
119.9
 50
88.5646
  7
ROMANS
210
0.0
220
0.0
230
1.0
  0
TEXT
  8
11
  6
CONTINUOUS
 62
     7
  5
39
 10
963739.198
 20
7288562.868
 30
0.0
 40
8.0
  1
197'
 50
88.5646
  7
ROMANS
 72
     4
 11
963735.53327
 21
7288576.298015
 31
0.0
210
0.0
220
0.0
230
1.0
  0
TEXT
  8
11
  6
CONTINUOUS
 62
     7
  5
3A
 10
963926.562
 20
7288653.189
 30
0.0
 40
8.0
  1
418'
 50
358.5646
  7
ROMANS
 72
     4
 11
963939.992015
 21
7288656.85373
 31
0.0
210
0.0
220
0.0
230
1.0
  0
LINE
  8
6
  6
CONTINUOUS
 62
     7
  5
3B
 10
963645.046
 20
7284211.47
 30
0.0
 11
963729.15
 21
7288180.087
 31
0.0
  0
LINE
  8
6
  6
CONTINUOUS
 62
     7
  5
3C
 10
963672.2
 20
7288154.772
 30
0.0
 11
964829.4
 21
7288669.153
 31
0.0
  0
LINE
  8
6
  6
CONTINUOUS
 62
     7
  5
3D
 10
963733.974
 20
7288407.737
 30
0.0
 11
963741.344
 21
7288701.845
 31
0.0
  0
LINE
  8
6
  6
CONTINUOUS
 62
     7
  5
3E
 10
963643.386
 20
7288366.476
 30
0.0
 11
964358.528
 21
7288683.301
 31
0.0
  0
TEXT
  8
11
  6
CONTINUOUS
 62
     7
  5
3F
 10
963912.147
 20
7288496.317
 30
0.0
 40
8.0
  1
462'
 50
23.469369
  7
ROMANS
 72
     1
 11
963924.377002
 21
7288501.626984
 31
0.0
210
0.0
220
0.0
230
1.0
  0
LINE
  8
6
  6
CONTINUOUS
 62
     7
  5
40
 10
964354.844
 20
7283430.843
 30
0.0
 11
963590.048
 21
7284271.582
 31
0.0
  0
POLYLINE
  8
1
  6
HIDDEN
 62
   253
  5
42
 66
     1
 10
0.0
 20
0.0
 30
0.0
 70
     1
  0
VERTEX
  8
1
  6
HIDDEN
 62
   253
  5
43
 10
963603.408
 20
7283422.707
 30
0.0
  0
VERTEX
  8
1
  6
HIDDEN
 62
   253
  5
44
 10
968876.217
 20
7283260.105
 30
0.0
  0
VERTEX
  8
1
  6
HIDDEN
 62
   253
  5
45
 10
969037.856
 20
7288501.648
 30
0.0
  0
VERTEX
  8
1
  6
HIDDEN
 62
   253
  5
46
 10
963726.504
 20
7288639.55
 30
0.0
  0
SEQEND
  8
1
  6
HIDDEN
 62
   253
  5
47
  0
LINE
  8
6
  6
CONTINUOUS
 62
     7
  5
48
 10
968876.176
 20
7283354.856
 30
0.0
 11
968879.182
 21
7283474.818
 31
0.0
  0
LINE
  8
6
  6
CONTINUOUS
 62
     7
  5
49
 10
968642.62
 20
7283285.685
 30
0.0
 11
968799.321
 21
7283281.758
 31
0.0
  0
LINE
  8
6
  6
CONTINUOUS
 62
     7
  5
4A
 10
968799.321
 20
7283281.758
 30
0.0
 11
968876.176
 21
7283354.856
 31
0.0
  0
LINE
  8
6
  6
CONTINUOUS
 62
     7
  5
4B
 10
968642.62
 20
7283285.685
 30
0.0
 11
968647.504
 21
7283480.623
 31
0.0
  0
LINE
  8
6
  6
CONTINUOUS
 62
     7
  5
4C
 10
968647.504
 20
7283480.623
 30
0.0
 11
968879.182
 21
7283474.818
 31
0.0
  0
LINE
  8
6
  6
CONTINUOUS
 62
     7
  5
4D
 10
964295.985
 20
7283495.215
 30
0.0
 11
964510.657
 21
7283489.836
 31
0.0
  0
LINE
  8
6
  6
CONTINUOUS
 62
     7
  5
4E
 10
964510.657
 20
7283489.836
 30
0.0
 11
964511.91
 21
7283539.85
 31
0.0
  0
LINE
  8
6
  6
CONTINUOUS
 62
     7
  5
4F
 10
964511.91
 20
7283539.85
 30
0.0
 11
964249.289
 21
7283546.431
 31
0.0
  0
TEXT
  8
11
  6
CONTINUOUS
 62
     7
  5
50
 10
964359.253
 20
7283545.868
 30
0.0
 40
8.0
  1
264.23'
 50
358.5646
  7
ROMANS
 72
     4
 11
964384.67925
 21
7283549.232132
 31
0.0
210
0.0
220
0.0
230
1.0
  0
TEXT
  8
11
  6
CONTINUOUS
 62
     7
  5
51
 10
964383.931
 20
7283482.171
 30
0.0
 40
8.0
  1
214.74'
 50
358.5646
  7
ROMANS
 72
     4
 11
964409.35725
 21
7283485.535132
 31
0.0
210
0.0
220
0.0
230
1.0
  0
TEXT
  8
11
  6
CONTINUOUS
 62
     7
  5
52
 10
964265.455
 20
7283533.151
 30
0.0
 40
8.0
  1
69.05'
 50
312.356767
  7
ROMANS
 72
     1
 11
964279.828002
 21
7283517.386682
 31
0.0
210
0.0
220
0.0
230
1.0
  0
TEXT
  8
11
  6
CONTINUOUS
 62
     7
  5
53
 10
964522.988
 20
7283494.64
 30
0.0
 40
8.0
  1
50.03'
 50
88.5646
  7
ROMANS
 72
     1
 11
964523.522413
 21
7283515.967305
 31
0.0
210
0.0
220
0.0
230
1.0
  0
POLYLINE
  8
21
  6
DASHDOT
 62
     7
  5
55
 66
     1
 10
0.0
 20
0.0
 30
0.0
  0
VERTEX
  8
21
  6
DASHDOT
 62
     7
  5
56
 10
966303.568
 20
7285965.486
 30
0.0
  0
VERTEX
  8
21
  6
DASHDOT
 62
     7
  5
57
 10
966369.75
 20
7288606.657
 30
0.0
  0
VERTEX
  8
21
  6
DASHDOT
 62
     7
  5
58
 10
966379.747
 20
7288606.429
 30
0.0
  0
VERTEX
  8
21
  6
DASHDOT
 62
     7
  5
59
 10
966313.565
 20
7285965.258
 30
0.0
  0
VERTEX
  8
21
  6
DASHDOT
 62
     7
  5
5A
 10
966303.569
 20
7285965.509
 30
0.0
  0
SEQEND
  8
21
  6
DASHDOT
 62
     7
  5
5B
  0
TEXT
  8
22
  6
CONTINUOUS
 62
     3
  5
5E
 10
966337.795
 20
7287480.926
 30
0.0
 40
6.0
  1
SANITARY SEWER LINE EASEMENT
 50
88.5646
  7
txt
 72
     4
 11
966336.821897
 21
7287561.852771
 31
0.0
210
0.0
220
0.0
230
1.0
  0
TEXT
  8
13
  6
CONTINUOUS
 62
    14
  5
60
 10
966346.309
 20
7287279.215
 30
0.0
 40
8.0
  1
V3633 P094
 50
88.5646
  7
txt
 72
     4
 11
966343.283015
 21
7287318.136014
 31
0.0
210
0.0
220
0.0
230
1.0
  0
TEXT
  8
22
  6
CONTINUOUS
 62
     3
  5
61
 10
966356.682
 20
7288234.638
 30
0.0
 40
6.0
  1
SANITARY SEWER LINE EASEMENT
 50
88.5646
  7
txt
 72
     4
 11
966355.708897
 21
7288315.564771
 31
0.0
210
0.0
220
0.0
230
1.0
  0
TEXT
  8
22
  6
CONTINUOUS
 62
     3
  5
62
 10
966305.059
 20
7286174.491
 30
0.0
 40
6.0
  1
SANITARY SEWER LINE EASEMENT
 50
88.5646
  7
txt
 72
     4
 11
966304.085897
 21
7286255.417771
 31
0.0
210
0.0
220
0.0
230
1.0
  0
POLYLINE
  8
21
  6
DASHDOT
 62
     7
  5
63
 66
     1
 10
0.0
 20
0.0
 30
0.0
 70
     1
  0
VERTEX
  8
21
  6
DASHDOT
 62
     7
  5
64
 10
966237.436
 20
7283326.314
 30
0.0
  0
VERTEX
  8
21
  6
DASHDOT
 62
     7
  5
65
 10
966227.438
 20
7283326.503
 30
0.0
  0
VERTEX
  8
21
  6
DASHDOT
 62
     7
  5
66
 10
966293.62
 20
7285967.674
 30
0.0
  0
VERTEX
  8
21
  6
DASHDOT
 62
     7
  5
67
 10
966303.618
 20
7285967.485
 30
0.0
  0
SEQEND
  8
21
  6
DASHDOT
 62
     7
  5
68
  0
TEXT
  8
13
  6
CONTINUOUS
 62
    14
  5
69
 10
966280.372
 20
7285095.257
 30
0.0
 40
8.0
  1
V3642 P073
 50
88.5646
  7
txt
 72
     4
 11
966277.351551
 21
7285134.398944
 31
0.0
210
0.0
220
0.0
230
1.0
  0
TEXT
  8
22
  6
CONTINUOUS
 62
     3
  5
6A
 10
966261.208
 20
7284789.139
 30
0.0
 40
6.0
  1
10'SANITARY SEWER LINE EASEMENT
 50
88.5646
  7
txt
 72
     4
 11
966260.388728
 21
7284876.204844
 31
0.0
210
0.0
220
0.0
230
1.0
  0
TEXT
  8
22
  6
CONTINUOUS
 62
     3
  5
6B
 10
966229.988
 20
7283543.206
 30
0.0
 40
6.0
  1
10'SANITARY SEWER LINE EASEMENT
 50
88.5646
  7
txt
 72
     4
 11
966229.168728
 21
7283630.271844
 31
0.0
210
0.0
220
0.0
230
1.0
  0
POLYLINE
  8
21
  6
DASHDOT
 62
     7
  5
6C
 66
     1
 10
0.0
 20
0.0
 30
0.0
 70
     1
  0
VERTEX
  8
21
  6
DASHDOT
 62
     7
  5
6D
 10
963729.231
 20
7288619.305
 30
0.0
  0
VERTEX
  8
21
  6
DASHDOT
 62
     7
  5
6E
 10
964072.643
 20
7288610.7
 30
0.0
  0
VERTEX
  8
21
  6
DASHDOT
 62
     7
  5
6F
 10
964147.968
 20
7288643.281
 30
0.0
  0
VERTEX
  8
21
  6
DASHDOT
 62
     7
  5
70
 10
964147.693
 20
7288632.265
 30
0.0
  0
VERTEX
  8
21
  6
DASHDOT
 62
     7
  5
71
 10
964074.596
 20
7288600.649
 30
0.0
  0
VERTEX
  8
21
  6
DASHDOT
 62
     7
  5
72
 10
963728.985
 20
7288609.308
 30
0.0
  0
VERTEX
  8
21
  6
DASHDOT
 62
     7
  5
73
 10
963729.238
 20
7288619.305
 30
0.0
  0
VERTEX
  8
21
  6
DASHDOT
 62
     7
  5
74
 10
963729.231
 20
7288619.305
 30
0.0
  0
SEQEND
  8
21
  6
DASHDOT
 62
     7
  5
75
  0
POLYLINE
  8
21
  6
DASHDOT
 62
     7
  5
76
 66
     1
 10
0.0
 20
0.0
 30
0.0
  0
VERTEX
  8
21
  6
DASHDOT
 62
     7
  5
77
 10
964072.04
 20
7288600.712
 30
0.0
  0
VERTEX
  8
21
  6
DASHDOT
 62
     7
  5
78
 10
964078.68
 20
7288566.47
 30
0.0
  0
VERTEX
  8
21
  6
DASHDOT
 62
     7
  5
79
 10
964083.38
 20
7288568.503
 30
0.0
  0
VERTEX
  8
21
  6
DASHDOT
 62
     7
  5
7A
 10
964076.946
 20
7288601.674
 30
0.0
  0
VERTEX
  8
21
  6
DASHDOT
 62
     7
  5
7B
 10
964074.597
 20
7288600.659
 30
0.0
  0
VERTEX
  8
21
  6
DASHDOT
 62
     7
  5
7C
 10
964072.037
 20
7288600.722
 30
0.0
  0
SEQEND
  8
21
  6
DASHDOT
 62
     7
  5
7D
  0
TEXT
  8
13
  6
CONTINUOUS
 62
    14
  5
7E
 10
964085.444
 20
7288579.134
 30
0.0
 40
8.0
  1
V3574 P189
 50
358.5646
  7
txt
 72
     4
 11
964123.39032
 21
7288582.184408
 31
0.0
210
0.0
220
0.0
230
1.0
  0
TEXT
  8
13
  6
CONTINUOUS
 62
    14
  5
7F
 10
963869.048
 20
7288606.648
 30
0.0
 40
8.0
  1
V3574 P191
 50
358.5646
  7
txt
 72
     4
 11
963905.576765
 21
7288609.733929
 31
0.0
210
0.0
220
0.0
230
1.0
  0
TEXT
  8
22
  6
CONTINUOUS
 62
     3
  5
80
 10
963753.4
 20
7288619.535
 30
0.0
 40
6.0
  1
CONSTRUCTION AND OVERHEAD ELECTRICAL UTILTIY EASEMENT
 50
358.5646
  7
txt
 72
     4
 11
963906.04126
 21
7288618.711103
 31
0.0
210
0.0
220
0.0
230
1.0
  0
TEXT
  8
22
  6
CONTINUOUS
 62
     3
  5
81
 10
964081.601
 20
7288590.682
 30
0.0
 40
6.0
  1
GWE
 50
358.5646
  7
txt
 72
     4
 11
964090.53137
 21
7288593.459167
 31
0.0
210
0.0
220
0.0
230
1.0
  0
TEXT
  8
19
  6
CONTINUOUS
 62
     1
  5
82
 10
963710.391
 20
7287847.496
 30
0.0
 40
24.0
  1
GUAVA AVE
 50
88.5646
  7
ROMANC
 72
     4
 11
963701.490499
 21
7287971.340818
 31
0.0
210
0.0
220
0.0
230
1.0
  0
TEXT
  8
19
  6
CONTINUOUS
 62
     1
  5
83
 10
964060.578
 20
7288381.804
 30
0.0
 40
24.0
  1
MUNICIPAL  DR
 50
23.798694
  7
ROMANC
 72
     1
 11
964210.047313
 21
7288447.723754
 31
0.0
210
0.0
220
0.0
230
1.0
  0
LINE
  8
6
  6
CONTINUOUS
 62
     7
  5
84
 10
963640.412
 20
7288256.13
 30
0.0
 11
964594.281
 21
7288676.217
 31
0.0
  0
LINE
  8
6
  6
CONTINUOUS
 62
     7
  5
85
 10
963635.831
 20
7283775.861
 30
0.0
 11
963628.352
 21
7283422.312
 31
0.0
  0
TEXT
  8
10
  6
CONTINUOUS
 62
   134
  5
87
 10
966066.383
 20
7286128.869
 30
0.0
 40
13.999
  1
UNSUBDIVIDED
 50
358.5646
  7
ROMANS
210
0.0
220
0.0
230
1.0
  0
TEXT
  8
10
  6
CONTINUOUS
 62
   134
  5
88
 10
963792.095
 20
7288585.951
 30
0.0
 40
13.999
  1
UNSUBDIVIDED
 50
358.5646
  7
ROMANS
210
0.0
220
0.0
230
1.0
  0
TEXT
  8
10
  6
CONTINUOUS
 62
   134
  5
89
 10
963650.025
 20
7283474.444
 30
0.0
 40
13.999
  1
UNSUBDIVIDED
 50
358.5646
  7
ROMANS
210
0.0
220
0.0
230
1.0
  0
TEXT
  8
28
  6
CONTINUOUS
 62
    32
  5
8B
 10
963729.742
 20
7288317.42
 30
0.0
 40
24.0
  1
PANHANDLE & SANTA FE  RAILROAD
 50
23.469397
  7
ROMANC
210
0.0
220
0.0
230
1.0
  0
TEXT
  8
10
  6
CONTINUOUS
 62
   134
  5
8C
 10
964351.532
 20
7283511.96
 30
0.0
 40
13.999
  1
TR. A
 50
358.5646
  7
ROMANS
 72
     4
 11
964384.361099
 21
7283518.139576
 31
0.0
210
0.0
220
0.0
230
1.0
  0
TEXT
  8
15
  6
CONTINUOUS
 62
    30
  5
8E
 10
964286.621
 20
7283529.559
 30
0.0
 40
12.5
  1
McKIM
 50
358.5646
  7
ROMANC
 72
     4
 11
964319.099416
 21
7283534.997127
 31
0.0
210
0.0
220
0.0
230
1.0
  0
ENDSEC
  0
EOF
