  0
SECTION
  2
HEADER
  9
$ACADVER
  1
AC1009
  9
$INSBASE
 10
0.0
 20
0.0
 30
0.0
  9
$EXTMIN
 10
958501.413
 20
7293975.262
 30
0.0
  9
$EXTMAX
 10
963961.435
 20
7299438.056
 30
0.0
  9
$LIMMIN
 10
0.0
 20
0.0
  9
$LIMMAX
 10
12.0
 20
9.0
  9
$ORTHOMODE
 70
     0
  9
$REGENMODE
 70
     1
  9
$FILLMODE
 70
     1
  9
$QTEXTMODE
 70
     0
  9
$MIRRTEXT
 70
     1
  9
$DRAGMODE
 70
     2
  9
$LTSCALE
 40
1.0
  9
$OSMODE
 70
     0
  9
$ATTMODE
 70
     1
  9
$TEXTSIZE
 40
0.2
  9
$TRACEWID
 40
0.05
  9
$TEXTSTYLE
  7
STANDARD
  9
$CLAYER
  8
0
  9
$CELTYPE
  6
CONTINUOUS
  9
$CECOLOR
 62
   256
  9
$DIMSCALE
 40
1.0
  9
$DIMASZ
 40
0.18
  9
$DIMEXO
 40
0.0625
  9
$DIMDLI
 40
0.38
  9
$DIMRND
 40
0.0
  9
$DIMDLE
 40
0.0
  9
$DIMEXE
 40
0.18
  9
$DIMTP
 40
0.0
  9
$DIMTM
 40
0.0
  9
$DIMTXT
 40
0.18
  9
$DIMCEN
 40
0.09
  9
$DIMTSZ
 40
0.0
  9
$DIMTOL
 70
     0
  9
$DIMLIM
 70
     0
  9
$DIMTIH
 70
     1
  9
$DIMTOH
 70
     1
  9
$DIMSE1
 70
     0
  9
$DIMSE2
 70
     0
  9
$DIMTAD
 70
     0
  9
$DIMZIN
 70
     0
  9
$DIMBLK
  1

  9
$DIMASO
 70
     1
  9
$DIMSHO
 70
     1
  9
$DIMPOST
  1

  9
$DIMAPOST
  1

  9
$DIMALT
 70
     0
  9
$DIMALTD
 70
     2
  9
$DIMALTF
 40
25.4
  9
$DIMLFAC
 40
1.0
  9
$DIMTOFL
 70
     0
  9
$DIMTVP
 40
0.0
  9
$DIMTIX
 70
     0
  9
$DIMSOXD
 70
     0
  9
$DIMSAH
 70
     0
  9
$DIMBLK1
  1

  9
$DIMBLK2
  1

  9
$DIMSTYLE
  2
STANDARD
  9
$DIMCLRD
 70
     0
  9
$DIMCLRE
 70
     0
  9
$DIMCLRT
 70
     0
  9
$DIMTFAC
 40
1.0
  9
$DIMGAP
 40
0.09
  9
$LUNITS
 70
     2
  9
$LUPREC
 70
     4
  9
$AXISMODE
 70
     0
  9
$AXISUNIT
 10
0.0
 20
0.0
  9
$SKETCHINC
 40
0.1
  9
$FILLETRAD
 40
0.0
  9
$AUNITS
 70
     0
  9
$AUPREC
 70
     0
  9
$MENU
  1
acad
  9
$ELEVATION
 40
0.0
  9
$PELEVATION
 40
0.0
  9
$THICKNESS
 40
0.0
  9
$LIMCHECK
 70
     0
  9
$BLIPMODE
 70
     1
  9
$CHAMFERA
 40
0.0
  9
$CHAMFERB
 40
0.0
  9
$SKPOLY
 70
     0
  9
$TDCREATE
 40
2453013.901956019
  9
$TDUPDATE
 40
2453013.901956019
  9
$TDINDWG
 40
0.0000000000
  9
$TDUSRTIMER
 40
0.0000000000
  9
$USRTIMER
 70
     1
  9
$ANGBASE
 50
0.0
  9
$ANGDIR
 70
     0
  9
$PDMODE
 70
     0
  9
$PDSIZE
 40
0.0
  9
$PLINEWID
 40
0.0
  9
$COORDS
 70
     0
  9
$SPLFRAME
 70
     0
  9
$SPLINETYPE
 70
     6
  9
$SPLINESEGS
 70
    10
  9
$ATTDIA
 70
     0
  9
$ATTREQ
 70
     1
  9
$HANDLING
 70
     1
  9
$HANDSEED
  5
1AA
  9
$SURFTAB1
 70
     6
  9
$SURFTAB2
 70
     6
  9
$SURFTYPE
 70
     6
  9
$SURFU
 70
     6
  9
$SURFV
 70
     6
  9
$UCSNAME
  2

  9
$UCSORG
 10
0.0
 20
0.0
 30
0.0
  9
$UCSXDIR
 10
1.0
 20
0.0
 30
0.0
  9
$UCSYDIR
 10
0.0
 20
1.0
 30
0.0
  9
$PUCSNAME
  2

  9
$PUCSORG
 10
0.0
 20
0.0
 30
0.0
  9
$PUCSXDIR
 10
1.0
 20
0.0
 30
0.0
  9
$PUCSYDIR
 10
0.0
 20
1.0
 30
0.0
  9
$USERI1
 70
     0
  9
$USERI2
 70
     0
  9
$USERI3
 70
     0
  9
$USERI4
 70
     0
  9
$USERI5
 70
     0
  9
$USERR1
 40
0.0
  9
$USERR2
 40
0.0
  9
$USERR3
 40
0.0
  9
$USERR4
 40
0.0
  9
$USERR5
 40
0.0
  9
$WORLDVIEW
 70
     1
  9
$SHADEDGE
 70
     3
  9
$SHADEDIF
 70
    70
  9
$TILEMODE
 70
     1
  9
$MAXACTVP
 70
    16
  9
$PINSBASE
 10
0.0
 20
0.0
 30
0.0
  9
$PLIMCHECK
 70
     0
  9
$PEXTMIN
 10
-1.000000E+20
 20
-1.000000E+20
 30
-1.000000E+20
  9
$PEXTMAX
 10
-1.000000E+20
 20
-1.000000E+20
 30
-1.000000E+20
  9
$PLIMMIN
 10
0.0
 20
0.0
  9
$PLIMMAX
 10
12.0
 20
9.0
  9
$UNITMODE
 70
     0
  9
$VISRETAIN
 70
     0
  9
$PLINEGEN
 70
     1
  9
$PSLTSCALE
 70
     0
  9
$TREEDEPTH
 70
  3020
  9
$DWGCODEPAGE
  3
ansi_1252
  0
ENDSEC
  0
SECTION
  2
TABLES
  0
TABLE
  2
VPORT
 70
     1
  0
VPORT
  2
*ACTIVE
 70
     0
 10
0.0
 20
0.0
 11
1.0
 21
1.0
 12
0.0
 22
0.0
 13
0.0
 23
0.0
 14
0.0
 24
0.0
 15
0.0
 25
0.0
 16
0.0
 26
0.0
 36
1.0
 17
960901.061625
 27
7296568.18688
 37
0.0
 40
5454.924
 41
1.245416
 42
50.0
 43
0.004
 44
0.0
 50
1.681086
 51
0.0
 71
     0
 72
   100
 73
     1
 74
     0
 75
     0
 76
     0
 77
     0
 78
     0
  0
ENDTAB
  0
TABLE
  2
LTYPE
 70
     7
  0
LTYPE
  2
CONTINUOUS
 70
     0
  3
Solid line
 72
    65
 73
     0
 40
0.0
  0
LTYPE
  2
DOT
 70
    64
  3
. . . . . . . . . . . . . . . . . . . . . . . . . . . . . . . . .
 72
    65
 73
     2
 40
0.25
 49
0.0
 49
-0.25
  0
LTYPE
  2
HIDDEN
 70
    64
  3
__ __ __ __ __ __ __ __ __ __ __ __ __ __ __ __ __ __ __ __ __ 
 72
    65
 73
     2
 40
0.375
 49
0.25
 49
-0.125
  0
LTYPE
  2
DASHED
 70
    64
  3
__ __ __ __ __ __ __ __ __ __ __ __ __ __ __ __ __ __ __ __ __
 72
    65
 73
     2
 40
0.75
 49
0.5
 49
-0.25
  0
LTYPE
  2
DASHDOT
 70
    64
  3
__ . __ . __ . __ . __ . __ . __ . __ . __ . __ . __ . __ . _
 72
    65
 73
     4
 40
1.0
 49
0.5
 49
-0.25
 49
0.0
 49
-0.25
  0
LTYPE
  2
DIVIDE
 70
    64
  3
____ . . ____ . . ____ . . ____ . . ____ . . ____ . . ____ . .
 72
    65
 73
     6
 40
1.25
 49
0.5
 49
-0.25
 49
0.0
 49
-0.25
 49
0.0
 49
-0.25
  0
LTYPE
  2
CENTER
 70
    64
  3
____ _ ____ _ ____ _ ____ _ ____ _ ____ _ ____ _ ____ _ ____ _
 72
    65
 73
     4
 40
2.0
 49
1.25
 49
-0.25
 49
0.25
 49
-0.25
  0
ENDTAB
  0
TABLE
  2
LAYER
 70
    10
  0
LAYER
  2
0
 70
    64
 62
     7
  6
CONTINUOUS
  0
LAYER
  2
CONSTRUCTION_CLASS
 70
     1
 62
     7
  6
CONTINUOUS
  0
LAYER
  2
PATTERN_CLASS
 70
     0
 62
     7
  6
CONTINUOUS
  0
LAYER
  2
6
 70
    64
 62
     7
  6
CONTINUOUS
  0
LAYER
  2
7
 70
    64
 62
     7
  6
CONTINUOUS
  0
LAYER
  2
DEFPOINTS
 70
    64
 62
     7
  6
CONTINUOUS
  0
LAYER
  2
1
 70
    64
 62
     7
  6
CONTINUOUS
  0
LAYER
  2
19
 70
    64
 62
     7
  6
CONTINUOUS
  0
LAYER
  2
10
 70
    64
 62
     7
  6
CONTINUOUS
  0
LAYER
  2
22
 70
    64
 62
     7
  6
CONTINUOUS
  0
ENDTAB
  0
TABLE
  2
STYLE
 70
     4
  0
STYLE
  2
STANDARD
 70
     0
 40
0.0
 41
1.0
 50
0.0
 71
     0
 42
0.0
  3
txt
  4

  0
STYLE
  2
ROMANC
 70
     0
 40
0.2
 41
1.0
 50
0.0
 71
     0
 42
0.2
  3
ROMANC
  4

  0
STYLE
  2
ROMANS
 70
     0
 40
0.2
 41
1.0
 50
0.0
 71
     0
 42
0.2
  3
ROMANS
  4

  0
STYLE
  2
MONOTXT
 70
     0
 40
0.2
 41
1.0
 50
0.0
 71
     0
 42
0.2
  3
MONOTXT
  4

  0
ENDTAB
  0
TABLE
  2
VIEW
 70
     0
  0
ENDTAB
  0
TABLE
  2
UCS
 70
     0
  0
ENDTAB
  0
TABLE
  2
APPID
 70
     1
  0
APPID
  2
ACAD
 70
     0
  0
ENDTAB
  0
TABLE
  2
DIMSTYLE
 70
     2
  0
DIMSTYLE
  2
STANDARD
 70
     0
  3

  4

  5

  6

  7

 40
1.0
 41
0.18
 42
0.0625
 43
0.38
 44
0.18
 45
0.0
 46
0.0
 47
0.0
 48
0.0
140
0.18
141
0.09
142
0.0
143
25.4
144
1.0
145
0.0
146
1.0
147
0.09
 71
     0
 72
     0
 73
     1
 74
     1
 75
     0
 76
     0
 77
     0
 78
     0
170
     0
171
     2
172
     0
173
     0
174
     0
175
     0
176
     0
177
     0
178
     0
  0
DIMSTYLE
  2
MSADIM
 70
     0
  3

  4

  5

  6

  7

 40
1.0
 41
8.0
 42
4.0
 43
0.0
 44
4.0
 45
0.0
 46
0.0
 47
0.0
 48
0.0
140
8.0
141
4.0
142
0.0
143
25.4
144
1.0
145
4.0
146
1.0
147
4.0
 71
     0
 72
     0
 73
     1
 74
     1
 75
     1
 76
     1
 77
     0
 78
     2
170
     0
171
     2
172
     0
173
     0
174
     0
175
     0
176
     0
177
     0
178
     0
  0
ENDTAB
  0
ENDSEC
  0
SECTION
  2
BLOCKS
  0
BLOCK
  8
0
  6
CONTINUOUS
 62
     7
  5
15B
  2
*D0
 70
     1
 10
0.0
 20
0.0
 30
0.0
  3
*N0
  0
TEXT
  8
0
  6
CONTINUOUS
 62
     7
  5
15C
 10
959021.021
 20
7296717.847
 30
0.0
 40
8.0
  1
S84%%d57'19"E
 50
354.955311
  7
ROMANS
 72
     1
 11
959064.059834
 21
7296722.078871
 31
0.0
210
0.0
220
0.0
230
1.0
 73
     3
  0
TEXT
  8
0
  6
CONTINUOUS
 62
     7
  5
15D
 10
959039.528
 20
7296732.275
 30
0.0
 40
8.0
  1
672.26'
 50
354.955311
  7
ROMANS
 72
     1
 11
959064.762871
 21
7296730.0474
 31
0.0
210
0.0
220
0.0
230
1.0
  0
ENDBLK
  8
0
  6
CONTINUOUS
 62
     7
  5
15E
  0
ENDSEC
  0
SECTION
  2
ENTITIES
  0
ARC
  8
6
  6
CONTINUOUS
 62
     7
  5
29
 10
953018.042994
 20
7296562.428502
 30
0.0
 40
5674.578
 50
356.962581
 51
358.6834
210
0.0
220
0.0
230
1.0
  0
LINE
  8
6
  6
CONTINUOUS
 62
     7
  5
2A
 10
958684.649
 20
7296261.743
 30
0.0
 11
958665.625
 21
7295433.962
 31
0.0
  0
ARC
  8
6
  6
CONTINUOUS
 62
     7
  5
2B
 10
964338.704116
 20
7295303.577523
 30
0.0
 40
5674.578
 50
178.6834
 51
180.404219
210
0.0
220
0.0
230
1.0
  0
LINE
  8
6
  6
CONTINUOUS
 62
     7
  5
2C
 10
958664.267
 20
7295263.544
 30
0.0
 11
958669.505
 21
7294114.325
 31
0.0
  0
LINE
  8
6
  6
CONTINUOUS
 62
     7
  5
2D
 10
958746.723
 20
7296613.562
 30
0.0
 11
959333.507
 21
7296555.348
 31
0.0
  0
POLYLINE
  8
6
  6
CONTINUOUS
 62
     7
  5
2E
 66
     1
 10
0.0
 20
0.0
 30
0.0
  0
VERTEX
  8
6
  6
CONTINUOUS
 62
     7
  5
2F
 10
958746.723
 20
7296613.562
 30
0.0
  0
VERTEX
  8
6
  6
CONTINUOUS
 62
     7
  5
30
 10
958694.292
 20
7296569.947
 30
0.0
  0
VERTEX
  8
6
  6
CONTINUOUS
 62
     7
  5
31
 10
958691.123
 20
7296432.044
 30
0.0
  0
SEQEND
  8
6
  6
CONTINUOUS
 62
     7
  5
32
  0
LINE
  8
6
  6
CONTINUOUS
 62
     7
  5
33
 10
963815.97
 20
7294388.601
 30
0.0
 11
960284.702
 21
7296275.976
 31
0.0
  0
LINE
  8
6
  6
CONTINUOUS
 62
     7
  5
34
 10
963819.906
 20
7294545.238
 30
0.0
 11
960350.694
 21
7296399.446
 31
0.0
  0
LINE
  8
6
  6
CONTINUOUS
 62
     7
  5
35
 10
958751.798
 20
7296753.659
 30
0.0
 11
959344.791
 21
7296694.869
 31
0.0
  0
ARC
  8
6
  6
CONTINUOUS
 62
     7
  5
36
 10
957546.788462
 20
7296827.774648
 30
0.0
 40
1155.0
 50
359.084692
 51
6.427508
210
0.0
220
0.0
230
1.0
  0
LINE
  8
6
  6
CONTINUOUS
 62
     7
  5
37
 10
958694.528
 20
7296957.072
 30
0.0
 11
958678.478
 21
7297100.417
 31
0.0
  0
POLYLINE
  8
6
  6
CONTINUOUS
 62
     7
  5
38
 66
     1
 10
0.0
 20
0.0
 30
0.0
  0
VERTEX
  8
6
  6
CONTINUOUS
 62
     7
  5
39
 10
958678.478
 20
7297100.417
 30
0.0
  0
VERTEX
  8
6
  6
CONTINUOUS
 62
     7
  5
3A
 10
958660.43
 20
7297256.057
 30
0.0
  0
VERTEX
  8
6
  6
CONTINUOUS
 62
     7
  5
3B
 10
958630.438
 20
7297256.747
 30
0.0
  0
SEQEND
  8
6
  6
CONTINUOUS
 62
     7
  5
3C
  0
ARC
  8
6
  6
CONTINUOUS
 62
     7
  5
3D
 10
958756.634067
 20
7296808.445563
 30
0.0
 40
55.0
 50
179.084692
 51
264.955367
210
0.0
220
0.0
230
1.0
  0
LINE
  8
6
  6
CONTINUOUS
 62
     7
  5
3E
 10
958707.283
 20
7299084.53
 30
0.0
 11
958653.525
 21
7297390.838
 31
0.0
  0
ARC
  8
6
  6
CONTINUOUS
 62
     7
  5
3F
 10
958578.546368
 20
7297392.561915
 30
0.0
 40
75.0
 50
315.849972
 51
358.6834
210
0.0
220
0.0
230
1.0
  0
POLYLINE
  8
7
  6
CONTINUOUS
 62
     7
  5
41
 66
     1
 10
0.0
 20
0.0
 30
0.0
  0
VERTEX
  8
7
  6
CONTINUOUS
 62
     7
  5
42
 10
959104.741
 20
7296581.958
 30
0.0
  0
VERTEX
  8
7
  6
CONTINUOUS
 62
     7
  5
43
 10
959096.01
 20
7296202.059
 30
0.0
  0
VERTEX
  8
7
  6
CONTINUOUS
 62
     7
  5
44
 10
958683.495
 20
7296211.54
 30
0.0
  0
SEQEND
  8
7
  6
CONTINUOUS
 62
     7
  5
45
  0
POLYLINE
  8
7
  6
CONTINUOUS
 62
     7
  5
46
 66
     1
 10
0.0
 20
0.0
 30
0.0
  0
VERTEX
  8
7
  6
CONTINUOUS
 62
     7
  5
47
 10
959096.01
 20
7296202.059
 30
0.0
  0
VERTEX
  8
7
  6
CONTINUOUS
 62
     7
  5
48
 10
959093.043
 20
7296073.013
 30
0.0
  0
VERTEX
  8
7
  6
CONTINUOUS
 62
     7
  5
49
 10
958680.53
 20
7296082.494
 30
0.0
  0
SEQEND
  8
7
  6
CONTINUOUS
 62
     7
  5
4A
  0
LINE
  8
0
  6
DASHED
 62
     3
  5
4B
 10
959089.852
 20
7299361.426
 30
0.0
 11
963551.764
 21
7299258.878
 31
0.0
  0
LINE
  8
6
  6
CONTINUOUS
 62
     7
  5
4C
 10
958768.646
 20
7299143.136
 30
0.0
 11
959109.023
 21
7299135.313
 31
0.0
  0
LINE
  8
6
  6
CONTINUOUS
 62
     7
  5
4D
 10
959582.564
 20
7299320.564
 30
0.0
 11
963937.037
 21
7299206.529
 31
0.0
  0
LINE
  8
6
  6
CONTINUOUS
 62
     7
  5
4E
 10
958697.805
 20
7299359.593
 30
0.0
 11
958694.711
 21
7299224.991
 31
0.0
  0
LINE
  8
0
  6
CENTER
 62
     7
  5
4F
 10
959277.341
 20
7299357.066
 30
0.0
 11
959258.913
 21
7298555.251
 31
0.0
  0
LINE
  8
0
  6
DOT
 62
   204
  5
50
 10
959009.975
 20
7299214.535
 30
0.0
 11
958980.494
 21
7299215.212
 31
0.0
  0
ARC
  8
0
  6
DOT
 62
   204
  5
51
 10
959238.701804
 20
7299506.33636
 30
0.0
 40
200.000658
 50
292.285356
 51
298.15555
210
0.0
220
0.0
230
1.0
  0
POLYLINE
  8
0
  6
DASHED
 62
     3
  5
52
 66
     1
 10
0.0
 20
0.0
 30
0.0
  0
VERTEX
  8
0
  6
DASHED
 62
     3
  5
53
 10
959037.308
 20
7298707.808
 30
0.0
  0
VERTEX
  8
0
  6
DASHED
 62
     3
  5
54
 10
959487.218
 20
7298697.467
 30
0.0
  0
VERTEX
  8
0
  6
DASHED
 62
     3
  5
55
 10
959436.79
 20
7299353.401
 30
0.0
  0
SEQEND
  8
0
  6
DASHED
 62
     3
  5
56
  0
LINE
  8
0
  6
DASHED
 62
     3
  5
57
 10
959117.822
 20
7299360.731
 30
0.0
 11
959037.308
 21
7298707.808
 31
0.0
  0
LINE
  8
6
  6
CONTINUOUS
 62
     7
  5
58
 10
958724.014
 20
7299194.31
 30
0.0
 11
959110.287
 21
7299185.297
 31
0.0
  0
ARC
  8
6
  6
CONTINUOUS
 62
     7
  5
59
 10
958724.703324
 20
7299224.302061
 30
0.0
 40
30.0
 50
178.6834
 51
268.6834
210
0.0
220
0.0
230
1.0
  0
ARC
  8
6
  6
CONTINUOUS
 62
     7
  5
5A
 10
958767.267381
 20
7299083.15184
 30
0.0
 40
60.0
 50
88.6834
 51
178.6834
210
0.0
220
0.0
230
1.0
  0
LINE
  8
0
  6
CONTINUOUS
 62
     7
  5
5B
 10
958953.214
 20
7299364.515
 30
0.0
 11
958949.18
 21
7299189.0
 31
0.0
  0
POLYLINE
  8
0
  6
CONTINUOUS
 62
     7
  5
5C
 66
     1
 10
0.0
 20
0.0
 30
0.0
  0
VERTEX
  8
0
  6
CONTINUOUS
 62
     7
  5
5D
 10
958947.947
 20
7299137.634
 30
0.0
  0
VERTEX
  8
0
  6
CONTINUOUS
 62
     7
  5
5E
 10
958942.263
 20
7298890.333
 30
0.0
  0
VERTEX
  8
0
  6
CONTINUOUS
 62
     7
  5
5F
 10
958701.295
 20
7298895.871
 30
0.0
  0
SEQEND
  8
0
  6
CONTINUOUS
 62
     7
  5
60
  0
TEXT
  8
0
  6
CONTINUOUS
 62
     1
  5
62
 10
959660.554
 20
7296590.143
 30
0.0
 40
24.0
  1
 
 50
303.947411
  7
ROMANC
 72
     1
 11
959665.021454
 21
7296583.506596
 31
0.0
210
0.0
220
0.0
230
1.0
  0
TEXT
  8
0
  6
CONTINUOUS
 62
     1
  5
63
 10
959695.199
 20
7296568.111
 30
0.0
 40
24.0
  1
 
 50
347.360042
  7
ROMANC
 72
     1
 11
959703.005115
 21
7296566.36041
 31
0.0
210
0.0
220
0.0
230
1.0
  0
TEXT
  8
0
  6
CONTINUOUS
 62
     1
  5
64
 10
959950.825
 20
7296726.968
 30
0.0
 40
24.0
  1
 
 50
344.749597
  7
ROMANC
 72
     1
 11
959958.543284
 21
7296724.863696
 31
0.0
210
0.0
220
0.0
230
1.0
  0
TEXT
  8
0
  6
CONTINUOUS
 62
     1
  5
65
 10
959857.467
 20
7296519.004
 30
0.0
 40
24.0
  1
 
 50
344.749597
  7
ROMANC
 72
     1
 11
959865.185284
 21
7296516.899696
 31
0.0
210
0.0
220
0.0
230
1.0
  0
TEXT
  8
0
  6
CONTINUOUS
 62
     1
  5
66
 10
962988.662
 20
7294936.776
 30
0.0
 40
24.0
  1
 
 50
331.979786
  7
ROMANC
 72
     1
 11
962995.724255
 21
7294933.017736
 31
0.0
210
0.0
220
0.0
230
1.0
  0
TEXT
  8
0
  6
CONTINUOUS
 62
    30
  5
67
 10
958725.148
 20
7296335.764
 30
0.0
 40
30.0
  1
ROUSSEAU-KIRK
 50
28.6834
  7
ROMANC
 72
     4
 11
958898.646414
 21
7296447.784485
 31
0.0
210
0.0
220
0.0
230
1.0
  0
TEXT
  8
0
  6
CONTINUOUS
 62
     7
  5
69
 10
963778.965
 20
7294113.282
 30
0.0
 40
8.0
  1
2
 50
88.6834
  7
ROMANS
 72
     1
 11
963779.018605
 21
7294115.614384
 31
0.0
210
0.0
220
0.0
230
1.0
  0
TEXT
  8
0
  6
CONTINUOUS
 62
     7
  5
6A
 10
963779.141
 20
7294120.966
 30
0.0
 40
8.0
  1
0
 50
88.6834
  7
ROMANS
 72
     1
 11
963779.201912
 21
7294123.6163
 31
0.0
210
0.0
220
0.0
230
1.0
  0
TEXT
  8
0
  6
CONTINUOUS
 62
     7
  5
6B
 10
963779.326
 20
7294128.964
 30
0.0
 40
8.0
  1
0
 50
88.6834
  7
ROMANS
 72
     1
 11
963779.386912
 21
7294131.6143
 31
0.0
210
0.0
220
0.0
230
1.0
  0
TEXT
  8
0
  6
CONTINUOUS
 62
     7
  5
6C
 10
963779.54
 20
7294138.284
 30
0.0
 40
8.0
  1
'
 50
88.6834
  7
ROMANS
 72
     1
 11
963779.570628
 21
7294139.616648
 31
0.0
210
0.0
220
0.0
230
1.0
  0
TEXT
  8
0
  6
CONTINUOUS
 62
     7
  5
6D
 10
963471.975
 20
7294160.754
 30
0.0
 40
8.0
  1
2
 50
268.6834
  7
ROMANS
 72
     1
 11
963479.919283
 21
7294158.2378
 31
0.0
210
0.0
220
0.0
230
1.0
 73
     3
  0
TEXT
  8
0
  6
CONTINUOUS
 62
     7
  5
6E
 10
963471.798
 20
7294153.071
 30
0.0
 40
8.0
  1
0
 50
268.6834
  7
ROMANS
 72
     1
 11
963479.734976
 21
7294150.236884
 31
0.0
210
0.0
220
0.0
230
1.0
 73
     3
  0
TEXT
  8
0
  6
CONTINUOUS
 62
     7
  5
6F
 10
963471.614
 20
7294145.073
 30
0.0
 40
8.0
  1
0
 50
268.6834
  7
ROMANS
 72
     1
 11
963479.550976
 21
7294142.238884
 31
0.0
210
0.0
220
0.0
230
1.0
 73
     3
  0
TEXT
  8
0
  6
CONTINUOUS
 62
     7
  5
70
 10
963471.4
 20
7294135.753
 30
0.0
 40
8.0
  1
'
 50
268.6834
  7
ROMANS
 72
     1
 11
963479.36726
 21
7294134.236536
 31
0.0
210
0.0
220
0.0
230
1.0
 73
     3
  0
TEXT
  8
0
  6
CONTINUOUS
 62
     7
  5
71
 10
963592.416
 20
7294227.898
 30
0.0
 40
8.0
  1
3
 50
358.6834
  7
ROMANS
 72
     1
 11
963594.9322
 21
7294235.842283
 31
0.0
210
0.0
220
0.0
230
1.0
 73
     3
  0
TEXT
  8
0
  6
CONTINUOUS
 62
     7
  5
72
 10
963600.099
 20
7294227.722
 30
0.0
 40
8.0
  1
0
 50
358.6834
  7
ROMANS
 72
     1
 11
963602.933116
 21
7294235.658976
 31
0.0
210
0.0
220
0.0
230
1.0
 73
     3
  0
TEXT
  8
0
  6
CONTINUOUS
 62
     7
  5
73
 10
963608.097
 20
7294227.537
 30
0.0
 40
8.0
  1
0
 50
358.6834
  7
ROMANS
 72
     1
 11
963610.931116
 21
7294235.473976
 31
0.0
210
0.0
220
0.0
230
1.0
 73
     3
  0
TEXT
  8
0
  6
CONTINUOUS
 62
     7
  5
74
 10
963617.418
 20
7294227.323
 30
0.0
 40
8.0
  1
'
 50
358.6834
  7
ROMANS
 72
     1
 11
963618.934464
 21
7294235.29026
 31
0.0
210
0.0
220
0.0
230
1.0
 73
     3
  0
TEXT
  8
0
  6
CONTINUOUS
 62
     7
  5
75
 10
963644.25
 20
7294040.657
 30
0.0
 40
8.0
  1
3
 50
358.6834
  7
ROMANS
 72
     1
 11
963646.582384
 21
7294040.603395
 31
0.0
210
0.0
220
0.0
230
1.0
  0
TEXT
  8
0
  6
CONTINUOUS
 62
     7
  5
76
 10
963651.933
 20
7294040.481
 30
0.0
 40
8.0
  1
0
 50
358.6834
  7
ROMANS
 72
     1
 11
963654.5833
 21
7294040.420088
 31
0.0
210
0.0
220
0.0
230
1.0
  0
TEXT
  8
0
  6
CONTINUOUS
 62
     7
  5
77
 10
963659.931
 20
7294040.298
 30
0.0
 40
8.0
  1
0
 50
358.6834
  7
ROMANS
 72
     1
 11
963662.5813
 21
7294040.237088
 31
0.0
210
0.0
220
0.0
230
1.0
  0
TEXT
  8
0
  6
CONTINUOUS
 62
     7
  5
78
 10
963669.252
 20
7294040.083
 30
0.0
 40
8.0
  1
'
 50
358.6834
  7
ROMANS
 72
     1
 11
963670.584648
 21
7294040.052372
 31
0.0
210
0.0
220
0.0
230
1.0
  0
TEXT
  8
0
  6
CONTINUOUS
 62
     7
  5
79
 10
963229.912
 20
7294729.968
 30
0.0
 40
8.0
  1
 
 50
331.979786
  7
ROMANS
 72
     1
 11
963236.023761
 21
7294735.777814
 31
0.0
210
0.0
220
0.0
230
1.0
 73
     3
  0
TEXT
  8
0
  6
CONTINUOUS
 62
     7
  5
7A
 10
963236.974
 20
7294726.21
 30
0.0
 40
8.0
  1
 
 50
331.979786
  7
ROMANS
 72
     1
 11
963243.085761
 21
7294732.019814
 31
0.0
210
0.0
220
0.0
230
1.0
 73
     3
  0
TEXT
  8
0
  6
CONTINUOUS
 62
     7
  5
7B
 10
963244.037
 20
7294722.451
 30
0.0
 40
8.0
  1
 
 50
331.979786
  7
ROMANS
 72
     1
 11
963250.148761
 21
7294728.260814
 31
0.0
210
0.0
220
0.0
230
1.0
 73
     3
  0
TEXT
  8
0
  6
CONTINUOUS
 62
     7
  5
7C
 10
963251.098
 20
7294718.693
 30
0.0
 40
8.0
  1
 
 50
331.979786
  7
ROMANS
 72
     1
 11
963257.209761
 21
7294724.502814
 31
0.0
210
0.0
220
0.0
230
1.0
 73
     3
  0
TEXT
  8
0
  6
CONTINUOUS
 62
     7
  5
7D
 10
961412.453
 20
7295697.15
 30
0.0
 40
8.0
  1
4
 50
331.979786
  7
ROMANS
 72
     1
 11
961418.270794
 21
7295703.116251
 31
0.0
210
0.0
220
0.0
230
1.0
 73
     3
  0
TEXT
  8
0
  6
CONTINUOUS
 62
     7
  5
7E
 10
961419.238
 20
7295693.539
 30
0.0
 40
8.0
  1
0
 50
331.979786
  7
ROMANS
 72
     1
 11
961425.336519
 21
7295699.35586
 31
0.0
210
0.0
220
0.0
230
1.0
 73
     3
  0
TEXT
  8
0
  6
CONTINUOUS
 62
     7
  5
7F
 10
961426.578
 20
7295689.633
 30
0.0
 40
8.0
  1
7
 50
331.979786
  7
ROMANS
 72
     1
 11
961432.395794
 21
7295695.599251
 31
0.0
210
0.0
220
0.0
230
1.0
 73
     3
  0
TEXT
  8
0
  6
CONTINUOUS
 62
     7
  5
80
 10
961433.639
 20
7295685.875
 30
0.0
 40
8.0
  1
2
 50
331.979786
  7
ROMANS
 72
     1
 11
961439.456794
 21
7295691.841251
 31
0.0
210
0.0
220
0.0
230
1.0
 73
     3
  0
TEXT
  8
0
  6
CONTINUOUS
 62
     7
  5
81
 10
961441.619
 20
7295681.629
 30
0.0
 40
8.0
  1
.
 50
331.979786
  7
ROMANS
 72
     1
 11
961446.544302
 21
7295688.070202
 31
0.0
210
0.0
220
0.0
230
1.0
 73
     3
  0
TEXT
  8
0
  6
CONTINUOUS
 62
     7
  5
82
 10
961448.654
 20
7295677.885
 30
0.0
 40
8.0
  1
1
 50
331.979786
  7
ROMANS
 72
     1
 11
961453.589013
 21
7295684.321034
 31
0.0
210
0.0
220
0.0
230
1.0
 73
     3
  0
TEXT
  8
0
  6
CONTINUOUS
 62
     7
  5
83
 10
961454.826
 20
7295674.6
 30
0.0
 40
8.0
  1
9
 50
331.979786
  7
ROMANS
 72
     1
 11
961460.643794
 21
7295680.566251
 31
0.0
210
0.0
220
0.0
230
1.0
 73
     3
  0
TEXT
  8
0
  6
CONTINUOUS
 62
     7
  5
84
 10
961462.778
 20
7295670.369
 30
0.0
 40
8.0
  1
'
 50
331.979786
  7
ROMANS
 72
     1
 11
961467.713013
 21
7295676.805034
 31
0.0
210
0.0
220
0.0
230
1.0
 73
     3
  0
TEXT
  8
0
  6
CONTINUOUS
 62
     7
  5
85
 10
961467.505
 20
7295667.853
 30
0.0
 40
8.0
  1
 
 50
331.979786
  7
ROMANS
 72
     1
 11
961473.616761
 21
7295673.662814
 31
0.0
210
0.0
220
0.0
230
1.0
 73
     3
  0
TEXT
  8
0
  6
CONTINUOUS
 62
     7
  5
86
 10
961474.568
 20
7295664.095
 30
0.0
 40
8.0
  1
 
 50
331.979786
  7
ROMANS
 72
     1
 11
961480.679761
 21
7295669.904814
 31
0.0
210
0.0
220
0.0
230
1.0
 73
     3
  0
TEXT
  8
0
  6
CONTINUOUS
 62
     7
  5
87
 10
961481.631
 20
7295660.337
 30
0.0
 40
8.0
  1
 
 50
331.979786
  7
ROMANS
 72
     1
 11
961487.742761
 21
7295666.146814
 31
0.0
210
0.0
220
0.0
230
1.0
 73
     3
  0
TEXT
  8
0
  6
CONTINUOUS
 62
     7
  5
88
 10
961488.692
 20
7295656.578
 30
0.0
 40
8.0
  1
 
 50
331.979786
  7
ROMANS
 72
     1
 11
961494.803761
 21
7295662.387814
 31
0.0
210
0.0
220
0.0
230
1.0
 73
     3
  0
TEXT
  8
0
  6
CONTINUOUS
 62
     7
  5
89
 10
961497.032
 20
7295652.14
 30
0.0
 40
8.0
  1
N
 50
331.979786
  7
ROMANS
 72
     1
 11
961503.014875
 21
7295658.018402
 31
0.0
210
0.0
220
0.0
230
1.0
 73
     3
  0
TEXT
  8
0
  6
CONTINUOUS
 62
     7
  5
8A
 10
961504.263
 20
7295648.292
 30
0.0
 40
8.0
  1
5
 50
331.979786
  7
ROMANS
 72
     1
 11
961510.090505
 21
7295654.253084
 31
0.0
210
0.0
220
0.0
230
1.0
 73
     3
  0
TEXT
  8
0
  6
CONTINUOUS
 62
     7
  5
8B
 10
961511.325
 20
7295644.534
 30
0.0
 40
8.0
  1
8
 50
331.979786
  7
ROMANS
 72
     1
 11
961517.142794
 21
7295650.500251
 31
0.0
210
0.0
220
0.0
230
1.0
 73
     3
  0
TEXT
  8
0
  6
CONTINUOUS
 62
     7
  5
8C
 10
961519.193
 20
7295640.346
 30
0.0
 40
8.0
  1
%%d
 50
331.979786
  7
ROMANS
 72
     1
 11
961524.219822
 21
7295646.733177
 31
0.0
210
0.0
220
0.0
230
1.0
 73
     3
  0
TEXT
  8
0
  6
CONTINUOUS
 62
     7
  5
8D
 10
961526.338
 20
7295636.544
 30
0.0
 40
8.0
  1
1
 50
331.979786
  7
ROMANS
 72
     1
 11
961531.273013
 21
7295642.980034
 31
0.0
210
0.0
220
0.0
230
1.0
 73
     3
  0
TEXT
  8
0
  6
CONTINUOUS
 62
     7
  5
8E
 10
961532.511
 20
7295633.26
 30
0.0
 40
8.0
  1
7
 50
331.979786
  7
ROMANS
 72
     1
 11
961538.328794
 21
7295639.226251
 31
0.0
210
0.0
220
0.0
230
1.0
 73
     3
  0
TEXT
  8
0
  6
CONTINUOUS
 62
     7
  5
8F
 10
961540.463
 20
7295629.028
 30
0.0
 40
8.0
  1
'
 50
331.979786
  7
ROMANS
 72
     1
 11
961545.398013
 21
7295635.464034
 31
0.0
210
0.0
220
0.0
230
1.0
 73
     3
  0
TEXT
  8
0
  6
CONTINUOUS
 62
     7
  5
90
 10
961546.635
 20
7295625.743
 30
0.0
 40
8.0
  1
4
 50
331.979786
  7
ROMANS
 72
     1
 11
961552.452794
 21
7295631.709251
 31
0.0
210
0.0
220
0.0
230
1.0
 73
     3
  0
TEXT
  8
0
  6
CONTINUOUS
 62
     7
  5
91
 10
961553.698
 20
7295621.985
 30
0.0
 40
8.0
  1
7
 50
331.979786
  7
ROMANS
 72
     1
 11
961559.515794
 21
7295627.951251
 31
0.0
210
0.0
220
0.0
230
1.0
 73
     3
  0
TEXT
  8
0
  6
CONTINUOUS
 62
     7
  5
92
 10
961560.538
 20
7295618.344
 30
0.0
 40
8.0
  1
"
 50
331.979786
  7
ROMANS
 72
     1
 11
961566.57649
 21
7295624.192806
 31
0.0
210
0.0
220
0.0
230
1.0
 73
     3
  0
TEXT
  8
0
  6
CONTINUOUS
 62
     7
  5
93
 10
961567.379
 20
7295614.704
 30
0.0
 40
8.0
  1
W
 50
331.979786
  7
ROMANS
 72
     1
 11
961573.665552
 21
7295620.420797
 31
0.0
210
0.0
220
0.0
230
1.0
 73
     3
  0
TEXT
  8
0
  6
CONTINUOUS
 62
     7
  5
94
 10
961497.78
 20
7295826.19
 30
0.0
 40
8.0
  1
4
 50
331.979786
  7
ROMANS
 72
     1
 11
961499.83953
 21
7295825.093996
 31
0.0
210
0.0
220
0.0
230
1.0
  0
TEXT
  8
0
  6
CONTINUOUS
 62
     7
  5
95
 10
961504.565
 20
7295822.58
 30
0.0
 40
8.0
  1
0
 50
331.979786
  7
ROMANS
 72
     1
 11
961506.905255
 21
7295821.334605
 31
0.0
210
0.0
220
0.0
230
1.0
  0
TEXT
  8
0
  6
CONTINUOUS
 62
     7
  5
96
 10
961511.628
 20
7295818.822
 30
0.0
 40
8.0
  1
0
 50
331.979786
  7
ROMANS
 72
     1
 11
961513.968255
 21
7295817.576605
 31
0.0
210
0.0
220
0.0
230
1.0
  0
TEXT
  8
0
  6
CONTINUOUS
 62
     7
  5
97
 10
961519.857
 20
7295814.442
 30
0.0
 40
8.0
  1
1
 50
331.979786
  7
ROMANS
 72
     1
 11
961521.033748
 21
7295813.815779
 31
0.0
210
0.0
220
0.0
230
1.0
  0
TEXT
  8
0
  6
CONTINUOUS
 62
     7
  5
98
 10
961526.946
 20
7295810.669
 30
0.0
 40
8.0
  1
.
 50
331.979786
  7
ROMANS
 72
     1
 11
961528.113038
 21
7295810.047947
 31
0.0
210
0.0
220
0.0
230
1.0
  0
TEXT
  8
0
  6
CONTINUOUS
 62
     7
  5
99
 10
961532.925
 20
7295807.488
 30
0.0
 40
8.0
  1
6
 50
331.979786
  7
ROMANS
 72
     1
 11
961535.14961
 21
7295806.304147
 31
0.0
210
0.0
220
0.0
230
1.0
  0
TEXT
  8
0
  6
CONTINUOUS
 62
     7
  5
9A
 10
961540.154
 20
7295803.641
 30
0.0
 40
8.0
  1
8
 50
331.979786
  7
ROMANS
 72
     1
 11
961542.21353
 21
7295802.544996
 31
0.0
210
0.0
220
0.0
230
1.0
  0
TEXT
  8
0
  6
CONTINUOUS
 62
     7
  5
9B
 10
961548.106
 20
7295799.409
 30
0.0
 40
8.0
  1
'
 50
331.979786
  7
ROMANS
 72
     1
 11
961549.282748
 21
7295798.782779
 31
0.0
210
0.0
220
0.0
230
1.0
  0
TEXT
  8
0
  6
CONTINUOUS
 62
     7
  5
9C
 10
961552.832
 20
7295796.894
 30
0.0
 40
8.0
  1
 
 50
331.979786
  7
ROMANS
 72
     1
 11
961555.185497
 21
7295795.641558
 31
0.0
210
0.0
220
0.0
230
1.0
  0
TEXT
  8
0
  6
CONTINUOUS
 62
     7
  5
9D
 10
961559.895
 20
7295793.135
 30
0.0
 40
8.0
  1
 
 50
331.979786
  7
ROMANS
 72
     1
 11
961562.248497
 21
7295791.882558
 31
0.0
210
0.0
220
0.0
230
1.0
  0
TEXT
  8
0
  6
CONTINUOUS
 62
     7
  5
9E
 10
961566.957
 20
7295789.377
 30
0.0
 40
8.0
  1
 
 50
331.979786
  7
ROMANS
 72
     1
 11
961569.310497
 21
7295788.124558
 31
0.0
210
0.0
220
0.0
230
1.0
  0
TEXT
  8
0
  6
CONTINUOUS
 62
     7
  5
9F
 10
961574.021
 20
7295785.619
 30
0.0
 40
8.0
  1
 
 50
331.979786
  7
ROMANS
 72
     1
 11
961576.374497
 21
7295784.366558
 31
0.0
210
0.0
220
0.0
230
1.0
  0
TEXT
  8
0
  6
CONTINUOUS
 62
     7
  5
A0
 10
961582.36
 20
7295781.18
 30
0.0
 40
8.0
  1
N
 50
331.979786
  7
ROMANS
 72
     1
 11
961584.58461
 21
7295779.996147
 31
0.0
210
0.0
220
0.0
230
1.0
  0
TEXT
  8
0
  6
CONTINUOUS
 62
     7
  5
A1
 10
961589.59
 20
7295777.333
 30
0.0
 40
8.0
  1
5
 50
331.979786
  7
ROMANS
 72
     1
 11
961591.659241
 21
7295776.231829
 31
0.0
210
0.0
220
0.0
230
1.0
  0
TEXT
  8
0
  6
CONTINUOUS
 62
     7
  5
A2
 10
961596.653
 20
7295773.575
 30
0.0
 40
8.0
  1
8
 50
331.979786
  7
ROMANS
 72
     1
 11
961598.71253
 21
7295772.478996
 31
0.0
210
0.0
220
0.0
230
1.0
  0
TEXT
  8
0
  6
CONTINUOUS
 62
     7
  5
A3
 10
961604.521
 20
7295769.388
 30
0.0
 40
8.0
  1
%%d
 50
331.979786
  7
ROMANS
 72
     1
 11
961605.789558
 21
7295768.712922
 31
0.0
210
0.0
220
0.0
230
1.0
  0
TEXT
  8
0
  6
CONTINUOUS
 62
     7
  5
A4
 10
961611.666
 20
7295765.585
 30
0.0
 40
8.0
  1
1
 50
331.979786
  7
ROMANS
 72
     1
 11
961612.842748
 21
7295764.958779
 31
0.0
210
0.0
220
0.0
230
1.0
  0
TEXT
  8
0
  6
CONTINUOUS
 62
     7
  5
A5
 10
961617.839
 20
7295762.3
 30
0.0
 40
8.0
  1
7
 50
331.979786
  7
ROMANS
 72
     1
 11
961619.89853
 21
7295761.203996
 31
0.0
210
0.0
220
0.0
230
1.0
  0
TEXT
  8
0
  6
CONTINUOUS
 62
     7
  5
A6
 10
961625.79
 20
7295758.068
 30
0.0
 40
8.0
  1
'
 50
331.979786
  7
ROMANS
 72
     1
 11
961626.966748
 21
7295757.441779
 31
0.0
210
0.0
220
0.0
230
1.0
  0
TEXT
  8
0
  6
CONTINUOUS
 62
     7
  5
A7
 10
961631.964
 20
7295754.783
 30
0.0
 40
8.0
  1
4
 50
331.979786
  7
ROMANS
 72
     1
 11
961634.02353
 21
7295753.686996
 31
0.0
210
0.0
220
0.0
230
1.0
  0
TEXT
  8
0
  6
CONTINUOUS
 62
     7
  5
A8
 10
961639.025
 20
7295751.025
 30
0.0
 40
8.0
  1
7
 50
331.979786
  7
ROMANS
 72
     1
 11
961641.08453
 21
7295749.928996
 31
0.0
210
0.0
220
0.0
230
1.0
  0
TEXT
  8
0
  6
CONTINUOUS
 62
     7
  5
A9
 10
961645.866
 20
7295747.386
 30
0.0
 40
8.0
  1
"
 50
331.979786
  7
ROMANS
 72
     1
 11
961648.146226
 21
7295746.17255
 31
0.0
210
0.0
220
0.0
230
1.0
  0
TEXT
  8
0
  6
CONTINUOUS
 62
     7
  5
AA
 10
961652.706
 20
7295743.746
 30
0.0
 40
8.0
  1
W
 50
331.979786
  7
ROMANS
 72
     1
 11
961655.234287
 21
7295742.400541
 31
0.0
210
0.0
220
0.0
230
1.0
  0
TEXT
  8
0
  6
CONTINUOUS
 62
     7
  5
AB
 10
963190.739
 20
7294925.261
 30
0.0
 40
8.0
  1
4
 50
331.979786
  7
ROMANS
 72
     1
 11
963192.79853
 21
7294924.164996
 31
0.0
210
0.0
220
0.0
230
1.0
  0
TEXT
  8
0
  6
CONTINUOUS
 62
     7
  5
AC
 10
963197.524
 20
7294921.651
 30
0.0
 40
8.0
  1
0
 50
331.979786
  7
ROMANS
 72
     1
 11
963199.864255
 21
7294920.405605
 31
0.0
210
0.0
220
0.0
230
1.0
  0
TEXT
  8
0
  6
CONTINUOUS
 62
     7
  5
AD
 10
963204.587
 20
7294917.893
 30
0.0
 40
8.0
  1
0
 50
331.979786
  7
ROMANS
 72
     1
 11
963206.927255
 21
7294916.647605
 31
0.0
210
0.0
220
0.0
230
1.0
  0
TEXT
  8
0
  6
CONTINUOUS
 62
     7
  5
AE
 10
963212.816
 20
7294913.513
 30
0.0
 40
8.0
  1
1
 50
331.979786
  7
ROMANS
 72
     1
 11
963213.992748
 21
7294912.886779
 31
0.0
210
0.0
220
0.0
230
1.0
  0
TEXT
  8
0
  6
CONTINUOUS
 62
     7
  5
AF
 10
963219.905
 20
7294909.74
 30
0.0
 40
8.0
  1
.
 50
331.979786
  7
ROMANS
 72
     1
 11
963221.072038
 21
7294909.118947
 31
0.0
210
0.0
220
0.0
230
1.0
  0
TEXT
  8
0
  6
CONTINUOUS
 62
     7
  5
B0
 10
963225.884
 20
7294906.559
 30
0.0
 40
8.0
  1
6
 50
331.979786
  7
ROMANS
 72
     1
 11
963228.10861
 21
7294905.375147
 31
0.0
210
0.0
220
0.0
230
1.0
  0
TEXT
  8
0
  6
CONTINUOUS
 62
     7
  5
B1
 10
963233.114
 20
7294902.711
 30
0.0
 40
8.0
  1
8
 50
331.979786
  7
ROMANS
 72
     1
 11
963235.17353
 21
7294901.614996
 31
0.0
210
0.0
220
0.0
230
1.0
  0
TEXT
  8
0
  6
CONTINUOUS
 62
     7
  5
B2
 10
963241.064
 20
7294898.48
 30
0.0
 40
8.0
  1
'
 50
331.979786
  7
ROMANS
 72
     1
 11
963242.240748
 21
7294897.853779
 31
0.0
210
0.0
220
0.0
230
1.0
  0
TEXT
  8
0
  6
CONTINUOUS
 62
     7
  5
B3
 10
963245.792
 20
7294895.965
 30
0.0
 40
8.0
  1
 
 50
331.979786
  7
ROMANS
 72
     1
 11
963248.145497
 21
7294894.712558
 31
0.0
210
0.0
220
0.0
230
1.0
  0
TEXT
  8
0
  6
CONTINUOUS
 62
     7
  5
B4
 10
963252.855
 20
7294892.206
 30
0.0
 40
8.0
  1
 
 50
331.979786
  7
ROMANS
 72
     1
 11
963255.208497
 21
7294890.953558
 31
0.0
210
0.0
220
0.0
230
1.0
  0
TEXT
  8
0
  6
CONTINUOUS
 62
     7
  5
B5
 10
963259.917
 20
7294888.448
 30
0.0
 40
8.0
  1
 
 50
331.979786
  7
ROMANS
 72
     1
 11
963262.270497
 21
7294887.195558
 31
0.0
210
0.0
220
0.0
230
1.0
  0
TEXT
  8
0
  6
CONTINUOUS
 62
     7
  5
B6
 10
963266.979
 20
7294884.69
 30
0.0
 40
8.0
  1
 
 50
331.979786
  7
ROMANS
 72
     1
 11
963269.332497
 21
7294883.437558
 31
0.0
210
0.0
220
0.0
230
1.0
  0
TEXT
  8
0
  6
CONTINUOUS
 62
     7
  5
B7
 10
963782.143
 20
7294325.929
 30
0.0
 40
8.0
  1
432.65'
 50
88.6834
  7
ROMANS
210
0.0
220
0.0
230
1.0
  0
TEXT
  8
0
  6
CONTINUOUS
 62
     7
  5
B8
 10
963554.201
 20
7294632.052
 30
0.0
 40
8.0
  1
140'
 50
60.061164
  7
ROMANS
210
0.0
220
0.0
230
1.0
  0
TEXT
  8
0
  6
CONTINUOUS
 62
     7
  5
B9
 10
962642.915
 20
7295120.945
 30
0.0
 40
8.0
  1
140'
 50
54.981481
  7
ROMANS
210
0.0
220
0.0
230
1.0
  0
TEXT
  8
0
  6
CONTINUOUS
 62
     7
  5
BA
 10
961682.319
 20
7295651.58
 30
0.0
 40
8.0
  1
140'
 50
70.240747
  7
ROMANS
210
0.0
220
0.0
230
1.0
  0
TEXT
  8
0
  6
CONTINUOUS
 62
     7
  5
BB
 10
960688.03
 20
7296175.073
 30
0.0
 40
8.0
  1
140'
 50
50.015003
  7
ROMANS
210
0.0
220
0.0
230
1.0
  0
TEXT
  8
0
  6
CONTINUOUS
 62
     7
  5
BC
 10
958781.377
 20
7296663.823
 30
0.0
 40
8.0
  1
140'
 50
88.6834
  7
ROMANS
210
0.0
220
0.0
230
1.0
  0
TEXT
  8
0
  6
CONTINUOUS
 62
     7
  5
BD
 10
959426.963
 20
7296615.327
 30
0.0
 40
8.0
  1
140'
 50
88.6834
  7
ROMANS
210
0.0
220
0.0
230
1.0
  0
TEXT
  8
0
  6
CONTINUOUS
 62
     7
  5
BE
 10
958704.249
 20
7296475.489
 30
0.0
 40
8.0
  1
137.94'
 50
88.6834
  7
ROMANS
210
0.0
220
0.0
230
1.0
  0
TEXT
  8
0
  6
CONTINUOUS
 62
     7
  5
BF
 10
958701.108
 20
7296297.699
 30
0.0
 40
8.0
  1
170.43'
 50
88.6834
  7
ROMANS
210
0.0
220
0.0
230
1.0
  0
TEXT
  8
0
  6
CONTINUOUS
 62
     7
  5
C0
 10
958699.748
 20
7296228.101
 30
0.0
 40
8.0
  1
65.56'
 50
88.6834
  7
ROMANS
210
0.0
220
0.0
230
1.0
  0
TEXT
  8
0
  6
CONTINUOUS
 62
     7
  5
C1
 10
958692.395
 20
7296122.348
 30
0.0
 40
8.0
  1
129.08'
 50
88.6834
  7
ROMANS
210
0.0
220
0.0
230
1.0
  0
TEXT
  8
0
  6
CONTINUOUS
 62
     7
  5
C2
 10
959092.295
 20
7296118.768
 30
0.0
 40
8.0
  1
129.08'
 50
88.6834
  7
ROMANS
210
0.0
220
0.0
230
1.0
  0
TEXT
  8
0
  6
CONTINUOUS
 62
     7
  5
C3
 10
959096.354
 20
7296376.721
 30
0.0
 40
8.0
  1
380'
 50
88.6834
  7
ROMANS
210
0.0
220
0.0
230
1.0
  0
TEXT
  8
0
  6
CONTINUOUS
 62
     7
  5
C4
 10
958860.579
 20
7296081.357
 30
0.0
 40
8.0
  1
4
 50
358.6834
  7
ROMANS
 72
     1
 11
958862.911384
 21
7296081.303395
 31
0.0
210
0.0
220
0.0
230
1.0
  0
TEXT
  8
0
  6
CONTINUOUS
 62
     7
  5
C5
 10
958869.584
 20
7296081.15
 30
0.0
 40
8.0
  1
1
 50
358.6834
  7
ROMANS
 72
     1
 11
958870.916648
 21
7296081.119372
 31
0.0
210
0.0
220
0.0
230
1.0
  0
TEXT
  8
0
  6
CONTINUOUS
 62
     7
  5
C6
 10
958876.575
 20
7296080.989
 30
0.0
 40
8.0
  1
5
 50
358.6834
  7
ROMANS
 72
     1
 11
958878.918381
 21
7296080.935142
 31
0.0
210
0.0
220
0.0
230
1.0
  0
TEXT
  8
0
  6
CONTINUOUS
 62
     7
  5
C7
 10
958885.612
 20
7296080.781
 30
0.0
 40
8.0
  1
.
 50
358.6834
  7
ROMANS
 72
     1
 11
958886.933651
 21
7296080.750624
 31
0.0
210
0.0
220
0.0
230
1.0
  0
TEXT
  8
0
  6
CONTINUOUS
 62
     7
  5
C8
 10
958892.571
 20
7296080.621
 30
0.0
 40
8.0
  1
5
 50
358.6834
  7
ROMANS
 72
     1
 11
958894.914381
 21
7296080.567142
 31
0.0
210
0.0
220
0.0
230
1.0
  0
TEXT
  8
0
  6
CONTINUOUS
 62
     7
  5
C9
 10
958900.379
 20
7296080.442
 30
0.0
 40
8.0
  1
6
 50
358.6834
  7
ROMANS
 72
     1
 11
958902.898335
 21
7296080.384098
 31
0.0
210
0.0
220
0.0
230
1.0
  0
TEXT
  8
0
  6
CONTINUOUS
 62
     7
  5
CA
 10
958909.574
 20
7296080.231
 30
0.0
 40
8.0
  1
'
 50
358.6834
  7
ROMANS
 72
     1
 11
958910.906648
 21
7296080.200372
 31
0.0
210
0.0
220
0.0
230
1.0
  0
TEXT
  8
0
  6
CONTINUOUS
 62
     7
  5
CB
 10
958892.194
 20
7296589.677
 30
0.0
 40
8.0
  1
3
 50
354.955339
  7
ROMANS
 72
     1
 11
958895.221421
 21
7296597.440866
 31
0.0
210
0.0
220
0.0
230
1.0
 73
     3
  0
TEXT
  8
0
  6
CONTINUOUS
 62
     7
  5
CC
 10
958900.162
 20
7296588.974
 30
0.0
 40
8.0
  1
5
 50
354.955339
  7
ROMANS
 72
     1
 11
958903.200378
 21
7296596.736899
 31
0.0
210
0.0
220
0.0
230
1.0
 73
     3
  0
TEXT
  8
0
  6
CONTINUOUS
 62
     7
  5
CD
 10
958908.132
 20
7296588.271
 30
0.0
 40
8.0
  1
9
 50
354.955339
  7
ROMANS
 72
     1
 11
958911.159421
 21
7296596.034866
 31
0.0
210
0.0
220
0.0
230
1.0
 73
     3
  0
TEXT
  8
0
  6
CONTINUOUS
 62
     7
  5
CE
 10
958917.136
 20
7296587.477
 30
0.0
 40
8.0
  1
.
 50
354.955339
  7
ROMANS
 72
     1
 11
958919.156337
 21
7296595.329765
 31
0.0
210
0.0
220
0.0
230
1.0
 73
     3
  0
TEXT
  8
0
  6
CONTINUOUS
 62
     7
  5
CF
 10
958924.069
 20
7296586.864
 30
0.0
 40
8.0
  1
4
 50
354.955339
  7
ROMANS
 72
     1
 11
958927.096421
 21
7296594.627866
 31
0.0
210
0.0
220
0.0
230
1.0
 73
     3
  0
TEXT
  8
0
  6
CONTINUOUS
 62
     7
  5
D0
 10
958933.043
 20
7296586.072
 30
0.0
 40
8.0
  1
1
 50
354.955339
  7
ROMANS
 72
     1
 11
958935.074294
 21
7296593.923798
 31
0.0
210
0.0
220
0.0
230
1.0
 73
     3
  0
TEXT
  8
0
  6
CONTINUOUS
 62
     7
  5
D1
 10
958941.012
 20
7296585.369
 30
0.0
 40
8.0
  1
'
 50
354.955339
  7
ROMANS
 72
     1
 11
958943.043294
 21
7296593.220798
 31
0.0
210
0.0
220
0.0
230
1.0
 73
     3
  0
TEXT
  8
0
  6
CONTINUOUS
 62
     7
  5
D2
 10
958875.2
 20
7296605.233
 30
0.0
 40
8.0
  1
N
 50
354.955339
  7
ROMANS
 72
     1
 11
958877.710239
 21
7296605.011411
 31
0.0
210
0.0
220
0.0
230
1.0
  0
TEXT
  8
0
  6
CONTINUOUS
 62
     7
  5
D3
 10
958883.357
 20
7296604.513
 30
0.0
 40
8.0
  1
8
 50
354.955339
  7
ROMANS
 72
     1
 11
958885.680963
 21
7296604.307854
 31
0.0
210
0.0
220
0.0
230
1.0
  0
TEXT
  8
0
  6
CONTINUOUS
 62
     7
  5
D4
 10
958891.138
 20
7296603.826
 30
0.0
 40
8.0
  1
6
 50
354.955339
  7
ROMANS
 72
     1
 11
958893.648239
 21
7296603.604411
 31
0.0
210
0.0
220
0.0
230
1.0
  0
TEXT
  8
0
  6
CONTINUOUS
 62
     7
  5
D5
 10
958900.205
 20
7296603.025
 30
0.0
 40
8.0
  1
%%d
 50
354.955339
  7
ROMANS
 72
     1
 11
958901.636434
 21
7296602.898641
 31
0.0
210
0.0
220
0.0
230
1.0
  0
TEXT
  8
0
  6
CONTINUOUS
 62
     7
  5
D6
 10
958908.267
 20
7296602.314
 30
0.0
 40
8.0
  1
1
 50
354.955339
  7
ROMANS
 72
     1
 11
958909.594837
 21
7296602.196786
 31
0.0
210
0.0
220
0.0
230
1.0
  0
TEXT
  8
0
  6
CONTINUOUS
 62
     7
  5
D7
 10
958915.045
 20
7296601.716
 30
0.0
 40
8.0
  1
6
 50
354.955339
  7
ROMANS
 72
     1
 11
958917.555239
 21
7296601.494411
 31
0.0
210
0.0
220
0.0
230
1.0
  0
TEXT
  8
0
  6
CONTINUOUS
 62
     7
  5
D8
 10
958924.205
 20
7296600.907
 30
0.0
 40
8.0
  1
'
 50
354.955339
  7
ROMANS
 72
     1
 11
958925.532837
 21
7296600.789786
 31
0.0
210
0.0
220
0.0
230
1.0
  0
TEXT
  8
0
  6
CONTINUOUS
 62
     7
  5
D9
 10
958932.175
 20
7296600.203
 30
0.0
 40
8.0
  1
1
 50
354.955339
  7
ROMANS
 72
     1
 11
958933.502837
 21
7296600.085786
 31
0.0
210
0.0
220
0.0
230
1.0
  0
TEXT
  8
0
  6
CONTINUOUS
 62
     7
  5
DA
 10
958939.14
 20
7296599.589
 30
0.0
 40
8.0
  1
9
 50
354.955339
  7
ROMANS
 72
     1
 11
958941.463963
 21
7296599.383854
 31
0.0
210
0.0
220
0.0
230
1.0
  0
TEXT
  8
0
  6
CONTINUOUS
 62
     7
  5
DB
 10
958946.858
 20
7296598.907
 30
0.0
 40
8.0
  1
"
 50
354.955339
  7
ROMANS
 72
     1
 11
958949.430995
 21
7296598.679871
 31
0.0
210
0.0
220
0.0
230
1.0
  0
TEXT
  8
0
  6
CONTINUOUS
 62
     7
  5
DC
 10
958954.576
 20
7296598.225
 30
0.0
 40
8.0
  1
W
 50
354.955339
  7
ROMANS
 72
     1
 11
958957.428906
 21
7296597.973162
 31
0.0
210
0.0
220
0.0
230
1.0
  0
TEXT
  8
0
  6
CONTINUOUS
 62
     7
  5
DD
 10
958699.275
 20
7296577.996
 30
0.0
 40
8.0
  1
6
 50
39.755442
  7
ROMANS
 72
     1
 11
958701.212328
 21
7296579.60757
 31
0.0
210
0.0
220
0.0
230
1.0
  0
TEXT
  8
0
  6
CONTINUOUS
 62
     7
  5
DE
 10
958705.572
 20
7296583.232
 30
0.0
 40
8.0
  1
8
 50
39.755442
  7
ROMANS
 72
     1
 11
958707.365566
 21
7296584.723982
 31
0.0
210
0.0
220
0.0
230
1.0
  0
TEXT
  8
0
  6
CONTINUOUS
 62
     7
  5
DF
 10
958712.521
 20
7296589.014
 30
0.0
 40
8.0
  1
.
 50
39.755442
  7
ROMANS
 72
     1
 11
958713.537329
 21
7296589.859435
 31
0.0
210
0.0
220
0.0
230
1.0
  0
TEXT
  8
0
  6
CONTINUOUS
 62
     7
  5
E0
 10
958717.873
 20
7296593.465
 30
0.0
 40
8.0
  1
2
 50
39.755442
  7
ROMANS
 72
     1
 11
958719.666566
 21
7296594.956982
 31
0.0
210
0.0
220
0.0
230
1.0
  0
TEXT
  8
0
  6
CONTINUOUS
 62
     7
  5
E1
 10
958723.78
 20
7296598.379
 30
0.0
 40
8.0
  1
0
 50
39.755442
  7
ROMANS
 72
     1
 11
958725.818039
 21
7296600.074346
 31
0.0
210
0.0
220
0.0
230
1.0
  0
TEXT
  8
0
  6
CONTINUOUS
 62
     7
  5
E2
 10
958730.949
 20
7296604.342
 30
0.0
 40
8.0
  1
'
 50
39.755442
  7
ROMANS
 72
     1
 11
958731.973785
 21
7296605.19447
 31
0.0
210
0.0
220
0.0
230
1.0
  0
TEXT
  8
0
  6
CONTINUOUS
 62
     7
  5
E3
 10
958719.15
 20
7296577.469
 30
0.0
 40
8.0
  1
N46%%d43'42"W
 50
358.6834
  7
ROMANS
210
0.0
220
0.0
230
1.0
  0
TEXT
  8
0
  6
CONTINUOUS
 62
     7
  5
E4
 10
958670.047
 20
7294605.641
 30
0.0
 40
8.0
  1
1
 50
270.242122
  7
ROMANS
 72
     1
 11
958670.052637
 21
7294604.307012
 31
0.0
210
0.0
220
0.0
230
1.0
  0
TEXT
  8
0
  6
CONTINUOUS
 62
     7
  5
E5
 10
958670.081
 20
7294597.641
 30
0.0
 40
8.0
  1
1
 50
270.242122
  7
ROMANS
 72
     1
 11
958670.086637
 21
7294596.307012
 31
0.0
210
0.0
220
0.0
230
1.0
  0
TEXT
  8
0
  6
CONTINUOUS
 62
     7
  5
E6
 10
958670.112
 20
7294590.649
 30
0.0
 40
8.0
  1
7
 50
270.242122
  7
ROMANS
 72
     1
 11
958670.121859
 21
7294588.316021
 31
0.0
210
0.0
220
0.0
230
1.0
  0
TEXT
  8
0
  6
CONTINUOUS
 62
     7
  5
E7
 10
958670.145
 20
7294582.649
 30
0.0
 40
8.0
  1
2
 50
270.242122
  7
ROMANS
 72
     1
 11
958670.154859
 21
7294580.316021
 31
0.0
210
0.0
220
0.0
230
1.0
  0
TEXT
  8
0
  6
CONTINUOUS
 62
     7
  5
E8
 10
958670.183
 20
7294573.61
 30
0.0
 40
8.0
  1
.
 50
270.242122
  7
ROMANS
 72
     1
 11
958670.188587
 21
7294572.288012
 31
0.0
210
0.0
220
0.0
230
1.0
  0
TEXT
  8
0
  6
CONTINUOUS
 62
     7
  5
E9
 10
958670.212
 20
7294566.649
 30
0.0
 40
8.0
  1
9
 50
270.242122
  7
ROMANS
 72
     1
 11
958670.221859
 21
7294564.316021
 31
0.0
210
0.0
220
0.0
230
1.0
  0
TEXT
  8
0
  6
CONTINUOUS
 62
     7
  5
EA
 10
958670.25
 20
7294557.641
 30
0.0
 40
8.0
  1
1
 50
270.242122
  7
ROMANS
 72
     1
 11
958670.255637
 21
7294556.307012
 31
0.0
210
0.0
220
0.0
230
1.0
  0
TEXT
  8
0
  6
CONTINUOUS
 62
     7
  5
EB
 10
958670.284
 20
7294549.641
 30
0.0
 40
8.0
  1
'
 50
270.242122
  7
ROMANS
 72
     1
 11
958670.289637
 21
7294548.307012
 31
0.0
210
0.0
220
0.0
230
1.0
  0
TEXT
  8
0
  6
CONTINUOUS
 62
     7
  5
EC
 10
958670.306
 20
7294544.287
 30
0.0
 40
8.0
  1
 
 50
270.242122
  7
ROMANS
 72
     1
 11
958670.317266
 21
7294541.621024
 31
0.0
210
0.0
220
0.0
230
1.0
  0
TEXT
  8
0
  6
CONTINUOUS
 62
     7
  5
ED
 10
958670.341
 20
7294536.288
 30
0.0
 40
8.0
  1
 
 50
270.242122
  7
ROMANS
 72
     1
 11
958670.352266
 21
7294533.622024
 31
0.0
210
0.0
220
0.0
230
1.0
  0
TEXT
  8
0
  6
CONTINUOUS
 62
     7
  5
EE
 10
958670.373
 20
7294528.288
 30
0.0
 40
8.0
  1
 
 50
270.242122
  7
ROMANS
 72
     1
 11
958670.384266
 21
7294525.622024
 31
0.0
210
0.0
220
0.0
230
1.0
  0
TEXT
  8
0
  6
CONTINUOUS
 62
     7
  5
EF
 10
958668.285
 20
7295022.703
 30
0.0
 40
8.0
  1
1
 50
270.242122
  7
ROMANS
 72
     1
 11
958668.290637
 21
7295021.369012
 31
0.0
210
0.0
220
0.0
230
1.0
  0
TEXT
  8
0
  6
CONTINUOUS
 62
     7
  5
F0
 10
958668.319
 20
7295014.703
 30
0.0
 40
8.0
  1
1
 50
270.242122
  7
ROMANS
 72
     1
 11
958668.324637
 21
7295013.369012
 31
0.0
210
0.0
220
0.0
230
1.0
  0
TEXT
  8
0
  6
CONTINUOUS
 62
     7
  5
F1
 10
958668.349
 20
7295007.711
 30
0.0
 40
8.0
  1
7
 50
270.242122
  7
ROMANS
 72
     1
 11
958668.358859
 21
7295005.378021
 31
0.0
210
0.0
220
0.0
230
1.0
  0
TEXT
  8
0
  6
CONTINUOUS
 62
     7
  5
F2
 10
958668.382
 20
7294999.712
 30
0.0
 40
8.0
  1
2
 50
270.242122
  7
ROMANS
 72
     1
 11
958668.391859
 21
7294997.379021
 31
0.0
210
0.0
220
0.0
230
1.0
  0
TEXT
  8
0
  6
CONTINUOUS
 62
     7
  5
F3
 10
958668.421
 20
7294990.672
 30
0.0
 40
8.0
  1
.
 50
270.242122
  7
ROMANS
 72
     1
 11
958668.426587
 21
7294989.350012
 31
0.0
210
0.0
220
0.0
230
1.0
  0
TEXT
  8
0
  6
CONTINUOUS
 62
     7
  5
F4
 10
958668.45
 20
7294983.712
 30
0.0
 40
8.0
  1
9
 50
270.242122
  7
ROMANS
 72
     1
 11
958668.459859
 21
7294981.379021
 31
0.0
210
0.0
220
0.0
230
1.0
  0
TEXT
  8
0
  6
CONTINUOUS
 62
     7
  5
F5
 10
958668.488
 20
7294974.704
 30
0.0
 40
8.0
  1
1
 50
270.242122
  7
ROMANS
 72
     1
 11
958668.493637
 21
7294973.370012
 31
0.0
210
0.0
220
0.0
230
1.0
  0
TEXT
  8
0
  6
CONTINUOUS
 62
     7
  5
F6
 10
958668.522
 20
7294966.704
 30
0.0
 40
8.0
  1
'
 50
270.242122
  7
ROMANS
 72
     1
 11
958668.527637
 21
7294965.370012
 31
0.0
210
0.0
220
0.0
230
1.0
  0
TEXT
  8
0
  6
CONTINUOUS
 62
     7
  5
F7
 10
958668.544
 20
7294961.35
 30
0.0
 40
8.0
  1
 
 50
270.242122
  7
ROMANS
 72
     1
 11
958668.555266
 21
7294958.684024
 31
0.0
210
0.0
220
0.0
230
1.0
  0
TEXT
  8
0
  6
CONTINUOUS
 62
     7
  5
F8
 10
958668.578
 20
7294953.35
 30
0.0
 40
8.0
  1
 
 50
270.242122
  7
ROMANS
 72
     1
 11
958668.589266
 21
7294950.684024
 31
0.0
210
0.0
220
0.0
230
1.0
  0
TEXT
  8
0
  6
CONTINUOUS
 62
     7
  5
F9
 10
958668.612
 20
7294945.35
 30
0.0
 40
8.0
  1
 
 50
270.242122
  7
ROMANS
 72
     1
 11
958668.623266
 21
7294942.684024
 31
0.0
210
0.0
220
0.0
230
1.0
  0
TEXT
  8
0
  6
CONTINUOUS
 62
     7
  5
FA
 10
958667.267
 20
7295332.061
 30
0.0
 40
8.0
  1
R
 50
269.596119
  7
ROMANS
 72
     1
 11
958667.249237
 21
7295329.541063
 31
0.0
210
0.0
220
0.0
230
1.0
  0
TEXT
  8
0
  6
CONTINUOUS
 62
     7
  5
FB
 10
958667.215
 20
7295324.85
 30
0.0
 40
8.0
  1
=
 50
269.596119
  7
ROMANS
 72
     1
 11
958667.191506
 21
7295321.517083
 31
0.0
210
0.0
220
0.0
230
1.0
  0
TEXT
  8
0
  6
CONTINUOUS
 62
     7
  5
FC
 10
958667.152
 20
7295315.873
 30
0.0
 40
8.0
  1
5
 50
269.596119
  7
ROMANS
 72
     1
 11
958667.135477
 21
7295313.529058
 31
0.0
210
0.0
220
0.0
230
1.0
  0
TEXT
  8
0
  6
CONTINUOUS
 62
     7
  5
FD
 10
958667.149
 20
7295307.902
 30
0.0
 40
8.0
  1
7
 50
270.152289
  7
ROMANS
 72
     1
 11
958667.155201
 21
7295305.569008
 31
0.0
210
0.0
220
0.0
230
1.0
  0
TEXT
  8
0
  6
CONTINUOUS
 62
     7
  5
FE
 10
958667.17
 20
7295299.902
 30
0.0
 40
8.0
  1
8
 50
270.152289
  7
ROMANS
 72
     1
 11
958667.176201
 21
7295297.569008
 31
0.0
210
0.0
220
0.0
230
1.0
  0
TEXT
  8
0
  6
CONTINUOUS
 62
     7
  5
FF
 10
958667.192
 20
7295291.903
 30
0.0
 40
8.0
  1
4
 50
270.152289
  7
ROMANS
 72
     1
 11
958667.198201
 21
7295289.570008
 31
0.0
210
0.0
220
0.0
230
1.0
  0
TEXT
  8
0
  6
CONTINUOUS
 62
     7
  5
100
 10
958667.216
 20
7295282.863
 30
0.0
 40
8.0
  1
.
 50
270.152289
  7
ROMANS
 72
     1
 11
958667.219514
 21
7295281.541005
 31
0.0
210
0.0
220
0.0
230
1.0
  0
TEXT
  8
0
  6
CONTINUOUS
 62
     7
  5
101
 10
958667.234
 20
7295275.903
 30
0.0
 40
8.0
  1
5
 50
270.152289
  7
ROMANS
 72
     1
 11
958667.24023
 21
7295273.559008
 31
0.0
210
0.0
220
0.0
230
1.0
  0
TEXT
  8
0
  6
CONTINUOUS
 62
     7
  5
102
 10
958667.255
 20
7295267.903
 30
0.0
 40
8.0
  1
7
 50
270.152289
  7
ROMANS
 72
     1
 11
958667.261201
 21
7295265.570008
 31
0.0
210
0.0
220
0.0
230
1.0
  0
TEXT
  8
0
  6
CONTINUOUS
 62
     7
  5
103
 10
958653.279
 20
7295333.786
 30
0.0
 40
8.0
  1
1
 50
269.596119
  7
ROMANS
 72
     1
 11
958661.269405
 21
7295332.396641
 31
0.0
210
0.0
220
0.0
230
1.0
 73
     3
  0
TEXT
  8
0
  6
CONTINUOUS
 62
     7
  5
104
 10
958653.228
 20
7295326.795
 30
0.0
 40
8.0
  1
7
 50
269.596119
  7
ROMANS
 72
     1
 11
958661.211356
 21
7295324.405666
 31
0.0
210
0.0
220
0.0
230
1.0
 73
     3
  0
TEXT
  8
0
  6
CONTINUOUS
 62
     7
  5
105
 10
958653.172
 20
7295318.795
 30
0.0
 40
8.0
  1
3
 50
269.596119
  7
ROMANS
 72
     1
 11
958661.155356
 21
7295316.405666
 31
0.0
210
0.0
220
0.0
230
1.0
 73
     3
  0
TEXT
  8
0
  6
CONTINUOUS
 62
     7
  5
106
 10
958653.145
 20
7295309.649
 30
0.0
 40
8.0
  1
.
 50
270.152289
  7
ROMANS
 72
     1
 11
958661.148486
 21
7295308.348268
 31
0.0
210
0.0
220
0.0
230
1.0
 73
     3
  0
TEXT
  8
0
  6
CONTINUOUS
 62
     7
  5
107
 10
958653.164
 20
7295302.689
 30
0.0
 40
8.0
  1
3
 50
270.152289
  7
ROMANS
 72
     1
 11
958661.170173
 21
7295300.377272
 31
0.0
210
0.0
220
0.0
230
1.0
 73
     3
  0
TEXT
  8
6
  6
CONTINUOUS
 62
     7
  5
108
 10
958653.188
 20
7295293.68
 30
0.0
 40
8.0
  1
1
 50
270.152289
  7
ROMANS
 72
     1
 11
958661.191515
 21
7295292.368268
 31
0.0
210
0.0
220
0.0
230
1.0
 73
     3
  0
TEXT
  8
0
  6
CONTINUOUS
 62
     7
  5
109
 10
958653.209
 20
7295285.68
 30
0.0
 40
8.0
  1
'
 50
270.152289
  7
ROMANS
 72
     1
 11
958661.212515
 21
7295284.368268
 31
0.0
210
0.0
220
0.0
230
1.0
 73
     3
  0
TEXT
  8
0
  6
CONTINUOUS
 62
     7
  5
10A
 10
958676.196
 20
7295763.359
 30
0.0
 40
8.0
  1
8
 50
268.6834
  7
ROMANS
 72
     1
 11
958676.142395
 21
7295761.026616
 31
0.0
210
0.0
220
0.0
230
1.0
  0
TEXT
  8
0
  6
CONTINUOUS
 62
     7
  5
10B
 10
958676.011
 20
7295755.361
 30
0.0
 40
8.0
  1
2
 50
268.6834
  7
ROMANS
 72
     1
 11
958675.957395
 21
7295753.028616
 31
0.0
210
0.0
220
0.0
230
1.0
  0
TEXT
  8
0
  6
CONTINUOUS
 62
     7
  5
10C
 10
958675.828
 20
7295747.363
 30
0.0
 40
8.0
  1
8
 50
268.6834
  7
ROMANS
 72
     1
 11
958675.774395
 21
7295745.030616
 31
0.0
210
0.0
220
0.0
230
1.0
  0
TEXT
  8
0
  6
CONTINUOUS
 62
     7
  5
10D
 10
958675.621
 20
7295738.357
 30
0.0
 40
8.0
  1
'
 50
268.6834
  7
ROMANS
 72
     1
 11
958675.590372
 21
7295737.024352
 31
0.0
210
0.0
220
0.0
230
1.0
  0
TEXT
  8
0
  6
CONTINUOUS
 62
     7
  5
10E
 10
958609.131
 20
7294092.095
 30
0.0
 40
8.0
  1
89.93'
 50
358.6834
  7
ROMANS
210
0.0
220
0.0
230
1.0
  0
TEXT
  8
0
  6
CONTINUOUS
 62
     7
  5
10F
 10
958637.904
 20
7297245.143
 30
0.0
 40
8.0
  1
30'
 50
358.6834
  7
ROMANS
210
0.0
220
0.0
230
1.0
  0
TEXT
  8
0
  6
CONTINUOUS
 62
     7
  5
110
 10
958681.475
 20
7297264.405
 30
0.0
 40
8.0
  1
301'
 50
88.6834
  7
ROMANS
210
0.0
220
0.0
230
1.0
  0
TEXT
  8
0
  6
CONTINUOUS
 62
     7
  5
111
 10
958680.317
 20
7297018.268
 30
0.0
 40
8.0
  1
144.24'
 50
88.6834
  7
ROMANS
210
0.0
220
0.0
230
1.0
  0
TEXT
  8
0
  6
CONTINUOUS
 62
     7
  5
112
 10
958690.28
 20
7296929.479
 30
0.0
 40
8.0
  1
R=1155'
 50
88.6834
  7
ROMANS
210
0.0
220
0.0
230
1.0
  0
TEXT
  8
0
  6
CONTINUOUS
 62
     7
  5
113
 10
958708.24
 20
7296927.567
 30
0.0
 40
8.0
  1
156.11'
 50
88.6834
  7
ROMANS
210
0.0
220
0.0
230
1.0
  0
TEXT
  8
0
  6
CONTINUOUS
 62
     7
  5
114
 10
959158.198
 20
7299208.609
 30
0.0
 40
8.0
  1
R
 50
17.472417
  7
ROMANS
 72
     1
 11
959160.601731
 21
7299209.365621
 31
0.0
210
0.0
220
0.0
230
1.0
  0
TEXT
  8
0
  6
CONTINUOUS
 62
     7
  5
115
 10
959165.077
 20
7299210.776
 30
0.0
 40
8.0
  1
=
 50
17.472417
  7
ROMANS
 72
     1
 11
959168.256221
 21
7299211.776722
 31
0.0
210
0.0
220
0.0
230
1.0
  0
TEXT
  8
0
  6
CONTINUOUS
 62
     7
  5
116
 10
959173.538
 20
7299213.408
 30
0.0
 40
8.0
  1
4
 50
19.682889
  7
ROMANS
 72
     1
 11
959175.734686
 21
7299214.193787
 31
0.0
210
0.0
220
0.0
230
1.0
  0
TEXT
  8
0
  6
CONTINUOUS
 62
     7
  5
117
 10
959181.069
 20
7299216.103
 30
0.0
 40
8.0
  1
3
 50
19.682889
  7
ROMANS
 72
     1
 11
959183.265686
 21
7299216.888787
 31
0.0
210
0.0
220
0.0
230
1.0
  0
TEXT
  8
0
  6
CONTINUOUS
 62
     7
  5
118
 10
959188.218
 20
7299218.593
 30
0.0
 40
8.0
  1
0
 50
21.893361
  7
ROMANS
 72
     1
 11
959190.677808
 21
7299219.581506
 31
0.0
210
0.0
220
0.0
230
1.0
  0
TEXT
  8
0
  6
CONTINUOUS
 62
     7
  5
119
 10
959196.87
 20
7299222.07
 30
0.0
 40
8.0
  1
'
 50
21.893361
  7
ROMANS
 72
     1
 11
959198.107791
 21
7299222.567422
 31
0.0
210
0.0
220
0.0
230
1.0
  0
TEXT
  8
0
  6
CONTINUOUS
 62
     7
  5
11A
 10
959396.554
 20
7299266.468
 30
0.0
 40
8.0
  1
R
 50
26.314306
  7
ROMANS
 72
     1
 11
959395.266507
 21
7299274.75611
 31
0.0
210
0.0
220
0.0
230
1.0
 73
     3
  0
TEXT
  8
0
  6
CONTINUOUS
 62
     7
  5
11B
 10
959403.018
 20
7299269.665
 30
0.0
 40
8.0
  1
=
 50
26.314306
  7
ROMANS
 72
     1
 11
959402.45926
 21
7299278.313508
 31
0.0
210
0.0
220
0.0
230
1.0
 73
     3
  0
TEXT
  8
0
  6
CONTINUOUS
 62
     7
  5
11C
 10
959410.67
 20
7299273.487
 30
0.0
 40
8.0
  1
4
 50
24.103833
  7
ROMANS
 72
     1
 11
959409.532446
 21
7299281.742232
 31
0.0
210
0.0
220
0.0
230
1.0
 73
     3
  0
TEXT
  8
0
  6
CONTINUOUS
 62
     7
  5
11D
 10
959417.971
 20
7299276.754
 30
0.0
 40
8.0
  1
3
 50
24.103833
  7
ROMANS
 72
     1
 11
959416.833446
 21
7299285.009232
 31
0.0
210
0.0
220
0.0
230
1.0
 73
     3
  0
TEXT
  8
0
  6
CONTINUOUS
 62
     7
  5
11E
 10
959424.572
 20
7299279.783
 30
0.0
 40
8.0
  1
0
 50
21.893361
  7
ROMANS
 72
     1
 11
959424.048766
 21
7299288.194541
 31
0.0
210
0.0
220
0.0
230
1.0
 73
     3
  0
TEXT
  8
0
  6
CONTINUOUS
 62
     7
  5
11F
 10
959433.223
 20
7299283.26
 30
0.0
 40
8.0
  1
'
 50
21.893361
  7
ROMANS
 72
     1
 11
959431.477749
 21
7299291.180458
 31
0.0
210
0.0
220
0.0
230
1.0
 73
     3
  0
TEXT
  8
0
  6
CONTINUOUS
 62
     7
  5
120
 10
959339.35
 20
7299307.584
 30
0.0
 40
8.0
  1
R
 50
30.855889
  7
ROMANS
 72
     1
 11
959341.513319
 21
7299308.876459
 31
0.0
210
0.0
220
0.0
230
1.0
  0
TEXT
  8
0
  6
CONTINUOUS
 62
     7
  5
121
 10
959345.543
 20
7299311.285
 30
0.0
 40
8.0
  1
=
 50
30.855889
  7
ROMANS
 72
     1
 11
959348.404247
 21
7299312.994431
 31
0.0
210
0.0
220
0.0
230
1.0
  0
TEXT
  8
0
  6
CONTINUOUS
 62
     7
  5
122
 10
959353.416
 20
7299315.815
 30
0.0
 40
8.0
  1
4
 50
28.763714
  7
ROMANS
 72
     1
 11
959355.461135
 21
7299316.937636
 31
0.0
210
0.0
220
0.0
230
1.0
  0
TEXT
  8
0
  6
CONTINUOUS
 62
     7
  5
123
 10
959360.43
 20
7299319.665
 30
0.0
 40
8.0
  1
8
 50
28.763714
  7
ROMANS
 72
     1
 11
959362.475135
 21
7299320.787636
 31
0.0
210
0.0
220
0.0
230
1.0
  0
TEXT
  8
0
  6
CONTINUOUS
 62
     7
  5
124
 10
959367.3
 20
7299323.342
 30
0.0
 40
8.0
  1
0
 50
26.671539
  7
ROMANS
 72
     1
 11
959369.668919
 21
7299324.531968
 31
0.0
210
0.0
220
0.0
230
1.0
  0
TEXT
  8
0
  6
CONTINUOUS
 62
     7
  5
125
 10
959375.631
 20
7299327.527
 30
0.0
 40
8.0
  1
'
 50
26.671539
  7
ROMANS
 72
     1
 11
959376.822161
 21
7299328.125351
 31
0.0
210
0.0
220
0.0
230
1.0
  0
TEXT
  8
0
  6
CONTINUOUS
 62
     7
  5
126
 10
959191.54
 20
7299152.041
 30
0.0
 40
8.0
  1
R
 50
18.559064
  7
ROMANS
 72
     1
 11
959191.382693
 21
7299160.427039
 31
0.0
210
0.0
220
0.0
230
1.0
 73
     3
  0
TEXT
  8
0
  6
CONTINUOUS
 62
     7
  5
127
 10
959198.377
 20
7299154.336
 30
0.0
 40
8.0
  1
=
 50
18.559064
  7
ROMANS
 72
     1
 11
959198.990414
 21
7299162.980803
 31
0.0
210
0.0
220
0.0
230
1.0
 73
     3
  0
TEXT
  8
0
  6
CONTINUOUS
 62
     7
  5
128
 10
959207.212
 20
7299157.478
 30
0.0
 40
8.0
  1
4
 50
20.651239
  7
ROMANS
 72
     1
 11
959206.573663
 21
7299165.786755
 31
0.0
210
0.0
220
0.0
230
1.0
 73
     3
  0
TEXT
  8
0
  6
CONTINUOUS
 62
     7
  5
129
 10
959214.698
 20
7299160.3
 30
0.0
 40
8.0
  1
8
 50
20.651239
  7
ROMANS
 72
     1
 11
959214.059663
 21
7299168.608755
 31
0.0
210
0.0
220
0.0
230
1.0
 73
     3
  0
TEXT
  8
0
  6
CONTINUOUS
 62
     7
  5
12A
 10
959222.228
 20
7299163.244
 30
0.0
 40
8.0
  1
0
 50
22.743414
  7
ROMANS
 72
     1
 11
959221.580033
 21
7299171.646853
 31
0.0
210
0.0
220
0.0
230
1.0
 73
     3
  0
TEXT
  8
0
  6
CONTINUOUS
 62
     7
  5
12B
 10
959230.826
 20
7299166.849
 30
0.0
 40
8.0
  1
'
 50
22.743414
  7
ROMANS
 72
     1
 11
959228.962514
 21
7299174.742308
 31
0.0
210
0.0
220
0.0
230
1.0
 73
     3
  0
TEXT
  8
0
  6
CONTINUOUS
 62
     7
  5
12C
 10
958730.35
 20
7299106.269
 30
0.0
 40
8.0
  1
R
 50
62.051769
  7
ROMANS
 72
     1
 11
958724.464086
 21
7299112.244485
 31
0.0
210
0.0
220
0.0
230
1.0
 73
     3
  0
TEXT
  8
0
  6
CONTINUOUS
 62
     7
  5
12D
 10
958732.466
 20
7299110.797
 30
0.0
 40
8.0
  1
=
 50
50.215489
  7
ROMANS
 72
     1
 11
958728.451141
 21
7299118.477482
 31
0.0
210
0.0
220
0.0
230
1.0
 73
     3
  0
TEXT
  8
0
  6
CONTINUOUS
 62
     7
  5
12E
 10
958737.274
 20
7299116.757
 30
0.0
 40
8.0
  1
6
 50
44.297347
  7
ROMANS
 72
     1
 11
958733.49057
 21
7299124.242724
 31
0.0
210
0.0
220
0.0
230
1.0
 73
     3
  0
TEXT
  8
0
  6
CONTINUOUS
 62
     7
  5
12F
 10
958742.129
 20
7299121.424
 30
0.0
 40
8.0
  1
0
 50
38.379208
  7
ROMANS
 72
     1
 11
958739.240262
 21
7299129.341259
 31
0.0
210
0.0
220
0.0
230
1.0
 73
     3
  0
TEXT
  8
0
  6
CONTINUOUS
 62
     7
  5
130
 10
958748.763
 20
7299126.2
 30
0.0
 40
8.0
  1
'
 50
32.461067
  7
ROMANS
 72
     1
 11
958745.59476
 21
7299133.666044
 31
0.0
210
0.0
220
0.0
230
1.0
 73
     3
  0
TEXT
  8
0
  6
CONTINUOUS
 62
    30
  5
132
 10
959097.795
 20
7298957.441
 30
0.0
 40
64.0
  1
CLEAR
 50
358.6834
  7
MONOTXT
 72
     4
 11
959243.362017
 21
7298986.103876
 31
0.0
210
0.0
220
0.0
230
1.0
  0
TEXT
  8
0
  6
CONTINUOUS
 62
    30
  5
133
 10
959121.445
 20
7298867.873
 30
0.0
 40
64.0
  1
ZONE
 50
358.6834
  7
MONOTXT
 72
     4
 11
959241.078865
 21
7298897.131899
 31
0.0
210
0.0
220
0.0
230
1.0
  0
TEXT
  8
0
  6
CONTINUOUS
 62
     7
  5
134
 10
958683.356
 20
7296298.328
 30
0.0
 40
8.0
  1
R=5674.57'
 50
88.6834
  7
ROMANS
210
0.0
220
0.0
230
1.0
  0
TEXT
  8
0
  6
CONTINUOUS
 62
     7
  5
135
 10
958682.819
 20
7295256.995
 30
0.0
 40
8.0
  1
'
 50
88.6834
  7
ROMANS
 72
     4
 11
958678.850684
 21
7295258.419556
 31
0.0
210
0.0
220
0.0
230
1.0
  0
TEXT
  8
0
  6
CONTINUOUS
 62
     7
  5
136
 10
963942.498
 20
7299238.55
 30
0.0
 40
8.0
  1
15'
 50
358.6834
  7
ROMANS
 72
     4
 11
963951.920444
 21
7299242.3345
 31
0.0
210
0.0
220
0.0
230
1.0
  0
TEXT
  8
0
  6
CONTINUOUS
 62
     7
  5
137
 10
959874.588
 20
7296603.678
 30
0.0
 40
8.0
  1
R
 50
344.972825
  7
ROMANS
 72
     1
 11
959877.021823
 21
7296603.024622
 31
0.0
210
0.0
220
0.0
230
1.0
  0
TEXT
  8
0
  6
CONTINUOUS
 62
     7
  5
138
 10
959882.288
 20
7296601.595
 30
0.0
 40
8.0
  1
=
 50
344.217825
  7
ROMANS
 72
     1
 11
959885.495355
 21
7296600.688488
 31
0.0
210
0.0
220
0.0
230
1.0
  0
TEXT
  8
0
  6
CONTINUOUS
 62
     7
  5
139
 10
959889.924
 20
7296599.436
 30
0.0
 40
8.0
  1
3
 50
344.217825
  7
ROMANS
 72
     1
 11
959892.169052
 21
7296598.801469
 31
0.0
210
0.0
220
0.0
230
1.0
  0
TEXT
  8
0
  6
CONTINUOUS
 62
     7
  5
13A
 10
959897.563
 20
7296597.277
 30
0.0
 40
8.0
  1
6
 50
344.217825
  7
ROMANS
 72
     1
 11
959899.988003
 21
7296596.591608
 31
0.0
210
0.0
220
0.0
230
1.0
  0
TEXT
  8
0
  6
CONTINUOUS
 62
     7
  5
13B
 10
959905.201
 20
7296595.119
 30
0.0
 40
8.0
  1
8
 50
344.217825
  7
ROMANS
 72
     1
 11
959907.446052
 21
7296594.484469
 31
0.0
210
0.0
220
0.0
230
1.0
  0
TEXT
  8
0
  6
CONTINUOUS
 62
     7
  5
13C
 10
959912.838
 20
7296592.96
 30
0.0
 40
8.0
  1
5
 50
344.217825
  7
ROMANS
 72
     1
 11
959915.093637
 21
7296592.322477
 31
0.0
210
0.0
220
0.0
230
1.0
  0
TEXT
  8
0
  6
CONTINUOUS
 62
     7
  5
13D
 10
959920.476
 20
7296590.801
 30
0.0
 40
8.0
  1
.
 50
344.217825
  7
ROMANS
 72
     1
 11
959921.748164
 21
7296590.441441
 31
0.0
210
0.0
220
0.0
230
1.0
  0
TEXT
  8
0
  6
CONTINUOUS
 62
     7
  5
13E
 10
959928.151
 20
7296588.63
 30
0.0
 40
8.0
  1
8
 50
343.462828
  7
ROMANS
 72
     1
 11
959930.387496
 21
7296587.965941
 31
0.0
210
0.0
220
0.0
230
1.0
  0
TEXT
  8
0
  6
CONTINUOUS
 62
     7
  5
13F
 10
959935.761
 20
7296586.37
 30
0.0
 40
8.0
  1
2
 50
343.462828
  7
ROMANS
 72
     1
 11
959937.997496
 21
7296585.705941
 31
0.0
210
0.0
220
0.0
230
1.0
  0
TEXT
  8
0
  6
CONTINUOUS
 62
     7
  5
140
 10
959943.368
 20
7296584.111
 30
0.0
 40
8.0
  1
'
 50
343.462828
  7
ROMANS
 72
     1
 11
959944.645861
 21
7296583.731578
 31
0.0
210
0.0
220
0.0
230
1.0
  0
TEXT
  8
0
  6
CONTINUOUS
 62
     7
  5
141
 10
959846.011
 20
7296465.479
 30
0.0
 40
8.0
  1
R
 50
344.729767
  7
ROMANS
 72
     1
 11
959848.44203
 21
7296464.815303
 31
0.0
210
0.0
220
0.0
230
1.0
  0
TEXT
  8
0
  6
CONTINUOUS
 62
     7
  5
142
 10
959853.669
 20
7296463.387
 30
0.0
 40
8.0
  1
=
 50
344.729767
  7
ROMANS
 72
     1
 11
959856.884326
 21
7296462.509181
 31
0.0
210
0.0
220
0.0
230
1.0
  0
TEXT
  8
0
  6
CONTINUOUS
 62
     7
  5
143
 10
959861.358
 20
7296461.27
 30
0.0
 40
8.0
  1
3
 50
343.9762
  7
ROMANS
 72
     1
 11
959863.600356
 21
7296460.626007
 31
0.0
210
0.0
220
0.0
230
1.0
  0
TEXT
  8
0
  6
CONTINUOUS
 62
     7
  5
144
 10
959868.987
 20
7296459.08
 30
0.0
 40
8.0
  1
6
 50
343.9762
  7
ROMANS
 72
     1
 11
959871.409091
 21
7296458.384388
 31
0.0
210
0.0
220
0.0
230
1.0
  0
TEXT
  8
0
  6
CONTINUOUS
 62
     7
  5
145
 10
959876.616
 20
7296456.888
 30
0.0
 40
8.0
  1
9
 50
343.9762
  7
ROMANS
 72
     1
 11
959878.858356
 21
7296456.244007
 31
0.0
210
0.0
220
0.0
230
1.0
  0
TEXT
  8
0
  6
CONTINUOUS
 62
     7
  5
146
 10
959884.243
 20
7296454.697
 30
0.0
 40
8.0
  1
9
 50
343.9762
  7
ROMANS
 72
     1
 11
959886.485356
 21
7296454.053007
 31
0.0
210
0.0
220
0.0
230
1.0
  0
TEXT
  8
0
  6
CONTINUOUS
 62
     7
  5
147
 10
959891.873
 20
7296452.506
 30
0.0
 40
8.0
  1
.
 50
343.9762
  7
ROMANS
 72
     1
 11
959893.143636
 21
7296452.14108
 31
0.0
210
0.0
220
0.0
230
1.0
  0
TEXT
  8
0
  6
CONTINUOUS
 62
     7
  5
148
 10
959899.501
 20
7296450.316
 30
0.0
 40
8.0
  1
8
 50
343.9762
  7
ROMANS
 72
     1
 11
959901.743356
 21
7296449.672007
 31
0.0
210
0.0
220
0.0
230
1.0
  0
TEXT
  8
0
  6
CONTINUOUS
 62
     7
  5
149
 10
959907.166
 20
7296448.109
 30
0.0
 40
8.0
  1
3
 50
343.222631
  7
ROMANS
 72
     1
 11
959909.399693
 21
7296447.435571
 31
0.0
210
0.0
220
0.0
230
1.0
  0
TEXT
  8
0
  6
CONTINUOUS
 62
     7
  5
14A
 10
959914.766
 20
7296445.819
 30
0.0
 40
8.0
  1
'
 50
343.222631
  7
ROMANS
 72
     1
 11
959916.042259
 21
7296445.434225
 31
0.0
210
0.0
220
0.0
230
1.0
  0
TEXT
  8
0
  6
CONTINUOUS
 62
     7
  5
14B
 10
959887.437
 20
7296585.591
 30
0.0
 40
8.0
  1
9
 50
344.217825
  7
ROMANS
 72
     1
 11
959891.857899
 21
7296592.65489
 31
0.0
210
0.0
220
0.0
230
1.0
 73
     3
  0
TEXT
  8
0
  6
CONTINUOUS
 62
     7
  5
14C
 10
959895.074
 20
7296583.433
 30
0.0
 40
8.0
  1
5
 50
344.217825
  7
ROMANS
 72
     1
 11
959899.505484
 21
7296590.493898
 31
0.0
210
0.0
220
0.0
230
1.0
 73
     3
  0
TEXT
  8
0
  6
CONTINUOUS
 62
     7
  5
14D
 10
959902.712
 20
7296581.274
 30
0.0
 40
8.0
  1
2
 50
344.217825
  7
ROMANS
 72
     1
 11
959907.132899
 21
7296588.33789
 31
0.0
210
0.0
220
0.0
230
1.0
 73
     3
  0
TEXT
  8
0
  6
CONTINUOUS
 62
     7
  5
14E
 10
959910.351
 20
7296579.114
 30
0.0
 40
8.0
  1
.
 50
344.217825
  7
ROMANS
 72
     1
 11
959913.799011
 21
7296586.452863
 31
0.0
210
0.0
220
0.0
230
1.0
 73
     3
  0
TEXT
  8
0
  6
CONTINUOUS
 62
     7
  5
14F
 10
959917.989
 20
7296576.957
 30
0.0
 40
8.0
  1
1
 50
344.217825
  7
ROMANS
 72
     1
 11
959921.448559
 21
7296584.292599
 31
0.0
210
0.0
220
0.0
230
1.0
 73
     3
  0
TEXT
  8
0
  6
CONTINUOUS
 62
     7
  5
150
 10
959925.48
 20
7296574.819
 30
0.0
 40
8.0
  1
'
 50
343.462828
  7
ROMANS
 72
     1
 11
959929.03496
 21
7296582.108661
 31
0.0
210
0.0
220
0.0
230
1.0
 73
     3
  0
TEXT
  8
0
  6
CONTINUOUS
 62
     7
  5
151
 10
959854.083
 20
7296448.762
 30
0.0
 40
8.0
  1
8
 50
344.729767
  7
ROMANS
 72
     1
 11
959858.440607
 21
7296455.865108
 31
0.0
210
0.0
220
0.0
230
1.0
 73
     3
  0
TEXT
  8
0
  6
CONTINUOUS
 62
     7
  5
152
 10
959861.58
 20
7296446.64
 30
0.0
 40
8.0
  1
9
 50
343.9762
  7
ROMANS
 72
     1
 11
959866.030649
 21
7296453.685183
 31
0.0
210
0.0
220
0.0
230
1.0
 73
     3
  0
TEXT
  8
0
  6
CONTINUOUS
 62
     7
  5
153
 10
959869.209
 20
7296444.449
 30
0.0
 40
8.0
  1
6
 50
343.9762
  7
ROMANS
 72
     1
 11
959873.839384
 21
7296451.442565
 31
0.0
210
0.0
220
0.0
230
1.0
 73
     3
  0
TEXT
  8
0
  6
CONTINUOUS
 62
     7
  5
154
 10
959876.837
 20
7296442.258
 30
0.0
 40
8.0
  1
.
 50
343.9762
  7
ROMANS
 72
     1
 11
959880.31593
 21
7296449.582257
 31
0.0
210
0.0
220
0.0
230
1.0
 73
     3
  0
TEXT
  8
0
  6
CONTINUOUS
 62
     7
  5
155
 10
959884.466
 20
7296440.068
 30
0.0
 40
8.0
  1
3
 50
343.9762
  7
ROMANS
 72
     1
 11
959888.916649
 21
7296447.113183
 31
0.0
210
0.0
220
0.0
230
1.0
 73
     3
  0
TEXT
  8
0
  6
CONTINUOUS
 62
     7
  5
156
 10
959892.095
 20
7296437.877
 30
0.0
 40
8.0
  1
5
 50
343.9762
  7
ROMANS
 72
     1
 11
959896.556222
 21
7296444.919147
 31
0.0
210
0.0
220
0.0
230
1.0
 73
     3
  0
TEXT
  8
0
  6
CONTINUOUS
 62
     7
  5
157
 10
959899.722
 20
7296435.686
 30
0.0
 40
8.0
  1
'
 50
343.9762
  7
ROMANS
 72
     1
 11
959903.211502
 21
7296443.00722
 31
0.0
210
0.0
220
0.0
230
1.0
 73
     3
  0
INSERT
  8
0
  6
CONTINUOUS
 62
     7
  5
15F
  2
*D0
 10
958751.798
 20
7296753.659
 30
0.0
 70
     0
 71
     0
  0
TEXT
  8
0
  6
CONTINUOUS
 62
     7
  5
160
 10
959221.371
 20
7296560.621
 30
0.0
 40
8.0
  1
3
 50
354.955339
  7
ROMANS
 72
     1
 11
959224.398421
 21
7296568.384866
 31
0.0
210
0.0
220
0.0
230
1.0
 73
     3
  0
TEXT
  8
0
  6
CONTINUOUS
 62
     7
  5
161
 10
959229.276
 20
7296559.922
 30
0.0
 40
8.0
  1
0
 50
354.955339
  7
ROMANS
 72
     1
 11
959232.620189
 21
7296567.657903
 31
0.0
210
0.0
220
0.0
230
1.0
 73
     3
  0
TEXT
  8
0
  6
CONTINUOUS
 62
     7
  5
162
 10
959237.184
 20
7296559.223
 30
0.0
 40
8.0
  1
5
 50
354.955339
  7
ROMANS
 72
     1
 11
959240.222378
 21
7296566.985899
 31
0.0
210
0.0
220
0.0
230
1.0
 73
     3
  0
TEXT
  8
0
  6
CONTINUOUS
 62
     7
  5
163
 10
959245.09
 20
7296558.527
 30
0.0
 40
8.0
  1
.
 50
354.955339
  7
ROMANS
 72
     1
 11
959247.110337
 21
7296566.379765
 31
0.0
210
0.0
220
0.0
230
1.0
 73
     3
  0
TEXT
  8
0
  6
CONTINUOUS
 62
     7
  5
164
 10
959252.996
 20
7296557.828
 30
0.0
 40
8.0
  1
5
 50
354.955339
  7
ROMANS
 72
     1
 11
959256.034378
 21
7296565.590899
 31
0.0
210
0.0
220
0.0
230
1.0
 73
     3
  0
TEXT
  8
0
  6
CONTINUOUS
 62
     7
  5
165
 10
959260.903
 20
7296557.13
 30
0.0
 40
8.0
  1
9
 50
354.955339
  7
ROMANS
 72
     1
 11
959263.930421
 21
7296564.893866
 31
0.0
210
0.0
220
0.0
230
1.0
 73
     3
  0
TEXT
  8
0
  6
CONTINUOUS
 62
     7
  5
166
 10
959268.809
 20
7296556.433
 30
0.0
 40
8.0
  1
'
 50
354.955339
  7
ROMANS
 72
     1
 11
959270.840294
 21
7296564.284798
 31
0.0
210
0.0
220
0.0
230
1.0
 73
     3
  0
TEXT
  8
0
  6
CONTINUOUS
 62
     7
  5
167
 10
958706.314
 20
7296794.727
 30
0.0
 40
8.0
  1
R
 50
290.719447
  7
ROMANS
 72
     1
 11
958707.205557
 21
7296792.369984
 31
0.0
210
0.0
220
0.0
230
1.0
  0
TEXT
  8
0
  6
CONTINUOUS
 62
     7
  5
168
 10
958708.99
 20
7296787.599
 30
0.0
 40
8.0
  1
=
 50
296.900806
  7
ROMANS
 72
     1
 11
958710.498007
 21
7296784.62666
 31
0.0
210
0.0
220
0.0
230
1.0
  0
TEXT
  8
0
  6
CONTINUOUS
 62
     7
  5
169
 10
958712.606
 20
7296780.909
 30
0.0
 40
8.0
  1
5
 50
303.082164
  7
ROMANS
 72
     1
 11
958713.885452
 21
7296778.944989
 31
0.0
210
0.0
220
0.0
230
1.0
  0
TEXT
  8
0
  6
CONTINUOUS
 62
     7
  5
16A
 10
958716.727
 20
7296774.876
 30
0.0
 40
8.0
  1
5
 50
315.444881
  7
ROMANS
 72
     1
 11
958718.397278
 21
7296773.231461
 31
0.0
210
0.0
220
0.0
230
1.0
  0
TEXT
  8
0
  6
CONTINUOUS
 62
     7
  5
16B
 10
958722.146
 20
7296769.528
 30
0.0
 40
8.0
  1
'
 50
321.626239
  7
ROMANS
 72
     1
 11
958723.191042
 21
7296768.700489
 31
0.0
210
0.0
220
0.0
230
1.0
  0
TEXT
  8
0
  6
CONTINUOUS
 62
    30
  5
16C
 10
963555.701
 20
7294162.223
 30
0.0
 40
10.0
  1
UNITED STATES
 50
28.6834
  7
ROMANC
 72
     4
 11
963612.773198
 21
7294199.147028
 31
0.0
210
0.0
220
0.0
230
1.0
  0
TEXT
  8
0
  6
CONTINUOUS
 62
    30
  5
16D
 10
963632.324
 20
7294159.222
 30
0.0
 40
10.0
  1
OF
 50
28.6834
  7
ROMANC
 72
     4
 11
963638.005705
 21
7294168.029904
 31
0.0
210
0.0
220
0.0
230
1.0
  0
TEXT
  8
0
  6
CONTINUOUS
 62
    30
  5
16E
 10
963628.942
 20
7294073.181
 30
0.0
 40
10.0
  1
AMERICA
 50
28.6834
  7
ROMANC
 72
     4
 11
963658.489373
 21
7294095.04599
 31
0.0
210
0.0
220
0.0
230
1.0
  0
ARC
  8
0
  6
DASHDOT
 62
     7
  5
16F
 10
953018.042994
 20
7296562.428502
 30
0.0
 40
5676.578
 50
356.962581
 51
358.6834
210
0.0
220
0.0
230
1.0
  0
LINE
  8
0
  6
DASHDOT
 62
     7
  5
170
 10
958686.649
 20
7296261.697
 30
0.0
 11
958682.529
 21
7296082.448
 31
0.0
  0
LINE
  8
0
  6
DASHDOT
 62
     7
  5
171
 10
958696.331
 20
7296571.644
 30
0.0
 11
958693.123
 21
7296431.998
 31
0.0
  0
LINE
  8
0
  6
DASHDOT
 62
     7
  5
172
 10
959084.746
 20
7296582.418
 30
0.0
 11
959073.048
 21
7296073.473
 31
0.0
  0
LINE
  8
0
  6
DASHDOT
 62
     7
  5
173
 10
959096.239
 20
7296212.057
 30
0.0
 11
958683.725
 21
7296221.537
 31
0.0
  0
LINE
  8
0
  6
DASHDOT
 62
     7
  5
174
 10
959095.779
 20
7296192.062
 30
0.0
 11
958683.266
 21
7296201.542
 31
0.0
  0
POLYLINE
  8
1
  6
HIDDEN
 62
   253
  5
176
 66
     1
 10
0.0
 20
0.0
 30
0.0
  0
VERTEX
  8
1
  6
HIDDEN
 62
   253
  5
177
 10
958501.413
 20
7294182.982
 30
0.0
  0
VERTEX
  8
1
  6
HIDDEN
 62
   253
  5
178
 10
958646.192
 20
7299438.056
 30
0.0
  0
VERTEX
  8
1
  6
HIDDEN
 62
   253
  5
179
 10
963937.96
 20
7299295.0
 30
0.0
  0
VERTEX
  8
1
  6
HIDDEN
 62
   253
  5
17A
 10
963796.201
 20
7294035.838
 30
0.0
  0
VERTEX
  8
1
  6
HIDDEN
 62
   253
  5
17B
 10
958501.413
 20
7294182.982
 30
0.0
  0
SEQEND
  8
1
  6
HIDDEN
 62
   253
  5
17C
  0
TEXT
  8
19
  6
CONTINUOUS
 62
     1
  5
17E
 10
959729.029
 20
7299316.261
 30
0.0
 40
24.0
  1
E BLUEFIELD ST
 50
358.6834
  7
ROMANC
 72
     4
 11
959903.862627
 21
7299324.245959
 31
0.0
210
0.0
220
0.0
230
1.0
  0
TEXT
  8
19
  6
CONTINUOUS
 62
     1
  5
17F
 10
963424.443
 20
7299215.006
 30
0.0
 40
24.0
  1
E BLUEFIELD ST
 50
358.6834
  7
ROMANC
 72
     4
 11
963599.276627
 21
7299222.990959
 31
0.0
210
0.0
220
0.0
230
1.0
  0
TEXT
  8
19
  6
CONTINUOUS
 62
     1
  5
180
 10
959923.365
 20
7294045.685
 30
0.0
 40
24.0
  1
E KENT ST
 50
358.6834
  7
ROMANC
 72
     4
 11
960037.651616
 21
7294055.061514
 31
0.0
210
0.0
220
0.0
230
1.0
  0
TEXT
  8
19
  6
CONTINUOUS
 62
     1
  5
181
 10
961640.885
 20
7294000.142
 30
0.0
 40
24.0
  1
E KENT ST
 50
358.6834
  7
ROMANC
 72
     4
 11
961755.171616
 21
7294009.518514
 31
0.0
210
0.0
220
0.0
230
1.0
  0
TEXT
  8
19
  6
CONTINUOUS
 62
     1
  5
182
 10
958623.023
 20
7294152.537
 30
0.0
 40
24.0
  1
N MARTIN LUTHER KING, JR BLVD
 50
88.6834
  7
ROMANC
 72
     4
 11
958619.527514
 21
7294522.709043
 31
0.0
210
0.0
220
0.0
230
1.0
  0
TEXT
  8
19
  6
CONTINUOUS
 62
     1
  5
183
 10
958673.833
 20
7298621.487
 30
0.0
 40
24.0
  1
N MARTIN LUTHER KING, JR BLVD
 50
88.6834
  7
ROMANC
 72
     4
 11
958670.337514
 21
7298991.659043
 31
0.0
210
0.0
220
0.0
230
1.0
  0
TEXT
  8
19
  6
CONTINUOUS
 62
     1
  5
184
 10
959532.765
 20
7296606.306
 30
0.0
 40
24.0
  1
FARM RD 2641 (E REGIS ST)
 50
344.626319
  7
ROMANC
 72
     4
 11
959826.108267
 21
7296538.096086
 31
0.0
210
0.0
220
0.0
230
1.0
  0
TEXT
  8
19
  6
CONTINUOUS
 62
     1
  5
185
 10
962766.259
 20
7295038.419
 30
0.0
 40
24.0
  1
FARM RD 2641 (E REGIS ST)
 50
331.979786
  7
ROMANC
 72
     4
 11
963037.551956
 21
7294907.640574
 31
0.0
210
0.0
220
0.0
230
1.0
  0
TEXT
  8
19
  6
CONTINUOUS
 62
     1
  5
186
 10
963930.808
 20
7297522.67
 30
0.0
 40
24.0
  1
N GUAVA AVE
 50
88.6834
  7
ROMANC
 72
     4
 11
963922.328071
 21
7297675.967315
 31
0.0
210
0.0
220
0.0
230
1.0
  0
TEXT
  8
19
  6
CONTINUOUS
 62
     1
  5
187
 10
963867.009
 20
7294869.565
 30
0.0
 40
24.0
  1
N GUAVA AVE
 50
88.6834
  7
ROMANC
 72
     4
 11
963858.529071
 21
7295022.862315
 31
0.0
210
0.0
220
0.0
230
1.0
  0
LINE
  8
7
  6
CONTINUOUS
 62
     7
  5
188
 10
963780.156
 20
7294034.533
 30
0.0
 11
963784.751
 21
7294234.48
 31
0.0
  0
LINE
  8
7
  6
CONTINUOUS
 62
     7
  5
189
 10
963784.751
 20
7294234.48
 30
0.0
 11
963484.831
 21
7294241.374
 31
0.0
  0
LINE
  8
7
  6
CONTINUOUS
 62
     7
  5
18A
 10
963484.831
 20
7294241.374
 30
0.0
 11
963480.235
 21
7294041.426
 31
0.0
  0
LINE
  8
7
  6
CONTINUOUS
 62
     7
  5
18B
 10
963480.235
 20
7294041.426
 30
0.0
 11
963780.156
 21
7294034.533
 31
0.0
  0
LINE
  8
6
  6
CONTINUOUS
 62
     7
  5
18C
 10
963819.906
 20
7294545.238
 30
0.0
 11
963937.037
 21
7299206.529
 31
0.0
  0
LINE
  8
6
  6
CONTINUOUS
 62
     7
  5
18D
 10
963805.583
 20
7293975.262
 30
0.0
 11
963815.97
 21
7294388.601
 31
0.0
  0
LINE
  8
6
  6
CONTINUOUS
 62
     7
  5
18E
 10
958669.505
 20
7294114.325
 30
0.0
 11
963805.583
 21
7293975.262
 31
0.0
  0
TEXT
  8
10
  6
CONTINUOUS
 62
   134
  5
190
 10
963547.333
 20
7294143.486
 30
0.0
 40
13.999
  1
CANADIAN RIVER
 50
358.6834
  7
ROMANS
 11
963547.654655
 21
7294157.481304
 31
0.0
210
0.0
220
0.0
230
1.0
 73
     3
  0
TEXT
  8
10
  6
CONTINUOUS
 62
   134
  5
191
 10
963546.851
 20
7294122.494
 30
0.0
 40
13.999
  1
AUTHORITY
 50
358.6834
  7
ROMANS
 11
963547.172655
 21
7294136.489304
 31
0.0
210
0.0
220
0.0
230
1.0
 73
     3
  0
TEXT
  8
10
  6
CONTINUOUS
 62
   134
  5
192
 10
961463.791
 20
7297672.964
 30
0.0
 40
13.999
  1
UNSUBDIVIDED
 50
358.6834
  7
ROMANS
 11
961464.112655
 21
7297686.959304
 31
0.0
210
0.0
220
0.0
230
1.0
 73
     3
  0
TEXT
  8
10
  6
CONTINUOUS
 62
   134
  5
193
 10
960093.093
 20
7295133.439
 30
0.0
 40
13.999
  1
UNSUBDIVIDED
 50
358.6834
  7
ROMANS
 11
960093.414655
 21
7295147.434304
 31
0.0
210
0.0
220
0.0
230
1.0
 73
     3
  0
ARC
  8
6
  6
CONTINUOUS
 62
     7
  5
194
 10
959194.603034
 20
7294323.524835
 30
0.0
 40
2236.141532
 50
60.856292
 51
86.438625
210
0.0
220
0.0
230
1.0
  0
ARC
  8
6
  6
CONTINUOUS
 62
     7
  5
195
 10
959194.603034
 20
7294323.524835
 30
0.0
 40
2376.141532
 50
60.856292
 51
86.438625
210
0.0
220
0.0
230
1.0
  0
ARC
  8
6
  6
CONTINUOUS
 62
     7
  5
196
 10
959615.550348
 20
7298921.145865
 30
0.0
 40
460.58838
 50
93.910539
 51
128.991947
210
0.0
220
0.0
230
1.0
  0
ARC
  8
6
  6
CONTINUOUS
 62
     7
  5
197
 10
959094.880068
 20
7299467.462889
 30
0.0
 40
282.438654
 50
272.380636
 51
302.701525
210
0.0
220
0.0
230
1.0
  0
ARC
  8
6
  6
CONTINUOUS
 62
     7
  5
198
 10
959094.880168
 20
7299467.462735
 30
0.0
 40
332.438654
 50
272.380636
 51
302.701525
210
0.0
220
0.0
230
1.0
  0
LINE
  8
6
  6
CONTINUOUS
 62
     7
  5
199
 10
959274.512
 20
7299187.733
 30
0.0
 11
959354.843
 21
7299238.575
 31
0.0
  0
LINE
  8
6
  6
CONTINUOUS
 62
     7
  5
19A
 10
959247.772
 20
7299229.983
 30
0.0
 11
959328.103
 21
7299280.825
 31
0.0
  0
ARC
  8
6
  6
CONTINUOUS
 62
     7
  5
19B
 10
959615.54979
 20
7298921.145586
 30
0.0
 40
410.58838
 50
94.571819
 51
128.991947
210
0.0
220
0.0
230
1.0
  0
LINE
  8
6
  6
CONTINUOUS
 62
     7
  5
19C
 10
959582.564
 20
7299320.564
 30
0.0
 11
959582.822
 21
7299330.428
 31
0.0
  0
TEXT
  8
22
  6
CONTINUOUS
 62
     3
  5
19E
 10
958689.665
 20
7296450.89
 30
0.0
 40
8.0
  1
2'  S.P.S.
 50
88.6834
  7
ROMANS
210
0.0
220
0.0
230
1.0
  0
TEXT
  8
22
  6
CONTINUOUS
 62
     3
  5
19F
 10
958678.55
 20
7296110.214
 30
0.0
 40
8.0
  1
2'  S.P.S.
 50
88.6834
  7
ROMANS
210
0.0
220
0.0
230
1.0
  0
TEXT
  8
22
  6
CONTINUOUS
 62
     3
  5
1A0
 10
958835.742
 20
7296208.967
 30
0.0
 40
8.0
  1
10'   U.U.E.
 50
358.6834
  7
ROMANS
210
0.0
220
0.0
230
1.0
  0
TEXT
  8
22
  6
CONTINUOUS
 62
     3
  5
1A1
 10
958836.373
 20
7296198.462
 30
0.0
 40
8.0
  1
10'   U.U.E.
 50
358.6834
  7
ROMANS
210
0.0
220
0.0
230
1.0
  0
TEXT
  8
22
  6
CONTINUOUS
 62
     3
  5
1A2
 10
959090.99
 20
7296235.041
 30
0.0
 40
8.0
  1
20'  U.U.E.
 50
88.6834
  7
ROMANS
210
0.0
220
0.0
230
1.0
  0
TEXT
  8
10
  6
CONTINUOUS
 62
   134
  5
1A3
 10
958836.429
 20
7296381.303
 30
0.0
 40
13.999
  1
A
 50
358.6834
  7
ROMANS
 11
958836.750655
 21
7296395.298304
 31
0.0
210
0.0
220
0.0
230
1.0
 73
     3
  0
TEXT
  8
10
  6
CONTINUOUS
 62
   134
  5
1A4
 10
958840.583
 20
7296136.754
 30
0.0
 40
13.999
  1
B
 50
358.6834
  7
ROMANS
 11
958840.904655
 21
7296150.749304
 31
0.0
210
0.0
220
0.0
230
1.0
 73
     3
  0
TEXT
  8
19
  6
CONTINUOUS
 62
     1
  5
1A5
 10
958639.496
 20
7295844.564
 30
0.0
 40
24.0
  1
N MARTIN LUTHER KING, JR BLVD
 50
88.6834
  7
ROMANC
 72
     4
 11
958636.000514
 21
7296214.736043
 31
0.0
210
0.0
220
0.0
230
1.0
  0
TEXT
  8
19
  6
CONTINUOUS
 62
     1
  5
1A6
 10
961113.615
 20
7299283.922
 30
0.0
 40
24.0
  1
E BLUEFIELD ST
 50
358.6834
  7
ROMANC
 72
     4
 11
961288.448627
 21
7299291.906959
 31
0.0
210
0.0
220
0.0
230
1.0
  0
ENDSEC
  0
EOF
