  0
SECTION
  2
HEADER
  9
$ACADVER
  1
AC1009
  9
$INSBASE
 10
0.0
 20
0.0
 30
0.0
  9
$EXTMIN
 10
937435.865
 20
7294550.486
 30
0.0
  9
$EXTMAX
 10
942980.555
 20
7300004.558
 30
0.0
  9
$LIMMIN
 10
0.0
 20
0.0
  9
$LIMMAX
 10
12.0
 20
9.0
  9
$ORTHOMODE
 70
     0
  9
$REGENMODE
 70
     1
  9
$FILLMODE
 70
     1
  9
$QTEXTMODE
 70
     0
  9
$MIRRTEXT
 70
     1
  9
$DRAGMODE
 70
     2
  9
$LTSCALE
 40
1.0
  9
$OSMODE
 70
     0
  9
$ATTMODE
 70
     1
  9
$TEXTSIZE
 40
0.2
  9
$TRACEWID
 40
0.05
  9
$TEXTSTYLE
  7
STANDARD
  9
$CLAYER
  8
0
  9
$CELTYPE
  6
CONTINUOUS
  9
$CECOLOR
 62
   256
  9
$DIMSCALE
 40
1.0
  9
$DIMASZ
 40
0.18
  9
$DIMEXO
 40
0.0625
  9
$DIMDLI
 40
0.38
  9
$DIMRND
 40
0.0
  9
$DIMDLE
 40
0.0
  9
$DIMEXE
 40
0.18
  9
$DIMTP
 40
0.0
  9
$DIMTM
 40
0.0
  9
$DIMTXT
 40
0.18
  9
$DIMCEN
 40
0.09
  9
$DIMTSZ
 40
0.0
  9
$DIMTOL
 70
     0
  9
$DIMLIM
 70
     0
  9
$DIMTIH
 70
     1
  9
$DIMTOH
 70
     1
  9
$DIMSE1
 70
     0
  9
$DIMSE2
 70
     0
  9
$DIMTAD
 70
     0
  9
$DIMZIN
 70
     0
  9
$DIMBLK
  1

  9
$DIMASO
 70
     1
  9
$DIMSHO
 70
     1
  9
$DIMPOST
  1

  9
$DIMAPOST
  1

  9
$DIMALT
 70
     0
  9
$DIMALTD
 70
     2
  9
$DIMALTF
 40
25.4
  9
$DIMLFAC
 40
1.0
  9
$DIMTOFL
 70
     0
  9
$DIMTVP
 40
0.0
  9
$DIMTIX
 70
     0
  9
$DIMSOXD
 70
     0
  9
$DIMSAH
 70
     0
  9
$DIMBLK1
  1

  9
$DIMBLK2
  1

  9
$DIMSTYLE
  2
STANDARD
  9
$DIMCLRD
 70
     0
  9
$DIMCLRE
 70
     0
  9
$DIMCLRT
 70
     0
  9
$DIMTFAC
 40
1.0
  9
$DIMGAP
 40
0.09
  9
$LUNITS
 70
     2
  9
$LUPREC
 70
     4
  9
$AXISMODE
 70
     0
  9
$AXISUNIT
 10
0.0
 20
0.0
  9
$SKETCHINC
 40
0.1
  9
$FILLETRAD
 40
0.0
  9
$AUNITS
 70
     0
  9
$AUPREC
 70
     0
  9
$MENU
  1
acad
  9
$ELEVATION
 40
0.0
  9
$PELEVATION
 40
0.0
  9
$THICKNESS
 40
0.0
  9
$LIMCHECK
 70
     0
  9
$BLIPMODE
 70
     1
  9
$CHAMFERA
 40
0.0
  9
$CHAMFERB
 40
0.0
  9
$SKPOLY
 70
     0
  9
$TDCREATE
 40
2453013.901817130
  9
$TDUPDATE
 40
2453013.901817130
  9
$TDINDWG
 40
0.0000000000
  9
$TDUSRTIMER
 40
0.0000000000
  9
$USRTIMER
 70
     1
  9
$ANGBASE
 50
0.0
  9
$ANGDIR
 70
     0
  9
$PDMODE
 70
     0
  9
$PDSIZE
 40
0.0
  9
$PLINEWID
 40
0.0
  9
$COORDS
 70
     0
  9
$SPLFRAME
 70
     0
  9
$SPLINETYPE
 70
     6
  9
$SPLINESEGS
 70
    10
  9
$ATTDIA
 70
     0
  9
$ATTREQ
 70
     1
  9
$HANDLING
 70
     1
  9
$HANDSEED
  5
62B
  9
$SURFTAB1
 70
     6
  9
$SURFTAB2
 70
     6
  9
$SURFTYPE
 70
     6
  9
$SURFU
 70
     6
  9
$SURFV
 70
     6
  9
$UCSNAME
  2

  9
$UCSORG
 10
0.0
 20
0.0
 30
0.0
  9
$UCSXDIR
 10
1.0
 20
0.0
 30
0.0
  9
$UCSYDIR
 10
0.0
 20
1.0
 30
0.0
  9
$PUCSNAME
  2

  9
$PUCSORG
 10
0.0
 20
0.0
 30
0.0
  9
$PUCSXDIR
 10
1.0
 20
0.0
 30
0.0
  9
$PUCSYDIR
 10
0.0
 20
1.0
 30
0.0
  9
$USERI1
 70
     0
  9
$USERI2
 70
     0
  9
$USERI3
 70
     0
  9
$USERI4
 70
     0
  9
$USERI5
 70
     0
  9
$USERR1
 40
0.0
  9
$USERR2
 40
0.0
  9
$USERR3
 40
0.0
  9
$USERR4
 40
0.0
  9
$USERR5
 40
0.0
  9
$WORLDVIEW
 70
     1
  9
$SHADEDGE
 70
     3
  9
$SHADEDIF
 70
    70
  9
$TILEMODE
 70
     1
  9
$MAXACTVP
 70
    16
  9
$PINSBASE
 10
0.0
 20
0.0
 30
0.0
  9
$PLIMCHECK
 70
     0
  9
$PEXTMIN
 10
-1.000000E+20
 20
-1.000000E+20
 30
-1.000000E+20
  9
$PEXTMAX
 10
-1.000000E+20
 20
-1.000000E+20
 30
-1.000000E+20
  9
$PLIMMIN
 10
0.0
 20
0.0
  9
$PLIMMAX
 10
12.0
 20
9.0
  9
$UNITMODE
 70
     0
  9
$VISRETAIN
 70
     0
  9
$PLINEGEN
 70
     1
  9
$PSLTSCALE
 70
     0
  9
$TREEDEPTH
 70
  3020
  9
$DWGCODEPAGE
  3
ansi_1252
  0
ENDSEC
  0
SECTION
  2
TABLES
  0
TABLE
  2
VPORT
 70
     1
  0
VPORT
  2
*ACTIVE
 70
     0
 10
0.0
 20
0.0
 11
1.0
 21
1.0
 12
0.0
 22
0.0
 13
0.0
 23
0.0
 14
0.0
 24
0.0
 15
0.0
 25
0.0
 16
0.0
 26
0.0
 36
1.0
 17
940208.21
 27
7297399.697586
 37
0.0
 40
5834.775172
 41
1.45
 42
50.0
 43
0.004
 44
0.0
 50
0.0
 51
0.0
 71
     0
 72
   100
 73
     1
 74
     0
 75
     0
 76
     0
 77
     0
 78
     0
  0
ENDTAB
  0
TABLE
  2
LTYPE
 70
     7
  0
LTYPE
  2
CONTINUOUS
 70
     0
  3
Solid line
 72
    65
 73
     0
 40
0.0
  0
LTYPE
  2
DOT
 70
    64
  3
. . . . . . . . . . . . . . . . . . . . . . . . . . . . . . . . .
 72
    65
 73
     2
 40
0.25
 49
0.0
 49
-0.25
  0
LTYPE
  2
HIDDEN
 70
    64
  3
__ __ __ __ __ __ __ __ __ __ __ __ __ __ __ __ __ __ __ __ __ 
 72
    65
 73
     2
 40
0.375
 49
0.25
 49
-0.125
  0
LTYPE
  2
DASHED
 70
    64
  3
__ __ __ __ __ __ __ __ __ __ __ __ __ __ __ __ __ __ __ __ __
 72
    65
 73
     2
 40
0.75
 49
0.5
 49
-0.25
  0
LTYPE
  2
DASHDOT
 70
    64
  3
__ . __ . __ . __ . __ . __ . __ . __ . __ . __ . __ . __ . _
 72
    65
 73
     4
 40
1.0
 49
0.5
 49
-0.25
 49
0.0
 49
-0.25
  0
LTYPE
  2
DIVIDE
 70
    64
  3
____ . . ____ . . ____ . . ____ . . ____ . . ____ . . ____ . .
 72
    65
 73
     6
 40
1.25
 49
0.5
 49
-0.25
 49
0.0
 49
-0.25
 49
0.0
 49
-0.25
  0
LTYPE
  2
CENTER
 70
    64
  3
____ _ ____ _ ____ _ ____ _ ____ _ ____ _ ____ _ ____ _ ____ _
 72
    65
 73
     4
 40
2.0
 49
1.25
 49
-0.25
 49
0.25
 49
-0.25
  0
ENDTAB
  0
TABLE
  2
LAYER
 70
    15
  0
LAYER
  2
0
 70
     0
 62
     7
  6
CONTINUOUS
  0
LAYER
  2
CONSTRUCTION_CLASS
 70
     1
 62
     7
  6
CONTINUOUS
  0
LAYER
  2
PATTERN_CLASS
 70
     0
 62
     7
  6
CONTINUOUS
  0
LAYER
  2
7
 70
    64
 62
     7
  6
CONTINUOUS
  0
LAYER
  2
6
 70
    64
 62
     7
  6
CONTINUOUS
  0
LAYER
  2
10
 70
    64
 62
     7
  6
CONTINUOUS
  0
LAYER
  2
14
 70
    64
 62
     7
  6
CONTINUOUS
  0
LAYER
  2
15
 70
    64
 62
     7
  6
CONTINUOUS
  0
LAYER
  2
11
 70
    64
 62
     7
  6
CONTINUOUS
  0
LAYER
  2
DEFPOINTS
 70
    64
 62
     7
  6
CONTINUOUS
  0
LAYER
  2
21
 70
    64
 62
     7
  6
CONTINUOUS
  0
LAYER
  2
1
 70
    64
 62
     7
  6
CONTINUOUS
  0
LAYER
  2
22
 70
    64
 62
     7
  6
CONTINUOUS
  0
LAYER
  2
19
 70
    64
 62
     7
  6
CONTINUOUS
  0
LAYER
  2
58
 70
    64
 62
     7
  6
CONTINUOUS
  0
ENDTAB
  0
TABLE
  2
STYLE
 70
     4
  0
STYLE
  2
STANDARD
 70
     0
 40
0.0
 41
1.0
 50
0.0
 71
     0
 42
0.0
  3
txt
  4

  0
STYLE
  2
ROMANS
 70
     0
 40
0.2
 41
1.0
 50
0.0
 71
     0
 42
0.2
  3
ROMANS
  4

  0
STYLE
  2
ROMANC
 70
     0
 40
0.2
 41
1.0
 50
0.0
 71
     0
 42
0.2
  3
ROMANC
  4

  0
STYLE
  2
txt
 70
     0
 40
0.2
 41
1.0
 50
0.0
 71
     0
 42
0.2
  3
TXT
  4

  0
ENDTAB
  0
TABLE
  2
VIEW
 70
     0
  0
ENDTAB
  0
TABLE
  2
UCS
 70
     0
  0
ENDTAB
  0
TABLE
  2
APPID
 70
     1
  0
APPID
  2
ACAD
 70
     0
  0
ENDTAB
  0
TABLE
  2
DIMSTYLE
 70
     2
  0
DIMSTYLE
  2
STANDARD
 70
     0
  3

  4

  5

  6

  7

 40
1.0
 41
0.18
 42
0.0625
 43
0.38
 44
0.18
 45
0.0
 46
0.0
 47
0.0
 48
0.0
140
0.18
141
0.09
142
0.0
143
25.4
144
1.0
145
0.0
146
1.0
147
0.09
 71
     0
 72
     0
 73
     1
 74
     1
 75
     0
 76
     0
 77
     0
 78
     0
170
     0
171
     2
172
     0
173
     0
174
     0
175
     0
176
     0
177
     0
178
     0
  0
DIMSTYLE
  2
MSADIM
 70
     0
  3

  4

  5

  6

  7

 40
1.0
 41
8.0
 42
4.0
 43
0.0
 44
4.0
 45
0.0
 46
0.0
 47
0.0
 48
0.0
140
8.0
141
4.0
142
0.0
143
25.4
144
1.0
145
4.0
146
1.0
147
4.0
 71
     0
 72
     0
 73
     1
 74
     1
 75
     1
 76
     1
 77
     0
 78
     2
170
     0
171
     2
172
     0
173
     0
174
     0
175
     0
176
     0
177
     0
178
     0
  0
ENDTAB
  0
ENDSEC
  0
SECTION
  2
BLOCKS
  0
BLOCK
  8
11
  6
CONTINUOUS
 62
     7
  5
3FE
  2
*D0
 70
     1
 10
0.0
 20
0.0
 30
0.0
  3
*N0
  0
TEXT
  8
11
  6
CONTINUOUS
 62
     7
  5
3FF
 10
942841.816
 20
7299283.923
 30
0.0
 40
8.0
  1
N11%%d44'29"W
 50
281.741286
  7
ROMANS
 72
     1
 11
942858.371129
 21
7299243.583811
 31
0.0
210
0.0
220
0.0
230
1.0
 73
     3
  0
TEXT
  8
11
  6
CONTINUOUS
 62
     7
  5
400
 10
942861.863
 20
7299266.098
 30
0.0
 40
8.0
  1
42.67'
 50
281.741286
  7
ROMANS
 72
     1
 11
942866.204113
 21
7299245.211362
 31
0.0
210
0.0
220
0.0
230
1.0
  0
ENDBLK
  8
11
  6
CONTINUOUS
 62
     7
  5
401
  0
ENDSEC
  0
SECTION
  2
ENTITIES
  0
LINE
  8
7
  6
CONTINUOUS
 62
     7
  5
29
 10
941007.884
 20
7295594.807
 30
0.0
 11
941001.085
 21
7295379.915
 31
0.0
  0
LINE
  8
7
  6
CONTINUOUS
 62
     7
  5
2A
 10
941962.406
 20
7295564.607
 30
0.0
 11
941955.607
 21
7295349.714
 31
0.0
  0
LINE
  8
7
  6
CONTINUOUS
 62
     7
  5
2B
 10
941137.819
 20
7295590.696
 30
0.0
 11
941131.02
 21
7295375.804
 31
0.0
  0
LINE
  8
7
  6
CONTINUOUS
 62
     7
  5
2C
 10
941267.754
 20
7295586.585
 30
0.0
 11
941260.955
 21
7295371.693
 31
0.0
  0
LINE
  8
7
  6
CONTINUOUS
 62
     7
  5
2D
 10
941397.689
 20
7295582.474
 30
0.0
 11
941390.89
 21
7295367.582
 31
0.0
  0
LINE
  8
7
  6
CONTINUOUS
 62
     7
  5
2E
 10
941527.624
 20
7295578.363
 30
0.0
 11
941520.825
 21
7295363.471
 31
0.0
  0
LINE
  8
7
  6
CONTINUOUS
 62
     7
  5
2F
 10
941657.559
 20
7295574.252
 30
0.0
 11
941650.76
 21
7295359.36
 31
0.0
  0
LINE
  8
7
  6
CONTINUOUS
 62
     7
  5
30
 10
942087.344
 20
7295560.654
 30
0.0
 11
942080.545
 21
7295345.761
 31
0.0
  0
LINE
  8
7
  6
CONTINUOUS
 62
     7
  5
31
 10
942212.281
 20
7295556.701
 30
0.0
 11
942205.482
 21
7295341.808
 31
0.0
  0
LINE
  8
7
  6
CONTINUOUS
 62
     7
  5
32
 10
942337.219
 20
7295552.748
 30
0.0
 11
942330.42
 21
7295337.856
 31
0.0
  0
LINE
  8
7
  6
CONTINUOUS
 62
     7
  5
33
 10
942462.156
 20
7295548.795
 30
0.0
 11
942455.357
 21
7295333.903
 31
0.0
  0
LINE
  8
7
  6
CONTINUOUS
 62
     7
  5
34
 10
942587.094
 20
7295544.842
 30
0.0
 11
942580.294
 21
7295329.95
 31
0.0
  0
ARC
  8
6
  6
CONTINUOUS
 62
     7
  5
36
 10
940891.40519
 20
7295583.591186
 30
0.0
 40
15.0
 50
88.1352
 51
178.1352
210
0.0
220
0.0
230
1.0
  0
POLYLINE
  8
6
  6
CONTINUOUS
 62
     7
  5
37
 66
     1
 10
0.0
 20
0.0
 30
0.0
  0
VERTEX
  8
6
  6
CONTINUOUS
 62
     7
  5
38
 10
940876.413
 20
7295584.079
 30
0.0
  0
VERTEX
  8
6
  6
CONTINUOUS
 62
     7
  5
39
 10
940869.906
 20
7295384.186
 30
0.0
  0
VERTEX
  8
6
  6
CONTINUOUS
 62
     7
  5
3A
 10
941779.423
 20
7295354.572
 30
0.0
  0
VERTEX
  8
6
  6
CONTINUOUS
 62
     7
  5
3B
 10
941785.931
 20
7295554.467
 30
0.0
  0
SEQEND
  8
6
  6
CONTINUOUS
 62
     7
  5
3C
  0
LINE
  8
6
  6
CONTINUOUS
 62
     7
  5
3D
 10
941771.427
 20
7295569.947
 30
0.0
 11
940891.893
 21
7295598.583
 31
0.0
  0
ARC
  8
6
  6
CONTINUOUS
 62
     7
  5
3E
 10
941770.939139
 20
7295554.954971
 30
0.0
 40
15.0
 50
358.1352
 51
88.1352
210
0.0
220
0.0
230
1.0
  0
ARC
  8
6
  6
CONTINUOUS
 62
     7
  5
3F
 10
941850.896771
 20
7295552.351679
 30
0.0
 40
15.0
 50
88.1352
 51
178.1352
210
0.0
220
0.0
230
1.0
  0
LINE
  8
6
  6
CONTINUOUS
 62
     7
  5
40
 10
942710.159
 20
7295539.383
 30
0.0
 11
941851.384
 21
7295567.343
 31
0.0
  0
POLYLINE
  8
6
  6
CONTINUOUS
 62
     7
  5
41
 66
     1
 10
0.0
 20
0.0
 30
0.0
  0
VERTEX
  8
6
  6
CONTINUOUS
 62
     7
  5
42
 10
941835.904
 20
7295552.84
 30
0.0
  0
VERTEX
  8
6
  6
CONTINUOUS
 62
     7
  5
43
 10
941829.397
 20
7295352.945
 30
0.0
  0
VERTEX
  8
6
  6
CONTINUOUS
 62
     7
  5
44
 10
942718.156
 20
7295324.009
 30
0.0
  0
VERTEX
  8
6
  6
CONTINUOUS
 62
     7
  5
45
 10
942724.664
 20
7295523.904
 30
0.0
  0
SEQEND
  8
6
  6
CONTINUOUS
 62
     7
  5
46
  0
ARC
  8
6
  6
CONTINUOUS
 62
     7
  5
47
 10
942709.671719
 20
7295524.391343
 30
0.0
 40
15.0
 50
358.1352
 51
88.1352
210
0.0
220
0.0
230
1.0
  0
LINE
  8
7
  6
CONTINUOUS
 62
     7
  5
48
 10
941009.781
 20
7295654.777
 30
0.0
 11
941016.58
 21
7295869.67
 31
0.0
  0
LINE
  8
7
  6
CONTINUOUS
 62
     7
  5
49
 10
941964.304
 20
7295624.577
 30
0.0
 11
941971.103
 21
7295839.469
 31
0.0
  0
LINE
  8
7
  6
CONTINUOUS
 62
     7
  5
4A
 10
941139.716
 20
7295650.666
 30
0.0
 11
941146.515
 21
7295865.559
 31
0.0
  0
LINE
  8
7
  6
CONTINUOUS
 62
     7
  5
4B
 10
941269.651
 20
7295646.555
 30
0.0
 11
941276.45
 21
7295861.448
 31
0.0
  0
LINE
  8
7
  6
CONTINUOUS
 62
     7
  5
4C
 10
941399.586
 20
7295642.444
 30
0.0
 11
941406.385
 21
7295857.337
 31
0.0
  0
LINE
  8
7
  6
CONTINUOUS
 62
     7
  5
4D
 10
941529.521
 20
7295638.333
 30
0.0
 11
941536.32
 21
7295853.226
 31
0.0
  0
LINE
  8
7
  6
CONTINUOUS
 62
     7
  5
4E
 10
941659.456
 20
7295634.222
 30
0.0
 11
941666.255
 21
7295849.114
 31
0.0
  0
LINE
  8
7
  6
CONTINUOUS
 62
     7
  5
4F
 10
942089.241
 20
7295620.624
 30
0.0
 11
942096.04
 21
7295835.516
 31
0.0
  0
LINE
  8
7
  6
CONTINUOUS
 62
     7
  5
50
 10
942214.179
 20
7295616.671
 30
0.0
 11
942220.978
 21
7295831.563
 31
0.0
  0
LINE
  8
7
  6
CONTINUOUS
 62
     7
  5
51
 10
942339.116
 20
7295612.718
 30
0.0
 11
942345.915
 21
7295827.61
 31
0.0
  0
LINE
  8
7
  6
CONTINUOUS
 62
     7
  5
52
 10
942464.053
 20
7295608.765
 30
0.0
 11
942470.853
 21
7295823.658
 31
0.0
  0
LINE
  8
7
  6
CONTINUOUS
 62
     7
  5
53
 10
942588.991
 20
7295604.812
 30
0.0
 11
942595.79
 21
7295819.705
 31
0.0
  0
ARC
  8
6
  6
CONTINUOUS
 62
     7
  5
54
 10
940894.333894
 20
7295673.543522
 30
0.0
 40
15.0
 50
178.1352
 51
268.1352
210
0.0
220
0.0
230
1.0
  0
POLYLINE
  8
6
  6
CONTINUOUS
 62
     7
  5
55
 66
     1
 10
0.0
 20
0.0
 30
0.0
  0
VERTEX
  8
6
  6
CONTINUOUS
 62
     7
  5
56
 10
940879.342
 20
7295674.032
 30
0.0
  0
VERTEX
  8
6
  6
CONTINUOUS
 62
     7
  5
57
 10
940885.85
 20
7295873.926
 30
0.0
  0
VERTEX
  8
6
  6
CONTINUOUS
 62
     7
  5
58
 10
941795.368
 20
7295844.313
 30
0.0
  0
VERTEX
  8
6
  6
CONTINUOUS
 62
     7
  5
59
 10
941788.859
 20
7295644.418
 30
0.0
  0
SEQEND
  8
6
  6
CONTINUOUS
 62
     7
  5
5A
  0
LINE
  8
6
  6
CONTINUOUS
 62
     7
  5
5B
 10
941773.38
 20
7295629.915
 30
0.0
 11
940893.846
 21
7295658.552
 31
0.0
  0
ARC
  8
6
  6
CONTINUOUS
 62
     7
  5
5C
 10
941773.867843
 20
7295644.907307
 30
0.0
 40
15.0
 50
268.1352
 51
358.1352
210
0.0
220
0.0
230
1.0
  0
ARC
  8
6
  6
CONTINUOUS
 62
     7
  5
5D
 10
941853.825474
 20
7295642.304014
 30
0.0
 40
15.0
 50
178.1352
 51
268.1352
210
0.0
220
0.0
230
1.0
  0
LINE
  8
6
  6
CONTINUOUS
 62
     7
  5
5E
 10
942712.113
 20
7295599.351
 30
0.0
 11
941853.338
 21
7295627.312
 31
0.0
  0
POLYLINE
  8
6
  6
CONTINUOUS
 62
     7
  5
5F
 66
     1
 10
0.0
 20
0.0
 30
0.0
  0
VERTEX
  8
6
  6
CONTINUOUS
 62
     7
  5
60
 10
941838.833
 20
7295642.792
 30
0.0
  0
VERTEX
  8
6
  6
CONTINUOUS
 62
     7
  5
61
 10
941845.342
 20
7295842.686
 30
0.0
  0
VERTEX
  8
6
  6
CONTINUOUS
 62
     7
  5
62
 10
942734.101
 20
7295813.75
 30
0.0
  0
VERTEX
  8
6
  6
CONTINUOUS
 62
     7
  5
63
 10
942727.593
 20
7295613.856
 30
0.0
  0
SEQEND
  8
6
  6
CONTINUOUS
 62
     7
  5
64
  0
ARC
  8
6
  6
CONTINUOUS
 62
     7
  5
65
 10
942712.600423
 20
7295614.343678
 30
0.0
 40
15.0
 50
268.1352
 51
358.1352
210
0.0
220
0.0
230
1.0
  0
ARC
  8
6
  6
CONTINUOUS
 62
     7
  5
66
 10
940923.922589
 20
7296582.331969
 30
0.0
 40
15.0
 50
178.1352
 51
268.1352
210
0.0
220
0.0
230
1.0
  0
LINE
  8
6
  6
CONTINUOUS
 62
     7
  5
67
 10
940923.435
 20
7296567.34
 30
0.0
 11
941802.968
 21
7296538.704
 31
0.0
  0
ARC
  8
6
  6
CONTINUOUS
 62
     7
  5
68
 10
941803.456538
 20
7296553.695754
 30
0.0
 40
15.0
 50
268.1352
 51
358.1352
210
0.0
220
0.0
230
1.0
  0
ARC
  8
6
  6
CONTINUOUS
 62
     7
  5
69
 10
941883.414169
 20
7296551.092462
 30
0.0
 40
15.0
 50
178.1352
 51
268.1352
210
0.0
220
0.0
230
1.0
  0
LINE
  8
6
  6
CONTINUOUS
 62
     7
  5
6A
 10
941882.926
 20
7296536.1
 30
0.0
 11
942741.7
 21
7296508.141
 31
0.0
  0
ARC
  8
6
  6
CONTINUOUS
 62
     7
  5
6B
 10
942742.189118
 20
7296523.132126
 30
0.0
 40
15.0
 50
268.1352
 51
358.1352
210
0.0
220
0.0
230
1.0
  0
ARC
  8
6
  6
CONTINUOUS
 62
     7
  5
6C
 10
942739.260414
 20
7296433.17979
 30
0.0
 40
15.0
 50
358.1352
 51
88.1352
210
0.0
220
0.0
230
1.0
  0
POLYLINE
  8
6
  6
CONTINUOUS
 62
     7
  5
6D
 66
     1
 10
0.0
 20
0.0
 30
0.0
  0
VERTEX
  8
6
  6
CONTINUOUS
 62
     7
  5
6E
 10
941865.494
 20
7296461.629
 30
0.0
  0
VERTEX
  8
6
  6
CONTINUOUS
 62
     7
  5
6F
 10
941860.222
 20
7296299.715
 30
0.0
  0
VERTEX
  8
6
  6
CONTINUOUS
 62
     7
  5
70
 10
942748.981
 20
7296270.778
 30
0.0
  0
VERTEX
  8
6
  6
CONTINUOUS
 62
     7
  5
71
 10
942754.253
 20
7296432.692
 30
0.0
  0
SEQEND
  8
6
  6
CONTINUOUS
 62
     7
  5
72
  0
LINE
  8
6
  6
CONTINUOUS
 62
     7
  5
73
 10
942739.749
 20
7296448.172
 30
0.0
 11
941880.974
 21
7296476.133
 31
0.0
  0
ARC
  8
6
  6
CONTINUOUS
 62
     7
  5
74
 10
941880.485466
 20
7296461.140126
 30
0.0
 40
15.0
 50
88.1352
 51
178.1352
210
0.0
220
0.0
230
1.0
  0
ARC
  8
6
  6
CONTINUOUS
 62
     7
  5
75
 10
941800.527834
 20
7296463.743418
 30
0.0
 40
15.0
 50
358.1352
 51
88.1352
210
0.0
220
0.0
230
1.0
  0
POLYLINE
  8
6
  6
CONTINUOUS
 62
     7
  5
76
 66
     1
 10
0.0
 20
0.0
 30
0.0
  0
VERTEX
  8
6
  6
CONTINUOUS
 62
     7
  5
77
 10
940906.002
 20
7296492.868
 30
0.0
  0
VERTEX
  8
6
  6
CONTINUOUS
 62
     7
  5
78
 10
940900.73
 20
7296330.953
 30
0.0
  0
VERTEX
  8
6
  6
CONTINUOUS
 62
     7
  5
79
 10
941810.249
 20
7296301.342
 30
0.0
  0
VERTEX
  8
6
  6
CONTINUOUS
 62
     7
  5
7A
 10
941815.52
 20
7296463.256
 30
0.0
  0
SEQEND
  8
6
  6
CONTINUOUS
 62
     7
  5
7B
  0
LINE
  8
6
  6
CONTINUOUS
 62
     7
  5
7C
 10
941801.016
 20
7296478.736
 30
0.0
 11
940921.483
 21
7296507.371
 31
0.0
  0
ARC
  8
6
  6
CONTINUOUS
 62
     7
  5
7D
 10
940920.993885
 20
7296492.379634
 30
0.0
 40
15.0
 50
88.1352
 51
178.1352
210
0.0
220
0.0
230
1.0
  0
ARC
  8
6
  6
CONTINUOUS
 62
     7
  5
7E
 10
940909.790942
 20
7296148.29196
 30
0.0
 40
15.0
 50
178.1352
 51
268.1352
210
0.0
220
0.0
230
1.0
  0
ARC
  8
6
  6
CONTINUOUS
 62
     7
  5
7F
 10
940906.862238
 20
7296058.339625
 30
0.0
 40
15.0
 50
88.1352
 51
178.1352
210
0.0
220
0.0
230
1.0
  0
POLYLINE
  8
6
  6
CONTINUOUS
 62
     7
  5
80
 66
     1
 10
0.0
 20
0.0
 30
0.0
  0
VERTEX
  8
6
  6
CONTINUOUS
 62
     7
  5
81
 10
940891.871
 20
7296058.827
 30
0.0
  0
VERTEX
  8
6
  6
CONTINUOUS
 62
     7
  5
82
 10
940886.501
 20
7295893.915
 30
0.0
  0
VERTEX
  8
6
  6
CONTINUOUS
 62
     7
  5
83
 10
941796.019
 20
7295864.302
 30
0.0
  0
VERTEX
  8
6
  6
CONTINUOUS
 62
     7
  5
84
 10
941801.388
 20
7296029.215
 30
0.0
  0
SEQEND
  8
6
  6
CONTINUOUS
 62
     7
  5
85
  0
LINE
  8
6
  6
CONTINUOUS
 62
     7
  5
86
 10
941786.883
 20
7296044.695
 30
0.0
 11
940907.35
 21
7296073.331
 31
0.0
  0
ARC
  8
6
  6
CONTINUOUS
 62
     7
  5
87
 10
941786.396187
 20
7296029.703409
 30
0.0
 40
15.0
 50
358.1352
 51
88.1352
210
0.0
220
0.0
230
1.0
  0
ARC
  8
6
  6
CONTINUOUS
 62
     7
  5
88
 10
941866.353819
 20
7296027.100117
 30
0.0
 40
15.0
 50
88.1352
 51
178.1352
210
0.0
220
0.0
230
1.0
  0
ARC
  8
6
  6
CONTINUOUS
 62
     7
  5
89
 10
941869.282523
 20
7296117.052453
 30
0.0
 40
15.0
 50
178.1352
 51
268.1352
210
0.0
220
0.0
230
1.0
  0
LINE
  8
6
  6
CONTINUOUS
 62
     7
  5
8A
 10
940909.303
 20
7296133.299
 30
0.0
 11
941788.837
 21
7296104.664
 31
0.0
  0
POLYLINE
  8
6
  6
CONTINUOUS
 62
     7
  5
8B
 66
     1
 10
0.0
 20
0.0
 30
0.0
  0
VERTEX
  8
6
  6
CONTINUOUS
 62
     7
  5
8C
 10
941804.318
 20
7296119.168
 30
0.0
  0
VERTEX
  8
6
  6
CONTINUOUS
 62
     7
  5
8D
 10
941809.598
 20
7296281.352
 30
0.0
  0
VERTEX
  8
6
  6
CONTINUOUS
 62
     7
  5
8E
 10
940900.079
 20
7296310.964
 30
0.0
  0
VERTEX
  8
6
  6
CONTINUOUS
 62
     7
  5
8F
 10
940894.799
 20
7296148.779
 30
0.0
  0
SEQEND
  8
6
  6
CONTINUOUS
 62
     7
  5
90
  0
ARC
  8
6
  6
CONTINUOUS
 62
     7
  5
91
 10
941789.324891
 20
7296119.655745
 30
0.0
 40
15.0
 50
268.1352
 51
358.1352
210
0.0
220
0.0
230
1.0
  0
LINE
  8
6
  6
CONTINUOUS
 62
     7
  5
92
 10
941868.795
 20
7296102.061
 30
0.0
 11
942727.569
 21
7296074.1
 31
0.0
  0
POLYLINE
  8
6
  6
CONTINUOUS
 62
     7
  5
93
 66
     1
 10
0.0
 20
0.0
 30
0.0
  0
VERTEX
  8
6
  6
CONTINUOUS
 62
     7
  5
94
 10
942743.05
 20
7296088.604
 30
0.0
  0
VERTEX
  8
6
  6
CONTINUOUS
 62
     7
  5
95
 10
942748.33
 20
7296250.788
 30
0.0
  0
VERTEX
  8
6
  6
CONTINUOUS
 62
     7
  5
96
 10
941859.571
 20
7296279.725
 30
0.0
  0
VERTEX
  8
6
  6
CONTINUOUS
 62
     7
  5
97
 10
941854.291
 20
7296117.541
 30
0.0
  0
SEQEND
  8
6
  6
CONTINUOUS
 62
     7
  5
98
  0
ARC
  8
6
  6
CONTINUOUS
 62
     7
  5
99
 10
942728.057471
 20
7296089.092117
 30
0.0
 40
15.0
 50
268.1352
 51
358.1352
210
0.0
220
0.0
230
1.0
  0
LINE
  8
6
  6
CONTINUOUS
 62
     7
  5
9A
 10
942725.618
 20
7296014.132
 30
0.0
 11
941866.842
 21
7296042.092
 31
0.0
  0
POLYLINE
  8
6
  6
CONTINUOUS
 62
     7
  5
9B
 66
     1
 10
0.0
 20
0.0
 30
0.0
  0
VERTEX
  8
6
  6
CONTINUOUS
 62
     7
  5
9C
 10
941851.363
 20
7296027.588
 30
0.0
  0
VERTEX
  8
6
  6
CONTINUOUS
 62
     7
  5
9D
 10
941845.993
 20
7295862.675
 30
0.0
  0
VERTEX
  8
6
  6
CONTINUOUS
 62
     7
  5
9E
 10
942734.752
 20
7295833.739
 30
0.0
  0
VERTEX
  8
6
  6
CONTINUOUS
 62
     7
  5
9F
 10
942740.121
 20
7295998.652
 30
0.0
  0
SEQEND
  8
6
  6
CONTINUOUS
 62
     7
  5
A0
  0
ARC
  8
6
  6
CONTINUOUS
 62
     7
  5
A1
 10
942725.128767
 20
7295999.139781
 30
0.0
 40
15.0
 50
358.1352
 51
88.1352
210
0.0
220
0.0
230
1.0
  0
LINE
  8
7
  6
CONTINUOUS
 62
     7
  5
A2
 10
941031.041
 20
7296326.711
 30
0.0
 11
941036.638
 21
7296503.623
 31
0.0
  0
LINE
  8
7
  6
CONTINUOUS
 62
     7
  5
A3
 10
941030.408
 20
7296306.721
 30
0.0
 11
941024.802
 21
7296129.54
 31
0.0
  0
LINE
  8
7
  6
CONTINUOUS
 62
     7
  5
A4
 10
941017.213
 20
7295889.66
 30
0.0
 11
941022.905
 21
7296069.57
 31
0.0
  0
LINE
  8
7
  6
CONTINUOUS
 62
     7
  5
A5
 10
941971.735
 20
7295859.459
 30
0.0
 11
941977.427
 21
7296039.369
 31
0.0
  0
LINE
  8
7
  6
CONTINUOUS
 62
     7
  5
A6
 10
941985.563
 20
7296296.511
 30
0.0
 11
941991.161
 21
7296473.422
 31
0.0
  0
LINE
  8
7
  6
CONTINUOUS
 62
     7
  5
A7
 10
941998.655
 20
7296710.304
 30
0.0
 11
941993.058
 21
7296533.392
 31
0.0
  0
LINE
  8
7
  6
CONTINUOUS
 62
     7
  5
A8
 10
941984.931
 20
7296276.521
 30
0.0
 11
941979.325
 21
7296099.339
 31
0.0
  0
LINE
  8
7
  6
CONTINUOUS
 62
     7
  5
A9
 10
942096.673
 20
7295855.506
 30
0.0
 11
942102.365
 21
7296035.416
 31
0.0
  0
LINE
  8
7
  6
CONTINUOUS
 62
     7
  5
AA
 10
942221.61
 20
7295851.553
 30
0.0
 11
942227.302
 21
7296031.463
 31
0.0
  0
LINE
  8
7
  6
CONTINUOUS
 62
     7
  5
AB
 10
942346.548
 20
7295847.6
 30
0.0
 11
942352.24
 21
7296027.51
 31
0.0
  0
LINE
  8
7
  6
CONTINUOUS
 62
     7
  5
AC
 10
942471.485
 20
7295843.647
 30
0.0
 11
942477.177
 21
7296023.557
 31
0.0
  0
LINE
  8
7
  6
CONTINUOUS
 62
     7
  5
AD
 10
942596.422
 20
7295839.695
 30
0.0
 11
942602.115
 21
7296019.605
 31
0.0
  0
LINE
  8
7
  6
CONTINUOUS
 62
     7
  5
AE
 10
942109.868
 20
7296272.568
 30
0.0
 11
942104.262
 21
7296095.386
 31
0.0
  0
LINE
  8
7
  6
CONTINUOUS
 62
     7
  5
AF
 10
942234.806
 20
7296268.615
 30
0.0
 11
942229.2
 21
7296091.433
 31
0.0
  0
LINE
  8
7
  6
CONTINUOUS
 62
     7
  5
B0
 10
942359.743
 20
7296264.662
 30
0.0
 11
942354.137
 21
7296087.48
 31
0.0
  0
LINE
  8
7
  6
CONTINUOUS
 62
     7
  5
B1
 10
942484.681
 20
7296260.709
 30
0.0
 11
942479.075
 21
7296083.527
 31
0.0
  0
LINE
  8
7
  6
CONTINUOUS
 62
     7
  5
B2
 10
942609.618
 20
7296256.756
 30
0.0
 11
942604.012
 21
7296079.575
 31
0.0
  0
LINE
  8
7
  6
CONTINUOUS
 62
     7
  5
B3
 10
942110.501
 20
7296292.558
 30
0.0
 11
942116.098
 21
7296469.469
 31
0.0
  0
LINE
  8
7
  6
CONTINUOUS
 62
     7
  5
B4
 10
942235.438
 20
7296288.605
 30
0.0
 11
942241.035
 21
7296465.516
 31
0.0
  0
LINE
  8
7
  6
CONTINUOUS
 62
     7
  5
B5
 10
942360.376
 20
7296284.652
 30
0.0
 11
942365.973
 21
7296461.563
 31
0.0
  0
LINE
  8
7
  6
CONTINUOUS
 62
     7
  5
B6
 10
942485.313
 20
7296280.699
 30
0.0
 11
942490.91
 21
7296457.61
 31
0.0
  0
LINE
  8
7
  6
CONTINUOUS
 62
     7
  5
B7
 10
942610.251
 20
7296276.746
 30
0.0
 11
942615.848
 21
7296453.657
 31
0.0
  0
LINE
  8
7
  6
CONTINUOUS
 62
     7
  5
B8
 10
942123.593
 20
7296706.351
 30
0.0
 11
942117.995
 21
7296529.439
 31
0.0
  0
LINE
  8
7
  6
CONTINUOUS
 62
     7
  5
B9
 10
942248.53
 20
7296702.398
 30
0.0
 11
942242.933
 21
7296525.486
 31
0.0
  0
LINE
  8
7
  6
CONTINUOUS
 62
     7
  5
BA
 10
942373.468
 20
7296698.445
 30
0.0
 11
942367.87
 21
7296521.533
 31
0.0
  0
LINE
  8
7
  6
CONTINUOUS
 62
     7
  5
BB
 10
942498.405
 20
7296694.492
 30
0.0
 11
942492.808
 21
7296517.58
 31
0.0
  0
LINE
  8
7
  6
CONTINUOUS
 62
     7
  5
BC
 10
942623.343
 20
7296690.539
 30
0.0
 11
942617.745
 21
7296513.627
 31
0.0
  0
LINE
  8
7
  6
CONTINUOUS
 62
     7
  5
BD
 10
941147.148
 20
7295885.549
 30
0.0
 11
941152.84
 21
7296065.459
 31
0.0
  0
LINE
  8
7
  6
CONTINUOUS
 62
     7
  5
BE
 10
941277.083
 20
7295881.438
 30
0.0
 11
941282.775
 21
7296061.348
 31
0.0
  0
LINE
  8
7
  6
CONTINUOUS
 62
     7
  5
BF
 10
941407.018
 20
7295877.327
 30
0.0
 11
941412.71
 21
7296057.237
 31
0.0
  0
LINE
  8
7
  6
CONTINUOUS
 62
     7
  5
C0
 10
941536.953
 20
7295873.216
 30
0.0
 11
941542.645
 21
7296053.126
 31
0.0
  0
LINE
  8
7
  6
CONTINUOUS
 62
     7
  5
C1
 10
941666.888
 20
7295869.104
 30
0.0
 11
941672.58
 21
7296049.014
 31
0.0
  0
LINE
  8
7
  6
CONTINUOUS
 62
     7
  5
C2
 10
941160.343
 20
7296302.61
 30
0.0
 11
941154.737
 21
7296125.429
 31
0.0
  0
LINE
  8
7
  6
CONTINUOUS
 62
     7
  5
C3
 10
941290.278
 20
7296298.499
 30
0.0
 11
941284.672
 21
7296121.318
 31
0.0
  0
LINE
  8
7
  6
CONTINUOUS
 62
     7
  5
C4
 10
941420.213
 20
7296294.388
 30
0.0
 11
941414.607
 21
7296117.207
 31
0.0
  0
LINE
  8
7
  6
CONTINUOUS
 62
     7
  5
C5
 10
941550.148
 20
7296290.277
 30
0.0
 11
941544.542
 21
7296113.096
 31
0.0
  0
LINE
  8
7
  6
CONTINUOUS
 62
     7
  5
C6
 10
941680.083
 20
7296286.166
 30
0.0
 11
941674.477
 21
7296108.984
 31
0.0
  0
LINE
  8
7
  6
CONTINUOUS
 62
     7
  5
C7
 10
941160.976
 20
7296322.6
 30
0.0
 11
941166.573
 21
7296499.512
 31
0.0
  0
LINE
  8
7
  6
CONTINUOUS
 62
     7
  5
C8
 10
941290.911
 20
7296318.489
 30
0.0
 11
941296.508
 21
7296495.4
 31
0.0
  0
LINE
  8
7
  6
CONTINUOUS
 62
     7
  5
C9
 10
941420.846
 20
7296314.378
 30
0.0
 11
941426.443
 21
7296491.289
 31
0.0
  0
LINE
  8
7
  6
CONTINUOUS
 62
     7
  5
CA
 10
941550.781
 20
7296310.267
 30
0.0
 11
941556.378
 21
7296487.178
 31
0.0
  0
LINE
  8
7
  6
CONTINUOUS
 62
     7
  5
CB
 10
941680.716
 20
7296306.156
 30
0.0
 11
941686.313
 21
7296483.067
 31
0.0
  0
LINE
  8
7
  6
CONTINUOUS
 62
     7
  5
CC
 10
941174.068
 20
7296736.393
 30
0.0
 11
941168.471
 21
7296559.482
 31
0.0
  0
LINE
  8
7
  6
CONTINUOUS
 62
     7
  5
CD
 10
941304.003
 20
7296732.282
 30
0.0
 11
941298.406
 21
7296555.37
 31
0.0
  0
LINE
  8
7
  6
CONTINUOUS
 62
     7
  5
CE
 10
941433.938
 20
7296728.171
 30
0.0
 11
941428.341
 21
7296551.259
 31
0.0
  0
LINE
  8
7
  6
CONTINUOUS
 62
     7
  5
CF
 10
941563.873
 20
7296724.06
 30
0.0
 11
941558.275
 21
7296547.148
 31
0.0
  0
LINE
  8
7
  6
CONTINUOUS
 62
     7
  5
D0
 10
941693.808
 20
7296719.949
 30
0.0
 11
941688.21
 21
7296543.037
 31
0.0
  0
LINE
  8
6
  6
CONTINUOUS
 62
     7
  5
D1
 10
940103.875
 20
7297224.461
 30
0.0
 11
937604.052
 21
7297307.648
 31
0.0
  0
LINE
  8
6
  6
CONTINUOUS
 62
     7
  5
D2
 10
940290.58
 20
7297187.44
 30
0.0
 11
940867.654
 21
7297168.651
 31
0.0
  0
LINE
  8
6
  6
CONTINUOUS
 62
     7
  5
D3
 10
940865.108
 20
7296629.499
 30
0.0
 11
940882.158
 21
7297153.172
 31
0.0
  0
ARC
  8
6
  6
CONTINUOUS
 62
     7
  5
D4
 10
940867.166187
 20
7297153.659465
 30
0.0
 40
15.0
 50
358.1352
 51
88.1352
210
0.0
220
0.0
230
1.0
  0
ARC
  8
6
  6
CONTINUOUS
 62
     7
  5
D5
 10
940305.679182
 20
7297651.194397
 30
0.0
 40
464.0
 50
255.783267
 51
268.1352
210
0.0
220
0.0
230
1.0
  0
ARC
  8
6
  6
CONTINUOUS
 62
     7
  5
D6
 10
940042.967806
 20
7296813.484581
 30
0.0
 40
415.465165
 50
69.019503
 51
81.570058
210
0.0
220
0.0
230
1.0
  0
LINE
  8
6
  6
CONTINUOUS
 62
     7
  5
D7
 10
940906.987
 20
7296765.749
 30
0.0
 11
942250.901
 21
7296721.994
 31
0.0
  0
LINE
  8
6
  6
CONTINUOUS
 62
     7
  5
D8
 10
940906.987
 20
7296765.749
 30
0.0
 11
940920.803
 21
7297190.125
 31
0.0
  0
POLYLINE
  8
7
  6
CONTINUOUS
 62
     7
  5
D9
 66
     1
 10
0.0
 20
0.0
 30
0.0
  0
VERTEX
  8
7
  6
CONTINUOUS
 62
     7
  5
DA
 10
940105.002
 20
7297222.622
 30
0.0
  0
VERTEX
  8
7
  6
CONTINUOUS
 62
     7
  5
DB
 10
940087.009
 20
7296653.956
 30
0.0
  0
VERTEX
  8
7
  6
CONTINUOUS
 62
     7
  5
DC
 10
940865.21
 20
7296629.335
 30
0.0
  0
SEQEND
  8
7
  6
CONTINUOUS
 62
     7
  5
DD
  0
POLYLINE
  8
7
  6
CONTINUOUS
 62
     7
  5
DE
 66
     1
 10
0.0
 20
0.0
 30
0.0
  0
VERTEX
  8
7
  6
CONTINUOUS
 62
     7
  5
DF
 10
940859.253
 20
7296441.059
 30
0.0
  0
VERTEX
  8
7
  6
CONTINUOUS
 62
     7
  5
E0
 10
940388.099
 20
7296455.966
 30
0.0
  0
VERTEX
  8
7
  6
CONTINUOUS
 62
     7
  5
E1
 10
940369.441
 20
7295866.261
 30
0.0
  0
VERTEX
  8
7
  6
CONTINUOUS
 62
     7
  5
E2
 10
940839.206
 20
7295851.398
 30
0.0
  0
SEQEND
  8
7
  6
CONTINUOUS
 62
     7
  5
E3
  0
POLYLINE
  8
7
  6
CONTINUOUS
 62
     7
  5
E4
 66
     1
 10
0.0
 20
0.0
 30
0.0
 70
     1
  0
VERTEX
  8
7
  6
CONTINUOUS
 62
     7
  5
E5
 10
940826.991
 20
7296692.575
 30
0.0
  0
VERTEX
  8
7
  6
CONTINUOUS
 62
     7
  5
E6
 10
940702.053
 20
7296696.528
 30
0.0
  0
VERTEX
  8
7
  6
CONTINUOUS
 62
     7
  5
E7
 10
940707.587
 20
7296871.44
 30
0.0
  0
VERTEX
  8
7
  6
CONTINUOUS
 62
     7
  5
E8
 10
940832.525
 20
7296867.487
 30
0.0
  0
SEQEND
  8
7
  6
CONTINUOUS
 62
     7
  5
E9
  0
LINE
  8
7
  6
CONTINUOUS
 62
     7
  5
EA
 10
940706.797
 20
7296846.453
 30
0.0
 11
940831.734
 21
7296842.5
 31
0.0
  0
LINE
  8
7
  6
CONTINUOUS
 62
     7
  5
EB
 10
940706.006
 20
7296821.465
 30
0.0
 11
940830.944
 21
7296817.512
 31
0.0
  0
LINE
  8
7
  6
CONTINUOUS
 62
     7
  5
EC
 10
940705.216
 20
7296796.478
 30
0.0
 11
940830.153
 21
7296792.525
 31
0.0
  0
LINE
  8
7
  6
CONTINUOUS
 62
     7
  5
ED
 10
940704.425
 20
7296771.49
 30
0.0
 11
940829.362
 21
7296767.537
 31
0.0
  0
LINE
  8
7
  6
CONTINUOUS
 62
     7
  5
EE
 10
940703.634
 20
7296746.503
 30
0.0
 11
940828.572
 21
7296742.55
 31
0.0
  0
LINE
  8
7
  6
CONTINUOUS
 62
     7
  5
EF
 10
940702.844
 20
7296721.515
 30
0.0
 11
940827.781
 21
7296717.562
 31
0.0
  0
POLYLINE
  8
7
  6
CONTINUOUS
 62
     7
  5
F0
 66
     1
 10
0.0
 20
0.0
 30
0.0
 70
     1
  0
VERTEX
  8
7
  6
CONTINUOUS
 62
     7
  5
F1
 10
940813.645
 20
7297156.179
 30
0.0
  0
VERTEX
  8
7
  6
CONTINUOUS
 62
     7
  5
F2
 10
940688.707
 20
7297160.132
 30
0.0
  0
VERTEX
  8
7
  6
CONTINUOUS
 62
     7
  5
F3
 10
940687.917
 20
7297135.144
 30
0.0
  0
VERTEX
  8
7
  6
CONTINUOUS
 62
     7
  5
F4
 10
940812.854
 20
7297131.191
 30
0.0
  0
SEQEND
  8
7
  6
CONTINUOUS
 62
     7
  5
F5
  0
POLYLINE
  8
7
  6
CONTINUOUS
 62
     7
  5
F6
 66
     1
 10
0.0
 20
0.0
 30
0.0
 70
     1
  0
VERTEX
  8
7
  6
CONTINUOUS
 62
     7
  5
F7
 10
940812.854
 20
7297131.191
 30
0.0
  0
VERTEX
  8
7
  6
CONTINUOUS
 62
     7
  5
F8
 10
940687.917
 20
7297135.144
 30
0.0
  0
VERTEX
  8
7
  6
CONTINUOUS
 62
     7
  5
F9
 10
940687.126
 20
7297110.157
 30
0.0
  0
VERTEX
  8
7
  6
CONTINUOUS
 62
     7
  5
FA
 10
940812.064
 20
7297106.204
 30
0.0
  0
SEQEND
  8
7
  6
CONTINUOUS
 62
     7
  5
FB
  0
POLYLINE
  8
7
  6
CONTINUOUS
 62
     7
  5
FC
 66
     1
 10
0.0
 20
0.0
 30
0.0
 70
     1
  0
VERTEX
  8
7
  6
CONTINUOUS
 62
     7
  5
FD
 10
940812.064
 20
7297106.204
 30
0.0
  0
VERTEX
  8
7
  6
CONTINUOUS
 62
     7
  5
FE
 10
940687.126
 20
7297110.157
 30
0.0
  0
VERTEX
  8
7
  6
CONTINUOUS
 62
     7
  5
FF
 10
940686.336
 20
7297085.169
 30
0.0
  0
VERTEX
  8
7
  6
CONTINUOUS
 62
     7
  5
100
 10
940811.273
 20
7297081.216
 30
0.0
  0
SEQEND
  8
7
  6
CONTINUOUS
 62
     7
  5
101
  0
POLYLINE
  8
7
  6
CONTINUOUS
 62
     7
  5
102
 66
     1
 10
0.0
 20
0.0
 30
0.0
 70
     1
  0
VERTEX
  8
7
  6
CONTINUOUS
 62
     7
  5
103
 10
940097.637
 20
7296673.63
 30
0.0
  0
VERTEX
  8
7
  6
CONTINUOUS
 62
     7
  5
104
 10
940234.568
 20
7296669.298
 30
0.0
  0
VERTEX
  8
7
  6
CONTINUOUS
 62
     7
  5
105
 10
940235.359
 20
7296694.285
 30
0.0
  0
VERTEX
  8
7
  6
CONTINUOUS
 62
     7
  5
106
 10
940098.427
 20
7296698.618
 30
0.0
  0
SEQEND
  8
7
  6
CONTINUOUS
 62
     7
  5
107
  0
POLYLINE
  8
7
  6
CONTINUOUS
 62
     7
  5
108
 66
     1
 10
0.0
 20
0.0
 30
0.0
 70
     1
  0
VERTEX
  8
7
  6
CONTINUOUS
 62
     7
  5
109
 10
940098.427
 20
7296698.618
 30
0.0
  0
VERTEX
  8
7
  6
CONTINUOUS
 62
     7
  5
10A
 10
940235.359
 20
7296694.285
 30
0.0
  0
VERTEX
  8
7
  6
CONTINUOUS
 62
     7
  5
10B
 10
940236.149
 20
7296719.273
 30
0.0
  0
VERTEX
  8
7
  6
CONTINUOUS
 62
     7
  5
10C
 10
940099.218
 20
7296723.605
 30
0.0
  0
SEQEND
  8
7
  6
CONTINUOUS
 62
     7
  5
10D
  0
POLYLINE
  8
7
  6
CONTINUOUS
 62
     7
  5
10E
 66
     1
 10
0.0
 20
0.0
 30
0.0
 70
     1
  0
VERTEX
  8
7
  6
CONTINUOUS
 62
     7
  5
10F
 10
940099.218
 20
7296723.605
 30
0.0
  0
VERTEX
  8
7
  6
CONTINUOUS
 62
     7
  5
110
 10
940224.155
 20
7296719.652
 30
0.0
  0
VERTEX
  8
7
  6
CONTINUOUS
 62
     7
  5
111
 10
940224.946
 20
7296744.64
 30
0.0
  0
VERTEX
  8
7
  6
CONTINUOUS
 62
     7
  5
112
 10
940100.009
 20
7296748.593
 30
0.0
  0
SEQEND
  8
7
  6
CONTINUOUS
 62
     7
  5
113
  0
POLYLINE
  8
7
  6
CONTINUOUS
 62
     7
  5
114
 66
     1
 10
0.0
 20
0.0
 30
0.0
 70
     1
  0
VERTEX
  8
7
  6
CONTINUOUS
 62
     7
  5
115
 10
940100.009
 20
7296748.593
 30
0.0
  0
VERTEX
  8
7
  6
CONTINUOUS
 62
     7
  5
116
 10
940224.946
 20
7296744.64
 30
0.0
  0
VERTEX
  8
7
  6
CONTINUOUS
 62
     7
  5
117
 10
940225.737
 20
7296769.627
 30
0.0
  0
VERTEX
  8
7
  6
CONTINUOUS
 62
     7
  5
118
 10
940100.799
 20
7296773.58
 30
0.0
  0
SEQEND
  8
7
  6
CONTINUOUS
 62
     7
  5
119
  0
POLYLINE
  8
7
  6
CONTINUOUS
 62
     7
  5
11A
 66
     1
 10
0.0
 20
0.0
 30
0.0
 70
     1
  0
VERTEX
  8
7
  6
CONTINUOUS
 62
     7
  5
11B
 10
940134.962
 20
7297157.642
 30
0.0
  0
VERTEX
  8
7
  6
CONTINUOUS
 62
     7
  5
11C
 10
940251.903
 20
7297153.942
 30
0.0
  0
VERTEX
  8
7
  6
CONTINUOUS
 62
     7
  5
11D
 10
940251.113
 20
7297128.954
 30
0.0
  0
VERTEX
  8
7
  6
CONTINUOUS
 62
     7
  5
11E
 10
940134.171
 20
7297132.654
 30
0.0
  0
SEQEND
  8
7
  6
CONTINUOUS
 62
     7
  5
11F
  0
POLYLINE
  8
7
  6
CONTINUOUS
 62
     7
  5
120
 66
     1
 10
0.0
 20
0.0
 30
0.0
 70
     1
  0
VERTEX
  8
7
  6
CONTINUOUS
 62
     7
  5
121
 10
940134.171
 20
7297132.654
 30
0.0
  0
VERTEX
  8
7
  6
CONTINUOUS
 62
     7
  5
122
 10
940251.113
 20
7297128.954
 30
0.0
  0
VERTEX
  8
7
  6
CONTINUOUS
 62
     7
  5
123
 10
940250.322
 20
7297103.967
 30
0.0
  0
VERTEX
  8
7
  6
CONTINUOUS
 62
     7
  5
124
 10
940133.38
 20
7297107.667
 30
0.0
  0
SEQEND
  8
7
  6
CONTINUOUS
 62
     7
  5
125
  0
POLYLINE
  8
7
  6
CONTINUOUS
 62
     7
  5
126
 66
     1
 10
0.0
 20
0.0
 30
0.0
 70
     1
  0
VERTEX
  8
7
  6
CONTINUOUS
 62
     7
  5
127
 10
940133.38
 20
7297107.667
 30
0.0
  0
VERTEX
  8
7
  6
CONTINUOUS
 62
     7
  5
128
 10
940250.322
 20
7297103.967
 30
0.0
  0
VERTEX
  8
7
  6
CONTINUOUS
 62
     7
  5
129
 10
940249.531
 20
7297078.979
 30
0.0
  0
VERTEX
  8
7
  6
CONTINUOUS
 62
     7
  5
12A
 10
940132.59
 20
7297082.679
 30
0.0
  0
SEQEND
  8
7
  6
CONTINUOUS
 62
     7
  5
12B
  0
POLYLINE
  8
7
  6
CONTINUOUS
 62
     7
  5
12C
 66
     1
 10
0.0
 20
0.0
 30
0.0
 70
     1
  0
VERTEX
  8
7
  6
CONTINUOUS
 62
     7
  5
12D
 10
940132.59
 20
7297082.679
 30
0.0
  0
VERTEX
  8
7
  6
CONTINUOUS
 62
     7
  5
12E
 10
940249.531
 20
7297078.979
 30
0.0
  0
VERTEX
  8
7
  6
CONTINUOUS
 62
     7
  5
12F
 10
940248.741
 20
7297053.992
 30
0.0
  0
VERTEX
  8
7
  6
CONTINUOUS
 62
     7
  5
130
 10
940131.799
 20
7297057.692
 30
0.0
  0
SEQEND
  8
7
  6
CONTINUOUS
 62
     7
  5
131
  0
POLYLINE
  8
7
  6
CONTINUOUS
 62
     7
  5
132
 66
     1
 10
0.0
 20
0.0
 30
0.0
 70
     1
  0
VERTEX
  8
7
  6
CONTINUOUS
 62
     7
  5
133
 10
940131.799
 20
7297057.692
 30
0.0
  0
VERTEX
  8
7
  6
CONTINUOUS
 62
     7
  5
134
 10
940248.741
 20
7297053.992
 30
0.0
  0
VERTEX
  8
7
  6
CONTINUOUS
 62
     7
  5
135
 10
940247.95
 20
7297029.004
 30
0.0
  0
VERTEX
  8
7
  6
CONTINUOUS
 62
     7
  5
136
 10
940131.009
 20
7297032.704
 30
0.0
  0
SEQEND
  8
7
  6
CONTINUOUS
 62
     7
  5
137
  0
POLYLINE
  8
7
  6
CONTINUOUS
 62
     7
  5
138
 66
     1
 10
0.0
 20
0.0
 30
0.0
 70
     1
  0
VERTEX
  8
7
  6
CONTINUOUS
 62
     7
  5
139
 10
940131.009
 20
7297032.704
 30
0.0
  0
VERTEX
  8
7
  6
CONTINUOUS
 62
     7
  5
13A
 10
940247.95
 20
7297029.004
 30
0.0
  0
VERTEX
  8
7
  6
CONTINUOUS
 62
     7
  5
13B
 10
940247.16
 20
7297004.017
 30
0.0
  0
VERTEX
  8
7
  6
CONTINUOUS
 62
     7
  5
13C
 10
940130.218
 20
7297007.717
 30
0.0
  0
SEQEND
  8
7
  6
CONTINUOUS
 62
     7
  5
13D
  0
POLYLINE
  8
7
  6
CONTINUOUS
 62
     7
  5
13E
 66
     1
 10
0.0
 20
0.0
 30
0.0
 70
     1
  0
VERTEX
  8
7
  6
CONTINUOUS
 62
     7
  5
13F
 10
940130.218
 20
7297007.717
 30
0.0
  0
VERTEX
  8
7
  6
CONTINUOUS
 62
     7
  5
140
 10
940252.157
 20
7297003.859
 30
0.0
  0
VERTEX
  8
7
  6
CONTINUOUS
 62
     7
  5
141
 10
940251.366
 20
7296978.871
 30
0.0
  0
VERTEX
  8
7
  6
CONTINUOUS
 62
     7
  5
142
 10
940129.427
 20
7296982.729
 30
0.0
  0
SEQEND
  8
7
  6
CONTINUOUS
 62
     7
  5
143
  0
POLYLINE
  8
7
  6
CONTINUOUS
 62
     7
  5
144
 66
     1
 10
0.0
 20
0.0
 30
0.0
 70
     1
  0
VERTEX
  8
7
  6
CONTINUOUS
 62
     7
  5
145
 10
940129.427
 20
7296982.729
 30
0.0
  0
VERTEX
  8
7
  6
CONTINUOUS
 62
     7
  5
146
 10
940254.365
 20
7296978.777
 30
0.0
  0
VERTEX
  8
7
  6
CONTINUOUS
 62
     7
  5
147
 10
940253.574
 20
7296953.789
 30
0.0
  0
VERTEX
  8
7
  6
CONTINUOUS
 62
     7
  5
148
 10
940128.637
 20
7296957.742
 30
0.0
  0
SEQEND
  8
7
  6
CONTINUOUS
 62
     7
  5
149
  0
POLYLINE
  8
7
  6
CONTINUOUS
 62
     7
  5
14A
 66
     1
 10
0.0
 20
0.0
 30
0.0
 70
     1
  0
VERTEX
  8
7
  6
CONTINUOUS
 62
     7
  5
14B
 10
940340.367
 20
7296850.993
 30
0.0
  0
VERTEX
  8
7
  6
CONTINUOUS
 62
     7
  5
14C
 10
940365.355
 20
7296850.202
 30
0.0
  0
VERTEX
  8
7
  6
CONTINUOUS
 62
     7
  5
14D
 10
940361.402
 20
7296725.265
 30
0.0
  0
VERTEX
  8
7
  6
CONTINUOUS
 62
     7
  5
14E
 10
940336.414
 20
7296726.055
 30
0.0
  0
SEQEND
  8
7
  6
CONTINUOUS
 62
     7
  5
14F
  0
POLYLINE
  8
7
  6
CONTINUOUS
 62
     7
  5
150
 66
     1
 10
0.0
 20
0.0
 30
0.0
 70
     1
  0
VERTEX
  8
7
  6
CONTINUOUS
 62
     7
  5
151
 10
940365.165
 20
7296844.205
 30
0.0
  0
VERTEX
  8
7
  6
CONTINUOUS
 62
     7
  5
152
 10
940390.152
 20
7296843.415
 30
0.0
  0
VERTEX
  8
7
  6
CONTINUOUS
 62
     7
  5
153
 10
940386.199
 20
7296718.477
 30
0.0
  0
VERTEX
  8
7
  6
CONTINUOUS
 62
     7
  5
154
 10
940361.212
 20
7296719.268
 30
0.0
  0
SEQEND
  8
7
  6
CONTINUOUS
 62
     7
  5
155
  0
POLYLINE
  8
7
  6
CONTINUOUS
 62
     7
  5
156
 66
     1
 10
0.0
 20
0.0
 30
0.0
 70
     1
  0
VERTEX
  8
7
  6
CONTINUOUS
 62
     7
  5
157
 10
940390.026
 20
7296839.417
 30
0.0
  0
VERTEX
  8
7
  6
CONTINUOUS
 62
     7
  5
158
 10
940415.013
 20
7296838.626
 30
0.0
  0
VERTEX
  8
7
  6
CONTINUOUS
 62
     7
  5
159
 10
940411.06
 20
7296713.689
 30
0.0
  0
VERTEX
  8
7
  6
CONTINUOUS
 62
     7
  5
15A
 10
940386.073
 20
7296714.479
 30
0.0
  0
SEQEND
  8
7
  6
CONTINUOUS
 62
     7
  5
15B
  0
POLYLINE
  8
7
  6
CONTINUOUS
 62
     7
  5
15C
 66
     1
 10
0.0
 20
0.0
 30
0.0
 70
     1
  0
VERTEX
  8
7
  6
CONTINUOUS
 62
     7
  5
15D
 10
940415.013
 20
7296838.626
 30
0.0
  0
VERTEX
  8
7
  6
CONTINUOUS
 62
     7
  5
15E
 10
940440.001
 20
7296837.836
 30
0.0
  0
VERTEX
  8
7
  6
CONTINUOUS
 62
     7
  5
15F
 10
940436.048
 20
7296712.898
 30
0.0
  0
VERTEX
  8
7
  6
CONTINUOUS
 62
     7
  5
160
 10
940411.06
 20
7296713.689
 30
0.0
  0
SEQEND
  8
7
  6
CONTINUOUS
 62
     7
  5
161
  0
POLYLINE
  8
7
  6
CONTINUOUS
 62
     7
  5
162
 66
     1
 10
0.0
 20
0.0
 30
0.0
 70
     1
  0
VERTEX
  8
7
  6
CONTINUOUS
 62
     7
  5
163
 10
940440.001
 20
7296837.836
 30
0.0
  0
VERTEX
  8
7
  6
CONTINUOUS
 62
     7
  5
164
 10
940464.988
 20
7296837.045
 30
0.0
  0
VERTEX
  8
7
  6
CONTINUOUS
 62
     7
  5
165
 10
940461.035
 20
7296712.107
 30
0.0
  0
VERTEX
  8
7
  6
CONTINUOUS
 62
     7
  5
166
 10
940436.048
 20
7296712.898
 30
0.0
  0
SEQEND
  8
7
  6
CONTINUOUS
 62
     7
  5
167
  0
POLYLINE
  8
7
  6
CONTINUOUS
 62
     7
  5
168
 66
     1
 10
0.0
 20
0.0
 30
0.0
 70
     1
  0
VERTEX
  8
7
  6
CONTINUOUS
 62
     7
  5
169
 10
940315.701
 20
7296956.826
 30
0.0
  0
VERTEX
  8
7
  6
CONTINUOUS
 62
     7
  5
16A
 10
940340.689
 20
7296956.035
 30
0.0
  0
VERTEX
  8
7
  6
CONTINUOUS
 62
     7
  5
16B
 10
940344.642
 20
7297080.973
 30
0.0
  0
VERTEX
  8
7
  6
CONTINUOUS
 62
     7
  5
16C
 10
940319.654
 20
7297081.763
 30
0.0
  0
SEQEND
  8
7
  6
CONTINUOUS
 62
     7
  5
16D
  0
POLYLINE
  8
7
  6
CONTINUOUS
 62
     7
  5
16E
 66
     1
 10
0.0
 20
0.0
 30
0.0
 70
     1
  0
VERTEX
  8
7
  6
CONTINUOUS
 62
     7
  5
16F
 10
940341.195
 20
7296972.027
 30
0.0
  0
VERTEX
  8
7
  6
CONTINUOUS
 62
     7
  5
170
 10
940366.182
 20
7296971.237
 30
0.0
  0
VERTEX
  8
7
  6
CONTINUOUS
 62
     7
  5
171
 10
940370.135
 20
7297096.174
 30
0.0
  0
VERTEX
  8
7
  6
CONTINUOUS
 62
     7
  5
172
 10
940345.148
 20
7297096.965
 30
0.0
  0
SEQEND
  8
7
  6
CONTINUOUS
 62
     7
  5
173
  0
POLYLINE
  8
7
  6
CONTINUOUS
 62
     7
  5
174
 66
     1
 10
0.0
 20
0.0
 30
0.0
 70
     1
  0
VERTEX
  8
7
  6
CONTINUOUS
 62
     7
  5
175
 10
940366.562
 20
7296983.231
 30
0.0
  0
VERTEX
  8
7
  6
CONTINUOUS
 62
     7
  5
176
 10
940391.549
 20
7296982.44
 30
0.0
  0
VERTEX
  8
7
  6
CONTINUOUS
 62
     7
  5
177
 10
940395.502
 20
7297107.378
 30
0.0
  0
VERTEX
  8
7
  6
CONTINUOUS
 62
     7
  5
178
 10
940370.515
 20
7297108.168
 30
0.0
  0
SEQEND
  8
7
  6
CONTINUOUS
 62
     7
  5
179
  0
POLYLINE
  8
7
  6
CONTINUOUS
 62
     7
  5
17A
 66
     1
 10
0.0
 20
0.0
 30
0.0
 70
     1
  0
VERTEX
  8
7
  6
CONTINUOUS
 62
     7
  5
17B
 10
940391.834
 20
7296991.436
 30
0.0
  0
VERTEX
  8
7
  6
CONTINUOUS
 62
     7
  5
17C
 10
940416.822
 20
7296990.645
 30
0.0
  0
VERTEX
  8
7
  6
CONTINUOUS
 62
     7
  5
17D
 10
940420.774
 20
7297115.582
 30
0.0
  0
VERTEX
  8
7
  6
CONTINUOUS
 62
     7
  5
17E
 10
940395.787
 20
7297116.373
 30
0.0
  0
SEQEND
  8
7
  6
CONTINUOUS
 62
     7
  5
17F
  0
POLYLINE
  8
7
  6
CONTINUOUS
 62
     7
  5
180
 66
     1
 10
0.0
 20
0.0
 30
0.0
 70
     1
  0
VERTEX
  8
7
  6
CONTINUOUS
 62
     7
  5
181
 10
940417.011
 20
7296996.642
 30
0.0
  0
VERTEX
  8
7
  6
CONTINUOUS
 62
     7
  5
182
 10
940441.999
 20
7296995.851
 30
0.0
  0
VERTEX
  8
7
  6
CONTINUOUS
 62
     7
  5
183
 10
940445.952
 20
7297120.789
 30
0.0
  0
VERTEX
  8
7
  6
CONTINUOUS
 62
     7
  5
184
 10
940420.964
 20
7297121.579
 30
0.0
  0
SEQEND
  8
7
  6
CONTINUOUS
 62
     7
  5
185
  0
POLYLINE
  8
7
  6
CONTINUOUS
 62
     7
  5
186
 66
     1
 10
0.0
 20
0.0
 30
0.0
 70
     1
  0
VERTEX
  8
7
  6
CONTINUOUS
 62
     7
  5
187
 10
940520.118
 20
7296998.382
 30
0.0
  0
VERTEX
  8
7
  6
CONTINUOUS
 62
     7
  5
188
 10
940545.105
 20
7296997.592
 30
0.0
  0
VERTEX
  8
7
  6
CONTINUOUS
 62
     7
  5
189
 10
940549.058
 20
7297122.529
 30
0.0
  0
VERTEX
  8
7
  6
CONTINUOUS
 62
     7
  5
18A
 10
940524.071
 20
7297123.32
 30
0.0
  0
SEQEND
  8
7
  6
CONTINUOUS
 62
     7
  5
18B
  0
POLYLINE
  8
7
  6
CONTINUOUS
 62
     7
  5
18C
 66
     1
 10
0.0
 20
0.0
 30
0.0
 70
     1
  0
VERTEX
  8
7
  6
CONTINUOUS
 62
     7
  5
18D
 10
940545.105
 20
7296997.592
 30
0.0
  0
VERTEX
  8
7
  6
CONTINUOUS
 62
     7
  5
18E
 10
940570.093
 20
7296996.801
 30
0.0
  0
VERTEX
  8
7
  6
CONTINUOUS
 62
     7
  5
18F
 10
940574.046
 20
7297121.739
 30
0.0
  0
VERTEX
  8
7
  6
CONTINUOUS
 62
     7
  5
190
 10
940549.058
 20
7297122.529
 30
0.0
  0
SEQEND
  8
7
  6
CONTINUOUS
 62
     7
  5
191
  0
POLYLINE
  8
7
  6
CONTINUOUS
 62
     7
  5
192
 66
     1
 10
0.0
 20
0.0
 30
0.0
 70
     1
  0
VERTEX
  8
7
  6
CONTINUOUS
 62
     7
  5
193
 10
940569.998
 20
7296993.803
 30
0.0
  0
VERTEX
  8
7
  6
CONTINUOUS
 62
     7
  5
194
 10
940594.986
 20
7296993.012
 30
0.0
  0
VERTEX
  8
7
  6
CONTINUOUS
 62
     7
  5
195
 10
940598.938
 20
7297117.949
 30
0.0
  0
VERTEX
  8
7
  6
CONTINUOUS
 62
     7
  5
196
 10
940573.951
 20
7297118.74
 30
0.0
  0
SEQEND
  8
7
  6
CONTINUOUS
 62
     7
  5
197
  0
LINE
  8
6
  6
CONTINUOUS
 62
     7
  5
198
 10
942830.794
 20
7299217.054
 30
0.0
 11
942822.203
 21
7299258.851
 31
0.0
  0
POLYLINE
  8
6
  6
CONTINUOUS
 62
     7
  5
199
 66
     1
 10
0.0
 20
0.0
 30
0.0
  0
VERTEX
  8
6
  6
CONTINUOUS
 62
     7
  5
19A
 10
941713.689
 20
7299816.669
 30
0.0
  0
VERTEX
  8
6
  6
CONTINUOUS
 62
     7
  5
19B
 10
941714.196
 20
7299831.661
 30
0.0
  0
VERTEX
  8
6
  6
CONTINUOUS
 62
     7
  5
19C
 10
941664.225
 20
7299833.353
 30
0.0
  0
VERTEX
  8
6
  6
CONTINUOUS
 62
     7
  5
19D
 10
941663.718
 20
7299818.361
 30
0.0
  0
SEQEND
  8
6
  6
CONTINUOUS
 62
     7
  5
19E
  0
LINE
  8
6
  6
CONTINUOUS
 62
     7
  5
19F
 10
937612.788
 20
7299955.477
 30
0.0
 11
941663.718
 21
7299818.361
 31
0.0
  0
POLYLINE
  8
6
  6
CONTINUOUS
 62
     7
  5
1A0
 66
     1
 10
0.0
 20
0.0
 30
0.0
  0
VERTEX
  8
6
  6
CONTINUOUS
 62
     7
  5
1A1
 10
941713.689
 20
7299816.669
 30
0.0
  0
VERTEX
  8
6
  6
CONTINUOUS
 62
     7
  5
1A2
 10
942839.794
 20
7299778.553
 30
0.0
  0
VERTEX
  8
6
  6
CONTINUOUS
 62
     7
  5
1A3
 10
942822.203
 20
7299258.851
 30
0.0
  0
SEQEND
  8
6
  6
CONTINUOUS
 62
     7
  5
1A4
  0
TEXT
  8
10
  6
CONTINUOUS
 62
   134
  5
1A7
 10
940973.607
 20
7296646.727
 30
0.0
 40
13.999
  1
1
 50
358.1878
  7
ROMANS
 11
940974.049699
 21
7296660.718998
 31
0.0
210
0.0
220
0.0
230
1.0
 73
     3
  0
TEXT
  8
10
  6
CONTINUOUS
 62
   134
  5
1A8
 10
941104.55
 20
7296642.584
 30
0.0
 40
13.999
  1
2
 50
358.1878
  7
ROMANS
 11
941104.992699
 21
7296656.575998
 31
0.0
210
0.0
220
0.0
230
1.0
 73
     3
  0
TEXT
  8
10
  6
CONTINUOUS
 62
   134
  5
1A9
 10
941233.234
 20
7296638.513
 30
0.0
 40
13.999
  1
3
 50
358.1878
  7
ROMANS
 11
941233.676699
 21
7296652.504998
 31
0.0
210
0.0
220
0.0
230
1.0
 73
     3
  0
TEXT
  8
10
  6
CONTINUOUS
 62
   134
  5
1AA
 10
941368.691
 20
7296634.227
 30
0.0
 40
13.999
  1
4
 50
358.1878
  7
ROMANS
 11
941369.133699
 21
7296648.218998
 31
0.0
210
0.0
220
0.0
230
1.0
 73
     3
  0
TEXT
  8
10
  6
CONTINUOUS
 62
   134
  5
1AB
 10
941495.118
 20
7296630.227
 30
0.0
 40
13.999
  1
5
 50
358.1878
  7
ROMANS
 11
941495.560699
 21
7296644.218998
 31
0.0
210
0.0
220
0.0
230
1.0
 73
     3
  0
TEXT
  8
10
  6
CONTINUOUS
 62
   134
  5
1AC
 10
941621.545
 20
7296626.227
 30
0.0
 40
13.999
  1
6
 50
358.1878
  7
ROMANS
 11
941621.987699
 21
7296640.218998
 31
0.0
210
0.0
220
0.0
230
1.0
 73
     3
  0
TEXT
  8
10
  6
CONTINUOUS
 62
   134
  5
1AD
 10
941754.744
 20
7296622.013
 30
0.0
 40
13.999
  1
7
 50
358.1878
  7
ROMANS
 11
941755.186699
 21
7296636.004998
 31
0.0
210
0.0
220
0.0
230
1.0
 73
     3
  0
TEXT
  8
10
  6
CONTINUOUS
 62
   134
  5
1AE
 10
941930.838
 20
7296616.441
 30
0.0
 40
13.999
  1
8
 50
358.1878
  7
ROMANS
 11
941931.280699
 21
7296630.432998
 31
0.0
210
0.0
220
0.0
230
1.0
 73
     3
  0
TEXT
  8
10
  6
CONTINUOUS
 62
   134
  5
1AF
 10
942057.265
 20
7296612.441
 30
0.0
 40
13.999
  1
9
 50
358.1878
  7
ROMANS
 11
942057.707699
 21
7296626.432998
 31
0.0
210
0.0
220
0.0
230
1.0
 73
     3
  0
TEXT
  8
10
  6
CONTINUOUS
 62
   134
  5
1B0
 10
942167.817
 20
7296606.682
 30
0.0
 40
13.999
  1
10
 50
358.1878
  7
ROMANS
 11
942168.259699
 21
7296620.673998
 31
0.0
210
0.0
220
0.0
230
1.0
 73
     3
  0
TEXT
  8
10
  6
CONTINUOUS
 62
   134
  5
1B1
 10
942294.244
 20
7296602.682
 30
0.0
 40
13.999
  1
11
 50
358.1878
  7
ROMANS
 11
942294.686699
 21
7296616.673998
 31
0.0
210
0.0
220
0.0
230
1.0
 73
     3
  0
TEXT
  8
10
  6
CONTINUOUS
 62
   134
  5
1B2
 10
942422.928
 20
7296598.611
 30
0.0
 40
13.999
  1
12
 50
358.1878
  7
ROMANS
 11
942423.370699
 21
7296612.602998
 31
0.0
210
0.0
220
0.0
230
1.0
 73
     3
  0
TEXT
  8
10
  6
CONTINUOUS
 62
   134
  5
1B3
 10
942547.097
 20
7296594.682
 30
0.0
 40
13.999
  1
13
 50
358.1878
  7
ROMANS
 11
942547.539699
 21
7296608.673998
 31
0.0
210
0.0
220
0.0
230
1.0
 73
     3
  0
TEXT
  8
10
  6
CONTINUOUS
 62
   134
  5
1B4
 10
942684.812
 20
7296590.325
 30
0.0
 40
13.999
  1
14
 50
358.1878
  7
ROMANS
 11
942685.254699
 21
7296604.316998
 31
0.0
210
0.0
220
0.0
230
1.0
 73
     3
  0
TEXT
  8
10
  6
CONTINUOUS
 62
   134
  5
1B5
 10
942677.235
 20
7296350.828
 30
0.0
 40
13.999
  1
15
 50
358.1878
  7
ROMANS
 11
942677.677699
 21
7296364.819998
 31
0.0
210
0.0
220
0.0
230
1.0
 73
     3
  0
TEXT
  8
10
  6
CONTINUOUS
 62
   134
  5
1B6
 10
942537.262
 20
7296355.256
 30
0.0
 40
13.999
  1
16
 50
358.1878
  7
ROMANS
 11
942537.704699
 21
7296369.247998
 31
0.0
210
0.0
220
0.0
230
1.0
 73
     3
  0
TEXT
  8
10
  6
CONTINUOUS
 62
   134
  5
1B7
 10
942413.093
 20
7296359.185
 30
0.0
 40
13.999
  1
17
 50
358.1878
  7
ROMANS
 11
942413.535699
 21
7296373.176998
 31
0.0
210
0.0
220
0.0
230
1.0
 73
     3
  0
TEXT
  8
10
  6
CONTINUOUS
 62
   134
  5
1B8
 10
942291.182
 20
7296363.042
 30
0.0
 40
13.999
  1
18
 50
358.1878
  7
ROMANS
 11
942291.624699
 21
7296377.033998
 31
0.0
210
0.0
220
0.0
230
1.0
 73
     3
  0
TEXT
  8
10
  6
CONTINUOUS
 62
   134
  5
1B9
 10
942164.755
 20
7296367.042
 30
0.0
 40
13.999
  1
19
 50
358.1878
  7
ROMANS
 11
942165.197699
 21
7296381.033998
 31
0.0
210
0.0
220
0.0
230
1.0
 73
     3
  0
TEXT
  8
10
  6
CONTINUOUS
 62
   134
  5
1BA
 10
942038.328
 20
7296371.042
 30
0.0
 40
13.999
  1
20
 50
358.1878
  7
ROMANS
 11
942038.770699
 21
7296385.033998
 31
0.0
210
0.0
220
0.0
230
1.0
 73
     3
  0
TEXT
  8
10
  6
CONTINUOUS
 62
   134
  5
1BB
 10
941918.674
 20
7296374.828
 30
0.0
 40
13.999
  1
21
 50
358.1878
  7
ROMANS
 11
941919.116699
 21
7296388.819998
 31
0.0
210
0.0
220
0.0
230
1.0
 73
     3
  0
TEXT
  8
10
  6
CONTINUOUS
 62
   134
  5
1BC
 10
941742.579
 20
7296380.4
 30
0.0
 40
13.999
  1
22
 50
358.1878
  7
ROMANS
 11
941743.021699
 21
7296394.391998
 31
0.0
210
0.0
220
0.0
230
1.0
 73
     3
  0
TEXT
  8
10
  6
CONTINUOUS
 62
   134
  5
1BD
 10
941609.38
 20
7296384.614
 30
0.0
 40
13.999
  1
23
 50
358.1878
  7
ROMANS
 11
941609.822699
 21
7296398.605998
 31
0.0
210
0.0
220
0.0
230
1.0
 73
     3
  0
TEXT
  8
10
  6
CONTINUOUS
 62
   134
  5
1BE
 10
941482.953
 20
7296388.614
 30
0.0
 40
13.999
  1
24
 50
358.1878
  7
ROMANS
 11
941483.395699
 21
7296402.605998
 31
0.0
210
0.0
220
0.0
230
1.0
 73
     3
  0
TEXT
  8
10
  6
CONTINUOUS
 62
   134
  5
1BF
 10
941354.269
 20
7296392.685
 30
0.0
 40
13.999
  1
25
 50
358.1878
  7
ROMANS
 11
941354.711699
 21
7296406.676998
 31
0.0
210
0.0
220
0.0
230
1.0
 73
     3
  0
TEXT
  8
10
  6
CONTINUOUS
 62
   134
  5
1C0
 10
941221.069
 20
7296396.9
 30
0.0
 40
13.999
  1
26
 50
358.1878
  7
ROMANS
 11
941221.511699
 21
7296410.891998
 31
0.0
210
0.0
220
0.0
230
1.0
 73
     3
  0
TEXT
  8
10
  6
CONTINUOUS
 62
   134
  5
1C1
 10
941092.385
 20
7296400.971
 30
0.0
 40
13.999
  1
27
 50
358.1878
  7
ROMANS
 11
941092.827699
 21
7296414.962998
 31
0.0
210
0.0
220
0.0
230
1.0
 73
     3
  0
TEXT
  8
10
  6
CONTINUOUS
 62
   134
  5
1C2
 10
940961.443
 20
7296405.114
 30
0.0
 40
13.999
  1
28
 50
358.1878
  7
ROMANS
 11
940961.885699
 21
7296419.105998
 31
0.0
210
0.0
220
0.0
230
1.0
 73
     3
  0
TEXT
  8
10
  6
CONTINUOUS
 62
   134
  5
1C3
 10
940955.51
 20
7296217.583
 30
0.0
 40
13.999
  1
29
 50
358.1878
  7
ROMANS
 11
940955.952699
 21
7296231.574998
 31
0.0
210
0.0
220
0.0
230
1.0
 73
     3
  0
TEXT
  8
10
  6
CONTINUOUS
 62
   134
  5
1C4
 10
941084.195
 20
7296213.512
 30
0.0
 40
13.999
  1
30
 50
358.1878
  7
ROMANS
 11
941084.637699
 21
7296227.503998
 31
0.0
210
0.0
220
0.0
230
1.0
 73
     3
  0
TEXT
  8
10
  6
CONTINUOUS
 62
   134
  5
1C5
 10
941215.136
 20
7296209.369
 30
0.0
 40
13.999
  1
31
 50
358.1878
  7
ROMANS
 11
941215.578699
 21
7296223.360998
 31
0.0
210
0.0
220
0.0
230
1.0
 73
     3
  0
TEXT
  8
10
  6
CONTINUOUS
 62
   134
  5
1C6
 10
941350.593
 20
7296205.083
 30
0.0
 40
13.999
  1
32
 50
358.1878
  7
ROMANS
 11
941351.035699
 21
7296219.074998
 31
0.0
210
0.0
220
0.0
230
1.0
 73
     3
  0
TEXT
  8
10
  6
CONTINUOUS
 62
   134
  5
1C7
 10
941477.02
 20
7296201.083
 30
0.0
 40
13.999
  1
33
 50
358.1878
  7
ROMANS
 11
941477.462699
 21
7296215.074998
 31
0.0
210
0.0
220
0.0
230
1.0
 73
     3
  0
TEXT
  8
10
  6
CONTINUOUS
 62
   134
  5
1C8
 10
941605.705
 20
7296197.011
 30
0.0
 40
13.999
  1
34
 50
358.1878
  7
ROMANS
 11
941606.147699
 21
7296211.002998
 31
0.0
210
0.0
220
0.0
230
1.0
 73
     3
  0
TEXT
  8
10
  6
CONTINUOUS
 62
   134
  5
1C9
 10
941734.389
 20
7296192.94
 30
0.0
 40
13.999
  1
35
 50
358.1878
  7
ROMANS
 11
941734.831699
 21
7296206.931998
 31
0.0
210
0.0
220
0.0
230
1.0
 73
     3
  0
TEXT
  8
10
  6
CONTINUOUS
 62
   134
  5
1CA
 10
941914.999
 20
7296187.225
 30
0.0
 40
13.999
  1
36
 50
358.1878
  7
ROMANS
 11
941915.441699
 21
7296201.216998
 31
0.0
210
0.0
220
0.0
230
1.0
 73
     3
  0
TEXT
  8
10
  6
CONTINUOUS
 62
   134
  5
1CB
 10
942036.91
 20
7296183.368
 30
0.0
 40
13.999
  1
37
 50
358.1878
  7
ROMANS
 11
942037.352699
 21
7296197.359998
 31
0.0
210
0.0
220
0.0
230
1.0
 73
     3
  0
TEXT
  8
10
  6
CONTINUOUS
 62
   134
  5
1CC
 10
942163.337
 20
7296179.368
 30
0.0
 40
13.999
  1
38
 50
358.1878
  7
ROMANS
 11
942163.779699
 21
7296193.359998
 31
0.0
210
0.0
220
0.0
230
1.0
 73
     3
  0
TEXT
  8
10
  6
CONTINUOUS
 62
   134
  5
1CD
 10
942285.249
 20
7296175.511
 30
0.0
 40
13.999
  1
39
 50
358.1878
  7
ROMANS
 11
942285.691699
 21
7296189.502998
 31
0.0
210
0.0
220
0.0
230
1.0
 73
     3
  0
TEXT
  8
10
  6
CONTINUOUS
 62
   134
  5
1CE
 10
942409.417
 20
7296171.582
 30
0.0
 40
13.999
  1
40
 50
358.1878
  7
ROMANS
 11
942409.859699
 21
7296185.573998
 31
0.0
210
0.0
220
0.0
230
1.0
 73
     3
  0
TEXT
  8
10
  6
CONTINUOUS
 62
   134
  5
1CF
 10
942533.586
 20
7296167.654
 30
0.0
 40
13.999
  1
41
 50
358.1878
  7
ROMANS
 11
942534.028699
 21
7296181.645998
 31
0.0
210
0.0
220
0.0
230
1.0
 73
     3
  0
TEXT
  8
10
  6
CONTINUOUS
 62
   134
  5
1D0
 10
942664.529
 20
7296163.511
 30
0.0
 40
13.999
  1
42
 50
358.1878
  7
ROMANS
 11
942664.971699
 21
7296177.502998
 31
0.0
210
0.0
220
0.0
230
1.0
 73
     3
  0
TEXT
  8
10
  6
CONTINUOUS
 62
   134
  5
1D1
 10
942656.665
 20
7295914.976
 30
0.0
 40
13.999
  1
43
 50
358.1878
  7
ROMANS
 11
942657.107699
 21
7295928.967998
 31
0.0
210
0.0
220
0.0
230
1.0
 73
     3
  0
TEXT
  8
10
  6
CONTINUOUS
 62
   134
  5
1D2
 10
942527.981
 20
7295919.048
 30
0.0
 40
13.999
  1
44
 50
358.1878
  7
ROMANS
 11
942528.423699
 21
7295933.039998
 31
0.0
210
0.0
220
0.0
230
1.0
 73
     3
  0
TEXT
  8
10
  6
CONTINUOUS
 62
   134
  5
1D3
 10
942406.069
 20
7295922.905
 30
0.0
 40
13.999
  1
45
 50
358.1878
  7
ROMANS
 11
942406.511699
 21
7295936.896998
 31
0.0
210
0.0
220
0.0
230
1.0
 73
     3
  0
TEXT
  8
10
  6
CONTINUOUS
 62
   134
  5
1D4
 10
942277.385
 20
7295926.976
 30
0.0
 40
13.999
  1
46
 50
358.1878
  7
ROMANS
 11
942277.827699
 21
7295940.967998
 31
0.0
210
0.0
220
0.0
230
1.0
 73
     3
  0
TEXT
  8
10
  6
CONTINUOUS
 62
   134
  5
1D5
 10
942153.215
 20
7295930.905
 30
0.0
 40
13.999
  1
47
 50
358.1878
  7
ROMANS
 11
942153.657699
 21
7295944.896998
 31
0.0
210
0.0
220
0.0
230
1.0
 73
     3
  0
TEXT
  8
10
  6
CONTINUOUS
 62
   134
  5
1D6
 10
942026.788
 20
7295934.905
 30
0.0
 40
13.999
  1
48
 50
358.1878
  7
ROMANS
 11
942027.230699
 21
7295948.896998
 31
0.0
210
0.0
220
0.0
230
1.0
 73
     3
  0
TEXT
  8
10
  6
CONTINUOUS
 62
   134
  5
1D7
 10
941902.62
 20
7295938.834
 30
0.0
 40
13.999
  1
49
 50
358.1878
  7
ROMANS
 11
941903.062699
 21
7295952.825998
 31
0.0
210
0.0
220
0.0
230
1.0
 73
     3
  0
TEXT
  8
10
  6
CONTINUOUS
 62
   134
  5
1D8
 10
941722.01
 20
7295944.548
 30
0.0
 40
13.999
  1
50
 50
358.1878
  7
ROMANS
 11
941722.452699
 21
7295958.539998
 31
0.0
210
0.0
220
0.0
230
1.0
 73
     3
  0
TEXT
  8
10
  6
CONTINUOUS
 62
   134
  5
1D9
 10
941597.841
 20
7295948.477
 30
0.0
 40
13.999
  1
51
 50
358.1878
  7
ROMANS
 11
941598.283699
 21
7295962.468998
 31
0.0
210
0.0
220
0.0
230
1.0
 73
     3
  0
TEXT
  8
10
  6
CONTINUOUS
 62
   134
  5
1DA
 10
941471.414
 20
7295952.477
 30
0.0
 40
13.999
  1
52
 50
358.1878
  7
ROMANS
 11
941471.856699
 21
7295966.468998
 31
0.0
210
0.0
220
0.0
230
1.0
 73
     3
  0
TEXT
  8
10
  6
CONTINUOUS
 62
   134
  5
1DB
 10
941338.215
 20
7295956.691
 30
0.0
 40
13.999
  1
53
 50
358.1878
  7
ROMANS
 11
941338.657699
 21
7295970.682998
 31
0.0
210
0.0
220
0.0
230
1.0
 73
     3
  0
TEXT
  8
10
  6
CONTINUOUS
 62
   134
  5
1DC
 10
941205.015
 20
7295960.905
 30
0.0
 40
13.999
  1
54
 50
358.1878
  7
ROMANS
 11
941205.457699
 21
7295974.896998
 31
0.0
210
0.0
220
0.0
230
1.0
 73
     3
  0
TEXT
  8
10
  6
CONTINUOUS
 62
   134
  5
1DD
 10
941076.331
 20
7295964.977
 30
0.0
 40
13.999
  1
55
 50
358.1878
  7
ROMANS
 11
941076.773699
 21
7295978.968998
 31
0.0
210
0.0
220
0.0
230
1.0
 73
     3
  0
TEXT
  8
10
  6
CONTINUOUS
 62
   134
  5
1DE
 10
940943.131
 20
7295969.191
 30
0.0
 40
13.999
  1
56
 50
358.1878
  7
ROMANS
 11
940943.573699
 21
7295983.182998
 31
0.0
210
0.0
220
0.0
230
1.0
 73
     3
  0
TEXT
  8
10
  6
CONTINUOUS
 62
   134
  5
1DF
 10
940936.554
 20
7295761.326
 30
0.0
 40
13.999
  1
57
 50
358.1878
  7
ROMANS
 11
940936.996699
 21
7295775.317998
 31
0.0
210
0.0
220
0.0
230
1.0
 73
     3
  0
TEXT
  8
10
  6
CONTINUOUS
 62
   134
  5
1E0
 10
941072.011
 20
7295757.041
 30
0.0
 40
13.999
  1
58
 50
358.1878
  7
ROMANS
 11
941072.453699
 21
7295771.032998
 31
0.0
210
0.0
220
0.0
230
1.0
 73
     3
  0
TEXT
  8
10
  6
CONTINUOUS
 62
   134
  5
1E1
 10
941202.954
 20
7295752.898
 30
0.0
 40
13.999
  1
59
 50
358.1878
  7
ROMANS
 11
941203.396699
 21
7295766.889998
 31
0.0
210
0.0
220
0.0
230
1.0
 73
     3
  0
TEXT
  8
10
  6
CONTINUOUS
 62
   134
  5
1E2
 10
941336.153
 20
7295748.683
 30
0.0
 40
13.999
  1
60
 50
358.1878
  7
ROMANS
 11
941336.595699
 21
7295762.674998
 31
0.0
210
0.0
220
0.0
230
1.0
 73
     3
  0
TEXT
  8
10
  6
CONTINUOUS
 62
   134
  5
1E3
 10
941453.549
 20
7295744.969
 30
0.0
 40
13.999
  1
61
 50
358.1878
  7
ROMANS
 11
941453.991699
 21
7295758.960998
 31
0.0
210
0.0
220
0.0
230
1.0
 73
     3
  0
TEXT
  8
10
  6
CONTINUOUS
 62
   134
  5
1E4
 10
941589.007
 20
7295740.683
 30
0.0
 40
13.999
  1
62
 50
358.1878
  7
ROMANS
 11
941589.449699
 21
7295754.674998
 31
0.0
210
0.0
220
0.0
230
1.0
 73
     3
  0
TEXT
  8
10
  6
CONTINUOUS
 62
   134
  5
1E5
 10
941726.722
 20
7295736.326
 30
0.0
 40
13.999
  1
63
 50
358.1878
  7
ROMANS
 11
941727.164699
 21
7295750.317998
 31
0.0
210
0.0
220
0.0
230
1.0
 73
     3
  0
TEXT
  8
10
  6
CONTINUOUS
 62
   134
  5
1E6
 10
941898.301
 20
7295730.897
 30
0.0
 40
13.999
  1
64
 50
358.1878
  7
ROMANS
 11
941898.743699
 21
7295744.888998
 31
0.0
210
0.0
220
0.0
230
1.0
 73
     3
  0
TEXT
  8
10
  6
CONTINUOUS
 62
   134
  5
1E7
 10
942020.212
 20
7295727.04
 30
0.0
 40
13.999
  1
65
 50
358.1878
  7
ROMANS
 11
942020.654699
 21
7295741.031998
 31
0.0
210
0.0
220
0.0
230
1.0
 73
     3
  0
TEXT
  8
10
  6
CONTINUOUS
 62
   134
  5
1E8
 10
942146.639
 20
7295723.04
 30
0.0
 40
13.999
  1
66
 50
358.1878
  7
ROMANS
 11
942147.081699
 21
7295737.031998
 31
0.0
210
0.0
220
0.0
230
1.0
 73
     3
  0
TEXT
  8
10
  6
CONTINUOUS
 62
   134
  5
1E9
 10
942268.55
 20
7295719.183
 30
0.0
 40
13.999
  1
67
 50
358.1878
  7
ROMANS
 11
942268.992699
 21
7295733.174998
 31
0.0
210
0.0
220
0.0
230
1.0
 73
     3
  0
TEXT
  8
10
  6
CONTINUOUS
 62
   134
  5
1EA
 10
942399.492
 20
7295715.04
 30
0.0
 40
13.999
  1
68
 50
358.1878
  7
ROMANS
 11
942399.934699
 21
7295729.031998
 31
0.0
210
0.0
220
0.0
230
1.0
 73
     3
  0
TEXT
  8
10
  6
CONTINUOUS
 62
   134
  5
1EB
 10
942514.631
 20
7295711.397
 30
0.0
 40
13.999
  1
69
 50
358.1878
  7
ROMANS
 11
942515.073699
 21
7295725.388998
 31
0.0
210
0.0
220
0.0
230
1.0
 73
     3
  0
TEXT
  8
10
  6
CONTINUOUS
 62
   134
  5
1EC
 10
942659.119
 20
7295706.825
 30
0.0
 40
13.999
  1
70
 50
358.1878
  7
ROMANS
 11
942659.561699
 21
7295720.816998
 31
0.0
210
0.0
220
0.0
230
1.0
 73
     3
  0
TEXT
  8
10
  6
CONTINUOUS
 62
   134
  5
1ED
 10
942650.04
 20
7295419.881
 30
0.0
 40
13.999
  1
71
 50
358.1878
  7
ROMANS
 11
942650.482699
 21
7295433.872998
 31
0.0
210
0.0
220
0.0
230
1.0
 73
     3
  0
TEXT
  8
10
  6
CONTINUOUS
 62
   134
  5
1EE
 10
942510.067
 20
7295424.31
 30
0.0
 40
13.999
  1
72
 50
358.1878
  7
ROMANS
 11
942510.509699
 21
7295438.301998
 31
0.0
210
0.0
220
0.0
230
1.0
 73
     3
  0
TEXT
  8
10
  6
CONTINUOUS
 62
   134
  5
1EF
 10
942381.383
 20
7295428.381
 30
0.0
 40
13.999
  1
73
 50
358.1878
  7
ROMANS
 11
942381.825699
 21
7295442.372998
 31
0.0
210
0.0
220
0.0
230
1.0
 73
     3
  0
TEXT
  8
10
  6
CONTINUOUS
 62
   134
  5
1F0
 10
942261.73
 20
7295432.167
 30
0.0
 40
13.999
  1
74
 50
358.1878
  7
ROMANS
 11
942262.172699
 21
7295446.158998
 31
0.0
210
0.0
220
0.0
230
1.0
 73
     3
  0
TEXT
  8
10
  6
CONTINUOUS
 62
   134
  5
1F1
 10
942133.045
 20
7295436.238
 30
0.0
 40
13.999
  1
75
 50
358.1878
  7
ROMANS
 11
942133.487699
 21
7295450.229998
 31
0.0
210
0.0
220
0.0
230
1.0
 73
     3
  0
TEXT
  8
10
  6
CONTINUOUS
 62
   134
  5
1F2
 10
942006.618
 20
7295440.238
 30
0.0
 40
13.999
  1
76
 50
358.1878
  7
ROMANS
 11
942007.060699
 21
7295454.229998
 31
0.0
210
0.0
220
0.0
230
1.0
 73
     3
  0
TEXT
  8
10
  6
CONTINUOUS
 62
   134
  5
1F3
 10
941884.706
 20
7295444.096
 30
0.0
 40
13.999
  1
77
 50
358.1878
  7
ROMANS
 11
941885.148699
 21
7295458.087998
 31
0.0
210
0.0
220
0.0
230
1.0
 73
     3
  0
TEXT
  8
10
  6
CONTINUOUS
 62
   134
  5
1F4
 10
941708.612
 20
7295449.667
 30
0.0
 40
13.999
  1
78
 50
358.1878
  7
ROMANS
 11
941709.054699
 21
7295463.658998
 31
0.0
210
0.0
220
0.0
230
1.0
 73
     3
  0
TEXT
  8
10
  6
CONTINUOUS
 62
   134
  5
1F5
 10
941584.444
 20
7295453.596
 30
0.0
 40
13.999
  1
79
 50
358.1878
  7
ROMANS
 11
941584.886699
 21
7295467.587998
 31
0.0
210
0.0
220
0.0
230
1.0
 73
     3
  0
TEXT
  8
10
  6
CONTINUOUS
 62
   134
  5
1F6
 10
941444.471
 20
7295458.025
 30
0.0
 40
13.999
  1
80
 50
358.1878
  7
ROMANS
 11
941444.913699
 21
7295472.016998
 31
0.0
210
0.0
220
0.0
230
1.0
 73
     3
  0
TEXT
  8
10
  6
CONTINUOUS
 62
   134
  5
1F7
 10
941320.302
 20
7295461.953
 30
0.0
 40
13.999
  1
81
 50
358.1878
  7
ROMANS
 11
941320.744699
 21
7295475.944998
 31
0.0
210
0.0
220
0.0
230
1.0
 73
     3
  0
TEXT
  8
10
  6
CONTINUOUS
 62
   134
  5
1F8
 10
941191.617
 20
7295466.025
 30
0.0
 40
13.999
  1
82
 50
358.1878
  7
ROMANS
 11
941192.059699
 21
7295480.016998
 31
0.0
210
0.0
220
0.0
230
1.0
 73
     3
  0
TEXT
  8
10
  6
CONTINUOUS
 62
   134
  5
1F9
 10
941062.932
 20
7295470.096
 30
0.0
 40
13.999
  1
83
 50
358.1878
  7
ROMANS
 11
941063.374699
 21
7295484.087998
 31
0.0
210
0.0
220
0.0
230
1.0
 73
     3
  0
TEXT
  8
10
  6
CONTINUOUS
 62
   134
  5
1FA
 10
940936.506
 20
7295474.096
 30
0.0
 40
13.999
  1
84
 50
358.1878
  7
ROMANS
 11
940936.948699
 21
7295488.087998
 31
0.0
210
0.0
220
0.0
230
1.0
 73
     3
  0
TEXT
  8
10
  6
CONTINUOUS
 62
   134
  5
1FB
 10
940621.56
 20
7296145.419
 30
0.0
 40
13.999
  1
B
 50
358.1878
  7
ROMANS
 11
940622.002699
 21
7296159.410998
 31
0.0
210
0.0
220
0.0
230
1.0
 73
     3
  0
TEXT
  8
10
  6
CONTINUOUS
 62
   134
  5
1FC
 10
940172.119
 20
7297137.289
 30
0.0
 40
13.999
  1
 1
 50
358.1878
  7
ROMANS
 11
940172.561699
 21
7297151.280998
 31
0.0
210
0.0
220
0.0
230
1.0
 73
     3
  0
TEXT
  8
10
  6
CONTINUOUS
 62
   134
  5
1FD
 10
940171.326
 20
7297112.236
 30
0.0
 40
13.999
  1
 2
 50
358.1878
  7
ROMANS
 11
940171.768699
 21
7297126.227998
 31
0.0
210
0.0
220
0.0
230
1.0
 73
     3
  0
TEXT
  8
10
  6
CONTINUOUS
 62
   134
  5
1FE
 10
940170.533
 20
7297087.184
 30
0.0
 40
13.999
  1
 3
 50
358.1878
  7
ROMANS
 11
940170.975699
 21
7297101.175998
 31
0.0
210
0.0
220
0.0
230
1.0
 73
     3
  0
TEXT
  8
10
  6
CONTINUOUS
 62
   134
  5
1FF
 10
940169.771
 20
7297063.094
 30
0.0
 40
13.999
  1
 4
 50
358.1878
  7
ROMANS
 11
940170.213699
 21
7297077.085998
 31
0.0
210
0.0
220
0.0
230
1.0
 73
     3
  0
TEXT
  8
10
  6
CONTINUOUS
 62
   134
  5
200
 10
940168.917
 20
7297036.114
 30
0.0
 40
13.999
  1
 5
 50
358.1878
  7
ROMANS
 11
940169.359699
 21
7297050.105998
 31
0.0
210
0.0
220
0.0
230
1.0
 73
     3
  0
TEXT
  8
10
  6
CONTINUOUS
 62
   134
  5
201
 10
940168.186
 20
7297012.989
 30
0.0
 40
13.999
  1
 6
 50
358.1878
  7
ROMANS
 11
940168.628699
 21
7297026.980998
 31
0.0
210
0.0
220
0.0
230
1.0
 73
     3
  0
TEXT
  8
10
  6
CONTINUOUS
 62
   134
  5
202
 10
940167.393
 20
7296987.935
 30
0.0
 40
13.999
  1
 7
 50
358.1878
  7
ROMANS
 11
940167.835699
 21
7297001.926998
 31
0.0
210
0.0
220
0.0
230
1.0
 73
     3
  0
TEXT
  8
10
  6
CONTINUOUS
 62
   134
  5
203
 10
940166.6
 20
7296962.883
 30
0.0
 40
13.999
  1
 8
 50
358.1878
  7
ROMANS
 11
940167.042699
 21
7296976.874998
 31
0.0
210
0.0
220
0.0
230
1.0
 73
     3
  0
TEXT
  8
10
  6
CONTINUOUS
 62
   134
  5
204
 10
940165.162
 20
7296937.503
 30
0.0
 40
13.999
  1
 9
 50
358.1878
  7
ROMANS
 11
940165.604699
 21
7296951.494998
 31
0.0
210
0.0
220
0.0
230
1.0
 73
     3
  0
TEXT
  8
10
  6
CONTINUOUS
 62
   134
  5
205
 10
940169.699
 20
7296899.679
 30
0.0
 40
13.999
  1
10
 50
358.1878
  7
ROMANS
 11
940170.141699
 21
7296913.670998
 31
0.0
210
0.0
220
0.0
230
1.0
 73
     3
  0
TEXT
  8
10
  6
CONTINUOUS
 62
   134
  5
206
 10
940169.007
 20
7296849.892
 30
0.0
 40
13.999
  1
11
 50
358.1878
  7
ROMANS
 11
940169.449699
 21
7296863.883998
 31
0.0
210
0.0
220
0.0
230
1.0
 73
     3
  0
TEXT
  8
10
  6
CONTINUOUS
 62
   134
  5
207
 10
940298.907
 20
7296779.972
 30
0.0
 40
13.999
  1
12
 50
358.1878
  7
ROMANS
 11
940299.349699
 21
7296793.963998
 31
0.0
210
0.0
220
0.0
230
1.0
 73
     3
  0
TEXT
  8
10
  6
CONTINUOUS
 62
   134
  5
208
 10
940151.258
 20
7296752.135
 30
0.0
 40
13.999
  1
15
 50
358.1878
  7
ROMANS
 11
940151.700699
 21
7296766.126998
 31
0.0
210
0.0
220
0.0
230
1.0
 73
     3
  0
TEXT
  8
10
  6
CONTINUOUS
 62
   134
  5
209
 10
940150.466
 20
7296727.082
 30
0.0
 40
13.999
  1
16
 50
358.1878
  7
ROMANS
 11
940150.908699
 21
7296741.073998
 31
0.0
210
0.0
220
0.0
230
1.0
 73
     3
  0
TEXT
  8
10
  6
CONTINUOUS
 62
   134
  5
20A
 10
940149.703
 20
7296702.993
 30
0.0
 40
13.999
  1
17
 50
358.1878
  7
ROMANS
 11
940150.145699
 21
7296716.984998
 31
0.0
210
0.0
220
0.0
230
1.0
 73
     3
  0
TEXT
  8
10
  6
CONTINUOUS
 62
   134
  5
20B
 10
940148.911
 20
7296677.94
 30
0.0
 40
13.999
  1
18
 50
358.1878
  7
ROMANS
 11
940149.353699
 21
7296691.931998
 31
0.0
210
0.0
220
0.0
230
1.0
 73
     3
  0
TEXT
  8
10
  6
CONTINUOUS
 62
   134
  5
20C
 10
940338.056
 20
7296777.09
 30
0.0
 40
13.999
  1
19
 50
358.1878
  7
ROMANS
 11
940338.498699
 21
7296791.081998
 31
0.0
210
0.0
220
0.0
230
1.0
 73
     3
  0
TEXT
  8
10
  6
CONTINUOUS
 62
   134
  5
20D
 10
940363.089
 20
7296776.298
 30
0.0
 40
13.999
  1
20
 50
358.1878
  7
ROMANS
 11
940363.531699
 21
7296790.289998
 31
0.0
210
0.0
220
0.0
230
1.0
 73
     3
  0
TEXT
  8
10
  6
CONTINUOUS
 62
   134
  5
20E
 10
940390.048
 20
7296775.445
 30
0.0
 40
13.999
  1
21
 50
358.1878
  7
ROMANS
 11
940390.490699
 21
7296789.436998
 31
0.0
210
0.0
220
0.0
230
1.0
 73
     3
  0
TEXT
  8
10
  6
CONTINUOUS
 62
   134
  5
20F
 10
940417.006
 20
7296774.592
 30
0.0
 40
13.999
  1
22
 50
358.1878
  7
ROMANS
 11
940417.448699
 21
7296788.583998
 31
0.0
210
0.0
220
0.0
230
1.0
 73
     3
  0
TEXT
  8
10
  6
CONTINUOUS
 62
   134
  5
210
 10
940441.076
 20
7296773.831
 30
0.0
 40
13.999
  1
23
 50
358.1878
  7
ROMANS
 11
940441.518699
 21
7296787.822998
 31
0.0
210
0.0
220
0.0
230
1.0
 73
     3
  0
TEXT
  8
10
  6
CONTINUOUS
 62
   134
  5
211
 10
940466.11
 20
7296773.038
 30
0.0
 40
13.999
  1
24
 50
358.1878
  7
ROMANS
 11
940466.552699
 21
7296787.029998
 31
0.0
210
0.0
220
0.0
230
1.0
 73
     3
  0
POLYLINE
  8
7
  6
CONTINUOUS
 62
     7
  5
212
 66
     1
 10
0.0
 20
0.0
 30
0.0
 70
     1
  0
VERTEX
  8
7
  6
CONTINUOUS
 62
     7
  5
213
 10
940540.375
 20
7296721.603
 30
0.0
  0
VERTEX
  8
7
  6
CONTINUOUS
 62
     7
  5
214
 10
940565.363
 20
7296720.813
 30
0.0
  0
VERTEX
  8
7
  6
CONTINUOUS
 62
     7
  5
215
 10
940569.316
 20
7296845.75
 30
0.0
  0
VERTEX
  8
7
  6
CONTINUOUS
 62
     7
  5
216
 10
940544.328
 20
7296846.541
 30
0.0
  0
SEQEND
  8
7
  6
CONTINUOUS
 62
     7
  5
217
  0
POLYLINE
  8
7
  6
CONTINUOUS
 62
     7
  5
218
 66
     1
 10
0.0
 20
0.0
 30
0.0
 70
     1
  0
VERTEX
  8
7
  6
CONTINUOUS
 62
     7
  5
219
 10
940565.774
 20
7296733.806
 30
0.0
  0
VERTEX
  8
7
  6
CONTINUOUS
 62
     7
  5
21A
 10
940590.761
 20
7296733.016
 30
0.0
  0
VERTEX
  8
7
  6
CONTINUOUS
 62
     7
  5
21B
 10
940594.714
 20
7296857.953
 30
0.0
  0
VERTEX
  8
7
  6
CONTINUOUS
 62
     7
  5
21C
 10
940569.727
 20
7296858.744
 30
0.0
  0
SEQEND
  8
7
  6
CONTINUOUS
 62
     7
  5
21D
  0
POLYLINE
  8
7
  6
CONTINUOUS
 62
     7
  5
21E
 66
     1
 10
0.0
 20
0.0
 30
0.0
 70
     1
  0
VERTEX
  8
7
  6
CONTINUOUS
 62
     7
  5
21F
 10
940591.299
 20
7296750.007
 30
0.0
  0
VERTEX
  8
7
  6
CONTINUOUS
 62
     7
  5
220
 10
940616.286
 20
7296749.216
 30
0.0
  0
VERTEX
  8
7
  6
CONTINUOUS
 62
     7
  5
221
 10
940620.239
 20
7296874.154
 30
0.0
  0
VERTEX
  8
7
  6
CONTINUOUS
 62
     7
  5
222
 10
940595.252
 20
7296874.945
 30
0.0
  0
SEQEND
  8
7
  6
CONTINUOUS
 62
     7
  5
223
  0
POLYLINE
  8
7
  6
CONTINUOUS
 62
     7
  5
224
 66
     1
 10
0.0
 20
0.0
 30
0.0
 70
     1
  0
VERTEX
  8
7
  6
CONTINUOUS
 62
     7
  5
225
 10
940617.014
 20
7296772.205
 30
0.0
  0
VERTEX
  8
7
  6
CONTINUOUS
 62
     7
  5
226
 10
940642.001
 20
7296771.414
 30
0.0
  0
VERTEX
  8
7
  6
CONTINUOUS
 62
     7
  5
227
 10
940645.954
 20
7296896.352
 30
0.0
  0
VERTEX
  8
7
  6
CONTINUOUS
 62
     7
  5
228
 10
940620.967
 20
7296897.142
 30
0.0
  0
SEQEND
  8
7
  6
CONTINUOUS
 62
     7
  5
229
  0
TEXT
  8
10
  6
CONTINUOUS
 62
   134
  5
22A
 10
940519.064
 20
7296771.363
 30
0.0
 40
13.999
  1
25
 50
358.1878
  7
ROMANS
 11
940519.506699
 21
7296785.354998
 31
0.0
210
0.0
220
0.0
230
1.0
 73
     3
  0
TEXT
  8
10
  6
CONTINUOUS
 62
   134
  5
22B
 10
940544.524
 20
7296784.061
 30
0.0
 40
13.999
  1
26
 50
358.1878
  7
ROMANS
 11
940544.966699
 21
7296798.052998
 31
0.0
210
0.0
220
0.0
230
1.0
 73
     3
  0
TEXT
  8
10
  6
CONTINUOUS
 62
   134
  5
22C
 10
940569.985
 20
7296796.758
 30
0.0
 40
13.999
  1
27
 50
358.1878
  7
ROMANS
 11
940570.427699
 21
7296810.749998
 31
0.0
210
0.0
220
0.0
230
1.0
 73
     3
  0
TEXT
  8
10
  6
CONTINUOUS
 62
   134
  5
22D
 10
940596.346
 20
7296807.499
 30
0.0
 40
13.999
  1
28
 50
358.1878
  7
ROMANS
 11
940596.788699
 21
7296821.490998
 31
0.0
210
0.0
220
0.0
230
1.0
 73
     3
  0
TEXT
  8
10
  6
CONTINUOUS
 62
   134
  5
22E
 10
940620.935
 20
7296823.118
 30
0.0
 40
13.999
  1
29
 50
358.1878
  7
ROMANS
 11
940621.377699
 21
7296837.109998
 31
0.0
210
0.0
220
0.0
230
1.0
 73
     3
  0
TEXT
  8
10
  6
CONTINUOUS
 62
   134
  5
22F
 10
940756.792
 20
7296700.182
 30
0.0
 40
13.999
  1
30
 50
358.1878
  7
ROMANS
 11
940757.234699
 21
7296714.173998
 31
0.0
210
0.0
220
0.0
230
1.0
 73
     3
  0
TEXT
  8
10
  6
CONTINUOUS
 62
   134
  5
230
 10
940757.646
 20
7296727.162
 30
0.0
 40
13.999
  1
31
 50
358.1878
  7
ROMANS
 11
940758.088699
 21
7296741.153998
 31
0.0
210
0.0
220
0.0
230
1.0
 73
     3
  0
TEXT
  8
10
  6
CONTINUOUS
 62
   134
  5
231
 10
940758.408
 20
7296751.251
 30
0.0
 40
13.999
  1
32
 50
358.1878
  7
ROMANS
 11
940758.850699
 21
7296765.242998
 31
0.0
210
0.0
220
0.0
230
1.0
 73
     3
  0
TEXT
  8
10
  6
CONTINUOUS
 62
   134
  5
232
 10
940759.201
 20
7296776.305
 30
0.0
 40
13.999
  1
33
 50
358.1878
  7
ROMANS
 11
940759.643699
 21
7296790.296998
 31
0.0
210
0.0
220
0.0
230
1.0
 73
     3
  0
TEXT
  8
10
  6
CONTINUOUS
 62
   134
  5
233
 10
940759.963
 20
7296800.393
 30
0.0
 40
13.999
  1
34
 50
358.1878
  7
ROMANS
 11
940760.405699
 21
7296814.384998
 31
0.0
210
0.0
220
0.0
230
1.0
 73
     3
  0
TEXT
  8
10
  6
CONTINUOUS
 62
   134
  5
234
 10
940760.725
 20
7296824.482
 30
0.0
 40
13.999
  1
35
 50
358.1878
  7
ROMANS
 11
940761.167699
 21
7296838.473998
 31
0.0
210
0.0
220
0.0
230
1.0
 73
     3
  0
TEXT
  8
10
  6
CONTINUOUS
 62
   134
  5
235
 10
940761.518
 20
7296849.536
 30
0.0
 40
13.999
  1
36
 50
358.1878
  7
ROMANS
 11
940761.960699
 21
7296863.527998
 31
0.0
210
0.0
220
0.0
230
1.0
 73
     3
  0
TEXT
  8
10
  6
CONTINUOUS
 62
   134
  5
236
 10
940763.833
 20
7296876.769
 30
0.0
 40
13.999
  1
37
 50
358.1878
  7
ROMANS
 11
940764.275699
 21
7296890.760998
 31
0.0
210
0.0
220
0.0
230
1.0
 73
     3
  0
TEXT
  8
10
  6
CONTINUOUS
 62
   134
  5
237
 10
940711.388
 20
7296930.656
 30
0.0
 40
13.999
  1
38
 50
358.1878
  7
ROMANS
 11
940711.830699
 21
7296944.647998
 31
0.0
210
0.0
220
0.0
230
1.0
 73
     3
  0
TEXT
  8
10
  6
CONTINUOUS
 62
   134
  5
238
 10
940698.461
 20
7296977.964
 30
0.0
 40
13.999
  1
39
 50
358.1878
  7
ROMANS
 11
940698.903699
 21
7296991.955998
 31
0.0
210
0.0
220
0.0
230
1.0
 73
     3
  0
TEXT
  8
10
  6
CONTINUOUS
 62
   134
  5
239
 10
940668.276
 20
7297030.672
 30
0.0
 40
13.999
  1
40
 50
358.1878
  7
ROMANS
 11
940668.718699
 21
7297044.663998
 31
0.0
210
0.0
220
0.0
230
1.0
 73
     3
  0
TEXT
  8
10
  6
CONTINUOUS
 62
   134
  5
23A
 10
940740.194
 20
7297089.415
 30
0.0
 40
13.999
  1
43
 50
358.1878
  7
ROMANS
 11
940740.636699
 21
7297103.406998
 31
0.0
210
0.0
220
0.0
230
1.0
 73
     3
  0
TEXT
  8
10
  6
CONTINUOUS
 62
   134
  5
23B
 10
940740.986
 20
7297114.468
 30
0.0
 40
13.999
  1
44
 50
358.1878
  7
ROMANS
 11
940741.428699
 21
7297128.459998
 31
0.0
210
0.0
220
0.0
230
1.0
 73
     3
  0
TEXT
  8
10
  6
CONTINUOUS
 62
   134
  5
23C
 10
940741.81
 20
7297140.484
 30
0.0
 40
13.999
  1
45
 50
358.1878
  7
ROMANS
 11
940742.252699
 21
7297154.475998
 31
0.0
210
0.0
220
0.0
230
1.0
 73
     3
  0
TEXT
  8
10
  6
CONTINUOUS
 62
   134
  5
23D
 10
940573.158
 20
7297049.366
 30
0.0
 40
13.999
  1
46
 50
358.1878
  7
ROMANS
 11
940573.600699
 21
7297063.357998
 31
0.0
210
0.0
220
0.0
230
1.0
 73
     3
  0
TEXT
  8
10
  6
CONTINUOUS
 62
   134
  5
23E
 10
940548.339
 20
7297056.904
 30
0.0
 40
13.999
  1
47
 50
358.1878
  7
ROMANS
 11
940548.781699
 21
7297070.895998
 31
0.0
210
0.0
220
0.0
230
1.0
 73
     3
  0
TEXT
  8
10
  6
CONTINUOUS
 62
   134
  5
23F
 10
940524.237
 20
7297056.701
 30
0.0
 40
13.999
  1
48
 50
358.1878
  7
ROMANS
 11
940524.679699
 21
7297070.692998
 31
0.0
210
0.0
220
0.0
230
1.0
 73
     3
  0
TEXT
  8
10
  6
CONTINUOUS
 62
   134
  5
240
 10
940497.309
 20
7297058.519
 30
0.0
 40
13.999
  1
49
 50
358.1878
  7
ROMANS
 11
940497.751699
 21
7297072.510998
 31
0.0
210
0.0
220
0.0
230
1.0
 73
     3
  0
TEXT
  8
10
  6
CONTINUOUS
 62
   134
  5
241
 10
940447.213
 20
7297059.138
 30
0.0
 40
13.999
  1
50
 50
358.1878
  7
ROMANS
 11
940447.655699
 21
7297073.129998
 31
0.0
210
0.0
220
0.0
230
1.0
 73
     3
  0
TEXT
  8
10
  6
CONTINUOUS
 62
   134
  5
242
 10
940419.919
 20
7297049.392
 30
0.0
 40
13.999
  1
51
 50
358.1878
  7
ROMANS
 11
940420.361699
 21
7297063.383998
 31
0.0
210
0.0
220
0.0
230
1.0
 73
     3
  0
TEXT
  8
10
  6
CONTINUOUS
 62
   134
  5
243
 10
940396.476
 20
7297039.524
 30
0.0
 40
13.999
  1
52
 50
358.1878
  7
ROMANS
 11
940396.918699
 21
7297053.515998
 31
0.0
210
0.0
220
0.0
230
1.0
 73
     3
  0
TEXT
  8
10
  6
CONTINUOUS
 62
   134
  5
244
 10
940369.182
 20
7297029.778
 30
0.0
 40
13.999
  1
53
 50
358.1878
  7
ROMANS
 11
940369.624699
 21
7297043.769998
 31
0.0
210
0.0
220
0.0
230
1.0
 73
     3
  0
TEXT
  8
10
  6
CONTINUOUS
 62
   134
  5
245
 10
940343.783
 20
7297019.007
 30
0.0
 40
13.999
  1
54
 50
358.1878
  7
ROMANS
 11
940344.225699
 21
7297032.998998
 31
0.0
210
0.0
220
0.0
230
1.0
 73
     3
  0
TEXT
  8
10
  6
CONTINUOUS
 62
   134
  5
246
 10
940319.439
 20
7297011.097
 30
0.0
 40
13.999
  1
55
 50
358.1878
  7
ROMANS
 11
940319.881699
 21
7297025.088998
 31
0.0
210
0.0
220
0.0
230
1.0
 73
     3
  0
TEXT
  8
10
  6
CONTINUOUS
 62
   134
  5
247
 10
940466.74
 20
7296914.805
 30
0.0
 40
13.999
  1
56
 50
358.1878
  7
ROMANS
 11
940467.182699
 21
7296928.796998
 31
0.0
210
0.0
220
0.0
230
1.0
 73
     3
  0
TEXT
  8
10
  6
CONTINUOUS
 62
   134
  5
248
 10
940398.52
 20
7296890.921
 30
0.0
 40
13.999
  1
COMMON AREA
 50
358.1878
  7
ROMANS
 11
940398.962699
 21
7296904.912998
 31
0.0
210
0.0
220
0.0
230
1.0
 73
     3
  0
TEXT
  8
10
  6
CONTINUOUS
 62
   134
  5
249
 10
939091.134
 20
7295900.63
 30
0.0
 40
13.999
  1
C
 50
358.1878
  7
ROMANS
 11
939091.576699
 21
7295914.621998
 31
0.0
210
0.0
220
0.0
230
1.0
 73
     3
  0
POLYLINE
  8
7
  6
CONTINUOUS
 62
     7
  5
24A
 66
     1
 10
0.0
 20
0.0
 30
0.0
  0
VERTEX
  8
7
  6
CONTINUOUS
 62
     7
  5
24B
 10
940128.637
 20
7296957.742
 30
0.0
  0
VERTEX
  8
7
  6
CONTINUOUS
 62
     7
  5
24C
 10
940124.684
 20
7296832.804
 30
0.0
  0
VERTEX
  8
7
  6
CONTINUOUS
 62
     7
  5
24D
 10
940241.625
 20
7296829.105
 30
0.0
  0
VERTEX
  8
7
  6
CONTINUOUS
 62
     7
  5
24E
 10
940245.578
 20
7296954.042
 30
0.0
  0
SEQEND
  8
7
  6
CONTINUOUS
 62
     7
  5
24F
  0
LINE
  8
7
  6
CONTINUOUS
 62
     7
  5
250
 10
940126.265
 20
7296882.779
 30
0.0
 11
940243.207
 21
7296879.08
 31
0.0
  0
LINE
  8
7
  6
CONTINUOUS
 62
     7
  5
251
 10
940127.846
 20
7296932.754
 30
0.0
 11
940244.788
 21
7296929.055
 31
0.0
  0
POLYLINE
  8
7
  6
CONTINUOUS
 62
     7
  5
252
 66
     1
 10
0.0
 20
0.0
 30
0.0
  0
VERTEX
  8
7
  6
CONTINUOUS
 62
     7
  5
253
 10
940336.888
 20
7296741.048
 30
0.0
  0
VERTEX
  8
7
  6
CONTINUOUS
 62
     7
  5
254
 10
940286.913
 20
7296742.629
 30
0.0
  0
VERTEX
  8
7
  6
CONTINUOUS
 62
     7
  5
255
 10
940289.601
 20
7296827.587
 30
0.0
  0
VERTEX
  8
7
  6
CONTINUOUS
 62
     7
  5
256
 10
940269.611
 20
7296828.219
 30
0.0
  0
VERTEX
  8
7
  6
CONTINUOUS
 62
     7
  5
257
 10
940270.876
 20
7296868.199
 30
0.0
  0
VERTEX
  8
7
  6
CONTINUOUS
 62
     7
  5
258
 10
940340.841
 20
7296865.985
 30
0.0
  0
VERTEX
  8
7
  6
CONTINUOUS
 62
     7
  5
259
 10
940340.367
 20
7296850.993
 30
0.0
  0
SEQEND
  8
7
  6
CONTINUOUS
 62
     7
  5
25A
  0
POLYLINE
  8
7
  6
CONTINUOUS
 62
     7
  5
25B
 66
     1
 10
0.0
 20
0.0
 30
0.0
  0
VERTEX
  8
7
  6
CONTINUOUS
 62
     7
  5
25C
 10
940707.587
 20
7296871.44
 30
0.0
  0
VERTEX
  8
7
  6
CONTINUOUS
 62
     7
  5
25D
 10
940708.378
 20
7296896.428
 30
0.0
  0
VERTEX
  8
7
  6
CONTINUOUS
 62
     7
  5
25E
 10
940833.315
 20
7296892.475
 30
0.0
  0
VERTEX
  8
7
  6
CONTINUOUS
 62
     7
  5
25F
 10
940832.525
 20
7296867.487
 30
0.0
  0
SEQEND
  8
7
  6
CONTINUOUS
 62
     7
  5
260
  0
POLYLINE
  8
7
  6
CONTINUOUS
 62
     7
  5
261
 66
     1
 10
0.0
 20
0.0
 30
0.0
  0
VERTEX
  8
7
  6
CONTINUOUS
 62
     7
  5
262
 10
940787.844
 20
7296909.922
 30
0.0
  0
VERTEX
  8
7
  6
CONTINUOUS
 62
     7
  5
263
 10
940662.907
 20
7296913.874
 30
0.0
  0
VERTEX
  8
7
  6
CONTINUOUS
 62
     7
  5
264
 10
940664.488
 20
7296963.849
 30
0.0
  0
VERTEX
  8
7
  6
CONTINUOUS
 62
     7
  5
265
 10
940649.496
 20
7296964.324
 30
0.0
  0
VERTEX
  8
7
  6
CONTINUOUS
 62
     7
  5
266
 10
940651.077
 20
7297014.299
 30
0.0
  0
VERTEX
  8
7
  6
CONTINUOUS
 62
     7
  5
267
 10
940620.092
 20
7297015.279
 30
0.0
  0
VERTEX
  8
7
  6
CONTINUOUS
 62
     7
  5
268
 10
940621.673
 20
7297065.254
 30
0.0
  0
VERTEX
  8
7
  6
CONTINUOUS
 62
     7
  5
269
 10
940746.611
 20
7297061.301
 30
0.0
  0
VERTEX
  8
7
  6
CONTINUOUS
 62
     7
  5
26A
 10
940745.03
 20
7297011.326
 30
0.0
  0
VERTEX
  8
7
  6
CONTINUOUS
 62
     7
  5
26B
 10
940776.014
 20
7297010.346
 30
0.0
  0
VERTEX
  8
7
  6
CONTINUOUS
 62
     7
  5
26C
 10
940774.433
 20
7296960.371
 30
0.0
  0
VERTEX
  8
7
  6
CONTINUOUS
 62
     7
  5
26D
 10
940789.426
 20
7296959.897
 30
0.0
  0
VERTEX
  8
7
  6
CONTINUOUS
 62
     7
  5
26E
 10
940787.844
 20
7296909.922
 30
0.0
  0
SEQEND
  8
7
  6
CONTINUOUS
 62
     7
  5
26F
  0
LINE
  8
7
  6
CONTINUOUS
 62
     7
  5
270
 10
940664.488
 20
7296963.849
 30
0.0
 11
940774.433
 21
7296960.371
 31
0.0
  0
LINE
  8
7
  6
CONTINUOUS
 62
     7
  5
271
 10
940745.03
 20
7297011.326
 30
0.0
 11
940651.077
 21
7297014.299
 31
0.0
  0
LINE
  8
6
  6
CONTINUOUS
 62
     7
  5
272
 10
940823.727
 20
7295358.493
 30
0.0
 11
940799.507
 21
7294614.618
 31
0.0
  0
LINE
  8
6
  6
CONTINUOUS
 62
     7
  5
273
 10
942694.225
 20
7294550.486
 30
0.0
 11
937435.865
 21
7294728.47
 31
0.0
  0
TEXT
  8
10
  6
CONTINUOUS
 62
   134
  5
274
 10
940222.586
 20
7298720.083
 30
0.0
 40
13.999
  1
UNSUBDIVIDED
 50
358.1878
  7
ROMANS
 11
940223.028699
 21
7298734.074998
 31
0.0
210
0.0
220
0.0
230
1.0
 73
     3
  0
TEXT
  8
10
  6
CONTINUOUS
 62
   134
  5
275
 10
941718.986
 20
7294833.7
 30
0.0
 40
13.999
  1
UNSUBDIVIDED
 50
358.1878
  7
ROMANS
 11
941719.428699
 21
7294847.691998
 31
0.0
210
0.0
220
0.0
230
1.0
 73
     3
  0
TEXT
  8
10
  6
CONTINUOUS
 62
   134
  5
276
 10
941744.608
 20
7296950.05
 30
0.0
 40
13.999
  1
UNSUBDIVIDED
 50
358.1878
  7
ROMANS
 11
941745.050699
 21
7296964.041998
 31
0.0
210
0.0
220
0.0
230
1.0
 73
     3
  0
LINE
  8
14
  6
CONTINUOUS
 62
     7
  5
278
 10
940105.002
 20
7297222.622
 30
0.0
 11
940087.009
 21
7296653.956
 31
0.0
  0
LINE
  8
14
  6
CONTINUOUS
 62
     7
  5
279
 10
940087.009
 20
7296653.956
 30
0.0
 11
940865.21
 21
7296629.335
 31
0.0
  0
LINE
  8
7
  6
CONTINUOUS
 62
     7
  5
27A
 10
940442.157
 20
7297000.849
 30
0.0
 11
940467.144
 21
7297000.058
 31
0.0
  0
LINE
  8
7
  6
CONTINUOUS
 62
     7
  5
27B
 10
940467.144
 20
7297000.058
 30
0.0
 11
940471.097
 21
7297124.996
 31
0.0
  0
LINE
  8
7
  6
CONTINUOUS
 62
     7
  5
27C
 10
940471.097
 20
7297124.996
 30
0.0
 11
940446.11
 21
7297125.786
 31
0.0
  0
LINE
  8
7
  6
CONTINUOUS
 62
     7
  5
27D
 10
940446.11
 20
7297125.786
 30
0.0
 11
940442.157
 21
7297000.849
 31
0.0
  0
LINE
  8
7
  6
CONTINUOUS
 62
     7
  5
27E
 10
940495.13
 20
7296999.173
 30
0.0
 11
940520.118
 21
7296998.382
 31
0.0
  0
LINE
  8
7
  6
CONTINUOUS
 62
     7
  5
27F
 10
940520.118
 20
7296998.382
 30
0.0
 11
940524.071
 21
7297123.32
 31
0.0
  0
LINE
  8
7
  6
CONTINUOUS
 62
     7
  5
280
 10
940524.071
 20
7297123.32
 30
0.0
 11
940499.083
 21
7297124.11
 31
0.0
  0
LINE
  8
7
  6
CONTINUOUS
 62
     7
  5
281
 10
940499.083
 20
7297124.11
 30
0.0
 11
940495.13
 21
7296999.173
 31
0.0
  0
LINE
  8
7
  6
CONTINUOUS
 62
     7
  5
282
 10
940464.988
 20
7296837.045
 30
0.0
 11
940489.976
 21
7296836.254
 31
0.0
  0
LINE
  8
7
  6
CONTINUOUS
 62
     7
  5
283
 10
940489.976
 20
7296836.254
 30
0.0
 11
940486.023
 21
7296711.317
 31
0.0
  0
LINE
  8
7
  6
CONTINUOUS
 62
     7
  5
284
 10
940486.023
 20
7296711.317
 30
0.0
 11
940461.035
 21
7296712.107
 31
0.0
  0
LINE
  8
7
  6
CONTINUOUS
 62
     7
  5
285
 10
940461.035
 20
7296712.107
 30
0.0
 11
940464.988
 21
7296837.045
 31
0.0
  0
LINE
  8
7
  6
CONTINUOUS
 62
     7
  5
286
 10
940515.135
 20
7296714.398
 30
0.0
 11
940540.122
 21
7296713.607
 31
0.0
  0
LINE
  8
7
  6
CONTINUOUS
 62
     7
  5
287
 10
940540.122
 20
7296713.607
 30
0.0
 11
940544.075
 21
7296838.545
 31
0.0
  0
LINE
  8
7
  6
CONTINUOUS
 62
     7
  5
288
 10
940544.075
 20
7296838.545
 30
0.0
 11
940519.088
 21
7296839.335
 31
0.0
  0
LINE
  8
7
  6
CONTINUOUS
 62
     7
  5
289
 10
940519.088
 20
7296839.335
 30
0.0
 11
940515.135
 21
7296714.398
 31
0.0
  0
TEXT
  8
15
  6
CONTINUOUS
 62
    30
  5
28C
 10
938461.393
 20
7295976.373
 30
0.0
 40
50.0
  1
CREST HILL 
 50
28.1878
  7
ROMANC
 72
     4
 11
938692.822355
 21
7296128.764728
 31
0.0
210
0.0
220
0.0
230
1.0
  0
TEXT
  8
15
  6
CONTINUOUS
 62
    30
  5
28D
 10
938683.254
 20
7295247.362
 30
0.0
 40
50.0
  1
COUNTRY CLUB
 50
28.1878
  7
ROMANC
 72
     4
 11
938967.078419
 21
7295427.833353
 31
0.0
210
0.0
220
0.0
230
1.0
  0
TEXT
  8
15
  6
CONTINUOUS
 62
    30
  5
28E
 10
940272.511
 20
7296861.038
 30
0.0
 40
34.999
  1
LA COLONIA
 50
28.1878
  7
ROMANC
 72
     4
 11
940424.549126
 21
7296962.373137
 31
0.0
210
0.0
220
0.0
230
1.0
  0
TEXT
  8
11
  6
CONTINUOUS
 62
     7
  5
290
 10
942878.18
 20
7299267.02
 30
0.0
 40
8.0
  1
50'
 50
358.1878
  7
ROMANS
210
0.0
220
0.0
230
1.0
  0
TEXT
  8
11
  6
CONTINUOUS
 62
     7
  5
291
 10
942876.908
 20
7299181.919
 30
0.0
 40
8.0
  1
40'
 50
358.1878
  7
ROMANS
210
0.0
220
0.0
230
1.0
  0
TEXT
  8
11
  6
CONTINUOUS
 62
     7
  5
292
 10
942725.562
 20
7294567.96
 30
0.0
 40
8.0
  1
50'
 50
358.1878
  7
ROMANS
210
0.0
220
0.0
230
1.0
  0
TEXT
  8
11
  6
CONTINUOUS
 62
     7
  5
293
 10
942743.191
 20
7295329.352
 30
0.0
 40
8.0
  1
60'
 50
358.1878
  7
ROMANS
210
0.0
220
0.0
230
1.0
  0
TEXT
  8
11
  6
CONTINUOUS
 62
     7
  5
294
 10
942751.5
 20
7295622.84
 30
0.0
 40
8.0
  1
60'
 50
358.1878
  7
ROMANS
210
0.0
220
0.0
230
1.0
  0
TEXT
  8
11
  6
CONTINUOUS
 62
     7
  5
295
 10
942769.802
 20
7296101.749
 30
0.0
 40
8.0
  1
60'
 50
358.1878
  7
ROMANS
210
0.0
220
0.0
230
1.0
  0
TEXT
  8
11
  6
CONTINUOUS
 62
     7
  5
296
 10
942288.355
 20
7299789.075
 30
0.0
 40
8.0
  1
1126.75'
 50
358.1878
  7
ROMANS
210
0.0
220
0.0
230
1.0
  0
TEXT
  8
11
  6
CONTINUOUS
 62
     7
  5
297
 10
942856.118
 20
7299797.543
 30
0.0
 40
8.0
  1
50'
 50
88.1878
  7
ROMANS
210
0.0
220
0.0
230
1.0
  0
TEXT
  8
11
  6
CONTINUOUS
 62
     7
  5
298
 10
941784.951
 20
7299831.434
 30
0.0
 40
8.0
  1
50'
 50
88.1878
  7
ROMANS
210
0.0
220
0.0
230
1.0
  0
TEXT
  8
11
  6
CONTINUOUS
 62
     7
  5
299
 10
941680.709
 20
7299834.732
 30
0.0
 40
8.0
  1
50'
 50
88.1878
  7
ROMANS
210
0.0
220
0.0
230
1.0
  0
TEXT
  8
11
  6
CONTINUOUS
 62
     7
  5
29A
 10
941730.458
 20
7299840.244
 30
0.0
 40
8.0
  1
35'
 50
88.1878
  7
ROMANS
210
0.0
220
0.0
230
1.0
  0
TEXT
  8
11
  6
CONTINUOUS
 62
     7
  5
29B
 10
941717.606
 20
7299821.307
 30
0.0
 40
8.0
  1
50'
 50
358.1878
  7
ROMANS
210
0.0
220
0.0
230
1.0
  0
TEXT
  8
11
  6
CONTINUOUS
 62
     7
  5
29C
 10
940644.746
 20
7299868.92
 30
0.0
 40
8.0
  1
50'
 50
88.1878
  7
ROMANS
210
0.0
220
0.0
230
1.0
  0
TEXT
  8
11
  6
CONTINUOUS
 62
     7
  5
29D
 10
939531.711
 20
7299902.726
 30
0.0
 40
8.0
  1
50'
 50
88.1878
  7
ROMANS
210
0.0
220
0.0
230
1.0
  0
TEXT
  8
11
  6
CONTINUOUS
 62
     7
  5
29E
 10
937741.992
 20
7299957.98
 30
0.0
 40
8.0
  1
50'
 50
88.1878
  7
ROMANS
210
0.0
220
0.0
230
1.0
  0
TEXT
  8
11
  6
CONTINUOUS
 62
     7
  5
29F
 10
940117.459
 20
7297212.326
 30
0.0
 40
8.0
  1
10'
 50
88.1878
  7
ROMANS
210
0.0
220
0.0
230
1.0
  0
TEXT
  8
11
  6
CONTINUOUS
 62
     7
  5
2A0
 10
940853.222
 20
7297174.642
 30
0.0
 40
8.0
  1
30'
 50
88.1878
  7
ROMANS
210
0.0
220
0.0
230
1.0
  0
TEXT
  8
11
  6
CONTINUOUS
 62
     7
  5
2A1
 10
940310.645
 20
7297191.809
 30
0.0
 40
8.0
  1
30'
 50
88.1878
  7
ROMANS
210
0.0
220
0.0
230
1.0
  0
TEXT
  8
11
  6
CONTINUOUS
 62
     7
  5
2A2
 10
940248.37
 20
7297134.244
 30
0.0
 40
8.0
  1
25'
 50
88.1878
  7
ROMANS
210
0.0
220
0.0
230
1.0
  0
TEXT
  8
11
  6
CONTINUOUS
 62
     7
  5
2A3
 10
940247.581
 20
7297109.302
 30
0.0
 40
8.0
  1
25'
 50
88.1878
  7
ROMANS
210
0.0
220
0.0
230
1.0
  0
TEXT
  8
11
  6
CONTINUOUS
 62
     7
  5
2A4
 10
940246.762
 20
7297083.401
 30
0.0
 40
8.0
  1
25'
 50
88.1878
  7
ROMANS
210
0.0
220
0.0
230
1.0
  0
TEXT
  8
11
  6
CONTINUOUS
 62
     7
  5
2A5
 10
940245.942
 20
7297057.5
 30
0.0
 40
8.0
  1
25'
 50
88.1878
  7
ROMANS
210
0.0
220
0.0
230
1.0
  0
TEXT
  8
11
  6
CONTINUOUS
 62
     7
  5
2A6
 10
940245.153
 20
7297032.559
 30
0.0
 40
8.0
  1
25'
 50
88.1878
  7
ROMANS
210
0.0
220
0.0
230
1.0
  0
TEXT
  8
11
  6
CONTINUOUS
 62
     7
  5
2A7
 10
940244.425
 20
7297009.535
 30
0.0
 40
8.0
  1
25'
 50
88.1878
  7
ROMANS
210
0.0
220
0.0
230
1.0
  0
TEXT
  8
11
  6
CONTINUOUS
 62
     7
  5
2A8
 10
940249.356
 20
7296983.452
 30
0.0
 40
8.0
  1
25'
 50
88.1878
  7
ROMANS
210
0.0
220
0.0
230
1.0
  0
TEXT
  8
11
  6
CONTINUOUS
 62
     7
  5
2A9
 10
940252.433
 20
7296959.349
 30
0.0
 40
8.0
  1
25'
 50
88.1878
  7
ROMANS
210
0.0
220
0.0
230
1.0
  0
TEXT
  8
11
  6
CONTINUOUS
 62
     7
  5
2AA
 10
940221.85
 20
7296750.981
 30
0.0
 40
8.0
  1
25'
 50
88.1878
  7
ROMANS
210
0.0
220
0.0
230
1.0
  0
TEXT
  8
11
  6
CONTINUOUS
 62
     7
  5
2AB
 10
940221.989
 20
7296725.049
 30
0.0
 40
8.0
  1
25'
 50
88.1878
  7
ROMANS
210
0.0
220
0.0
230
1.0
  0
TEXT
  8
11
  6
CONTINUOUS
 62
     7
  5
2AC
 10
940233.631
 20
7296698.754
 30
0.0
 40
8.0
  1
25'
 50
88.1878
  7
ROMANS
210
0.0
220
0.0
230
1.0
  0
TEXT
  8
11
  6
CONTINUOUS
 62
     7
  5
2AD
 10
940231.884
 20
7296673.843
 30
0.0
 40
8.0
  1
25'
 50
88.1878
  7
ROMANS
210
0.0
220
0.0
230
1.0
  0
TEXT
  8
11
  6
CONTINUOUS
 62
     7
  5
2AE
 10
940714.476
 20
7296701.786
 30
0.0
 40
8.0
  1
25'
 50
88.1878
  7
ROMANS
210
0.0
220
0.0
230
1.0
  0
TEXT
  8
11
  6
CONTINUOUS
 62
     7
  5
2AF
 10
940715.234
 20
7296725.768
 30
0.0
 40
8.0
  1
25'
 50
88.1878
  7
ROMANS
210
0.0
220
0.0
230
1.0
  0
TEXT
  8
11
  6
CONTINUOUS
 62
     7
  5
2B0
 10
940715.963
 20
7296748.791
 30
0.0
 40
8.0
  1
25'
 50
88.1878
  7
ROMANS
210
0.0
220
0.0
230
1.0
  0
TEXT
  8
11
  6
CONTINUOUS
 62
     7
  5
2B1
 10
940716.813
 20
7296775.651
 30
0.0
 40
8.0
  1
25'
 50
88.1878
  7
ROMANS
210
0.0
220
0.0
230
1.0
  0
TEXT
  8
11
  6
CONTINUOUS
 62
     7
  5
2B2
 10
940717.572
 20
7296799.634
 30
0.0
 40
8.0
  1
25'
 50
88.1878
  7
ROMANS
210
0.0
220
0.0
230
1.0
  0
TEXT
  8
11
  6
CONTINUOUS
 62
     7
  5
2B3
 10
940718.361
 20
7296824.575
 30
0.0
 40
8.0
  1
25'
 50
88.1878
  7
ROMANS
210
0.0
220
0.0
230
1.0
  0
TEXT
  8
11
  6
CONTINUOUS
 62
     7
  5
2B4
 10
940719.948
 20
7296874.748
 30
0.0
 40
8.0
  1
25'
 50
88.1878
  7
ROMANS
210
0.0
220
0.0
230
1.0
  0
TEXT
  8
11
  6
CONTINUOUS
 62
     7
  5
2B5
 10
940697.95
 20
7297089.291
 30
0.0
 40
8.0
  1
25'
 50
88.1878
  7
ROMANS
210
0.0
220
0.0
230
1.0
  0
TEXT
  8
11
  6
CONTINUOUS
 62
     7
  5
2B6
 10
940698.678
 20
7297112.315
 30
0.0
 40
8.0
  1
25'
 50
88.1878
  7
ROMANS
210
0.0
220
0.0
230
1.0
  0
TEXT
  8
11
  6
CONTINUOUS
 62
     7
  5
2B7
 10
940699.558
 20
7297140.135
 30
0.0
 40
8.0
  1
25'
 50
88.1878
  7
ROMANS
210
0.0
220
0.0
230
1.0
  0
TEXT
  8
11
  6
CONTINUOUS
 62
     7
  5
2B8
 10
940322.81
 20
7297071.071
 30
0.0
 40
8.0
  1
25'
 50
358.1878
  7
ROMANS
210
0.0
220
0.0
230
1.0
  0
TEXT
  8
11
  6
CONTINUOUS
 62
     7
  5
2B9
 10
940347.262
 20
7297085.661
 30
0.0
 40
8.0
  1
25'
 50
358.1878
  7
ROMANS
210
0.0
220
0.0
230
1.0
  0
TEXT
  8
11
  6
CONTINUOUS
 62
     7
  5
2BA
 10
940373.508
 20
7297096.354
 30
0.0
 40
8.0
  1
25'
 50
358.1878
  7
ROMANS
210
0.0
220
0.0
230
1.0
  0
TEXT
  8
11
  6
CONTINUOUS
 62
     7
  5
2BB
 10
940399.694
 20
7297105.128
 30
0.0
 40
8.0
  1
25'
 50
358.1878
  7
ROMANS
210
0.0
220
0.0
230
1.0
  0
TEXT
  8
11
  6
CONTINUOUS
 62
     7
  5
2BC
 10
940425.729
 20
7297109.106
 30
0.0
 40
8.0
  1
25'
 50
358.1878
  7
ROMANS
210
0.0
220
0.0
230
1.0
  0
TEXT
  8
11
  6
CONTINUOUS
 62
     7
  5
2BD
 10
940449.907
 20
7297115.062
 30
0.0
 40
8.0
  1
25'
 50
358.1878
  7
ROMANS
210
0.0
220
0.0
230
1.0
  0
TEXT
  8
11
  6
CONTINUOUS
 62
     7
  5
2BE
 10
940502.63
 20
7297113.394
 30
0.0
 40
8.0
  1
25'
 50
358.1878
  7
ROMANS
210
0.0
220
0.0
230
1.0
  0
TEXT
  8
11
  6
CONTINUOUS
 62
     7
  5
2BF
 10
940527.555
 20
7297112.605
 30
0.0
 40
8.0
  1
25'
 50
358.1878
  7
ROMANS
210
0.0
220
0.0
230
1.0
  0
TEXT
  8
11
  6
CONTINUOUS
 62
     7
  5
2C0
 10
940551.55
 20
7297112.806
 30
0.0
 40
8.0
  1
25'
 50
358.1878
  7
ROMANS
210
0.0
220
0.0
230
1.0
  0
TEXT
  8
11
  6
CONTINUOUS
 62
     7
  5
2C1
 10
940577.281
 20
7297107.191
 30
0.0
 40
8.0
  1
25'
 50
358.1878
  7
ROMANS
210
0.0
220
0.0
230
1.0
  0
TEXT
  8
11
  6
CONTINUOUS
 62
     7
  5
2C2
 10
940623.983
 20
7296884.855
 30
0.0
 40
8.0
  1
25'
 50
358.1878
  7
ROMANS
210
0.0
220
0.0
230
1.0
  0
TEXT
  8
11
  6
CONTINUOUS
 62
     7
  5
2C3
 10
940598.331
 20
7296862.62
 30
0.0
 40
8.0
  1
25'
 50
358.1878
  7
ROMANS
210
0.0
220
0.0
230
1.0
  0
TEXT
  8
11
  6
CONTINUOUS
 62
     7
  5
2C4
 10
940572.89
 20
7296847.101
 30
0.0
 40
8.0
  1
25'
 50
358.1878
  7
ROMANS
210
0.0
220
0.0
230
1.0
  0
TEXT
  8
11
  6
CONTINUOUS
 62
     7
  5
2C5
 10
940546.614
 20
7296835.449
 30
0.0
 40
8.0
  1
25'
 50
358.1878
  7
ROMANS
210
0.0
220
0.0
230
1.0
  0
TEXT
  8
11
  6
CONTINUOUS
 62
     7
  5
2C6
 10
940522.405
 20
7296828.533
 30
0.0
 40
8.0
  1
25'
 50
358.1878
  7
ROMANS
210
0.0
220
0.0
230
1.0
  0
TEXT
  8
11
  6
CONTINUOUS
 62
     7
  5
2C7
 10
940468.601
 20
7296826.394
 30
0.0
 40
8.0
  1
25'
 50
358.1878
  7
ROMANS
210
0.0
220
0.0
230
1.0
  0
TEXT
  8
11
  6
CONTINUOUS
 62
     7
  5
2C8
 10
940443.677
 20
7296827.183
 30
0.0
 40
8.0
  1
25'
 50
358.1878
  7
ROMANS
210
0.0
220
0.0
230
1.0
  0
TEXT
  8
11
  6
CONTINUOUS
 62
     7
  5
2C9
 10
940418.753
 20
7296827.972
 30
0.0
 40
8.0
  1
25'
 50
358.1878
  7
ROMANS
210
0.0
220
0.0
230
1.0
  0
TEXT
  8
11
  6
CONTINUOUS
 62
     7
  5
2CA
 10
940392.87
 20
7296828.79
 30
0.0
 40
8.0
  1
25'
 50
358.1878
  7
ROMANS
210
0.0
220
0.0
230
1.0
  0
TEXT
  8
11
  6
CONTINUOUS
 62
     7
  5
2CB
 10
940369.027
 20
7296833.386
 30
0.0
 40
8.0
  1
25'
 50
358.1878
  7
ROMANS
210
0.0
220
0.0
230
1.0
  0
TEXT
  8
11
  6
CONTINUOUS
 62
     7
  5
2CC
 10
940344.284
 20
7296839.93
 30
0.0
 40
8.0
  1
25'
 50
358.1878
  7
ROMANS
210
0.0
220
0.0
230
1.0
  0
TEXT
  8
11
  6
CONTINUOUS
 62
     7
  5
2CD
 10
940139.026
 20
7297145.877
 30
0.0
 40
8.0
  1
117'
 50
358.1878
  7
ROMANS
210
0.0
220
0.0
230
1.0
  0
TEXT
  8
11
  6
CONTINUOUS
 62
     7
  5
2CE
 10
940135.006
 20
7297018.799
 30
0.0
 40
8.0
  1
117'
 50
358.1878
  7
ROMANS
210
0.0
220
0.0
230
1.0
  0
TEXT
  8
11
  6
CONTINUOUS
 62
     7
  5
2CF
 10
940130.98
 20
7296996.478
 30
0.0
 40
8.0
  1
122'
 50
358.1878
  7
ROMANS
210
0.0
220
0.0
230
1.0
  0
TEXT
  8
11
  6
CONTINUOUS
 62
     7
  5
2D0
 10
940131.261
 20
7296970.395
 30
0.0
 40
8.0
  1
125'
 50
358.1878
  7
ROMANS
210
0.0
220
0.0
230
1.0
  0
TEXT
  8
11
  6
CONTINUOUS
 62
     7
  5
2D1
 10
940104.544
 20
7296762.865
 30
0.0
 40
8.0
  1
125'
 50
358.1878
  7
ROMANS
210
0.0
220
0.0
230
1.0
  0
TEXT
  8
11
  6
CONTINUOUS
 62
     7
  5
2D2
 10
940104.043
 20
7296737.758
 30
0.0
 40
8.0
  1
125'
 50
358.1878
  7
ROMANS
210
0.0
220
0.0
230
1.0
  0
TEXT
  8
11
  6
CONTINUOUS
 62
     7
  5
2D3
 10
940102.128
 20
7296712.195
 30
0.0
 40
8.0
  1
137'
 50
358.1878
  7
ROMANS
210
0.0
220
0.0
230
1.0
  0
TEXT
  8
11
  6
CONTINUOUS
 62
     7
  5
2D4
 10
940102.398
 20
7296685.81
 30
0.0
 40
8.0
  1
137'
 50
358.1878
  7
ROMANS
210
0.0
220
0.0
230
1.0
  0
TEXT
  8
11
  6
CONTINUOUS
 62
     7
  5
2D5
 10
940787.862
 20
7296696.261
 30
0.0
 40
8.0
  1
125'
 50
358.1878
  7
ROMANS
210
0.0
220
0.0
230
1.0
  0
TEXT
  8
11
  6
CONTINUOUS
 62
     7
  5
2D6
 10
940792.8
 20
7296882.684
 30
0.0
 40
8.0
  1
125'
 50
358.1878
  7
ROMANS
210
0.0
220
0.0
230
1.0
  0
TEXT
  8
11
  6
CONTINUOUS
 62
     7
  5
2D7
 10
940777.086
 20
7297083.585
 30
0.0
 40
8.0
  1
125'
 50
358.1878
  7
ROMANS
210
0.0
220
0.0
230
1.0
  0
TEXT
  8
11
  6
CONTINUOUS
 62
     7
  5
2D8
 10
940780.049
 20
7297146.868
 30
0.0
 40
8.0
  1
125'
 50
358.1878
  7
ROMANS
210
0.0
220
0.0
230
1.0
  0
TEXT
  8
11
  6
CONTINUOUS
 62
     7
  5
2D9
 10
940326.306
 20
7296958.933
 30
0.0
 40
8.0
  1
125'
 50
88.1878
  7
ROMANS
210
0.0
220
0.0
230
1.0
  0
TEXT
  8
11
  6
CONTINUOUS
 62
     7
  5
2DA
 10
940351.808
 20
7296976.37
 30
0.0
 40
8.0
  1
125'
 50
88.1878
  7
ROMANS
210
0.0
220
0.0
230
1.0
  0
TEXT
  8
11
  6
CONTINUOUS
 62
     7
  5
2DB
 10
940378.998
 20
7296986.592
 30
0.0
 40
8.0
  1
125'
 50
88.1878
  7
ROMANS
210
0.0
220
0.0
230
1.0
  0
TEXT
  8
11
  6
CONTINUOUS
 62
     7
  5
2DC
 10
940404.373
 20
7296995.392
 30
0.0
 40
8.0
  1
125'
 50
88.1878
  7
ROMANS
210
0.0
220
0.0
230
1.0
  0
TEXT
  8
11
  6
CONTINUOUS
 62
     7
  5
2DD
 10
940428.217
 20
7297000.105
 30
0.0
 40
8.0
  1
125'
 50
88.1878
  7
ROMANS
210
0.0
220
0.0
230
1.0
  0
TEXT
  8
11
  6
CONTINUOUS
 62
     7
  5
2DE
 10
940453.501
 20
7297006.027
 30
0.0
 40
8.0
  1
125'
 50
88.1878
  7
ROMANS
210
0.0
220
0.0
230
1.0
  0
TEXT
  8
11
  6
CONTINUOUS
 62
     7
  5
2DF
 10
940519.534
 20
7297075.241
 30
0.0
 40
8.0
  1
125'
 50
88.1878
  7
ROMANS
210
0.0
220
0.0
230
1.0
  0
TEXT
  8
11
  6
CONTINUOUS
 62
     7
  5
2E0
 10
940543.358
 20
7297074.633
 30
0.0
 40
8.0
  1
125'
 50
88.1878
  7
ROMANS
210
0.0
220
0.0
230
1.0
  0
TEXT
  8
11
  6
CONTINUOUS
 62
     7
  5
2E1
 10
940568.251
 20
7297072.885
 30
0.0
 40
8.0
  1
125'
 50
88.1878
  7
ROMANS
210
0.0
220
0.0
230
1.0
  0
TEXT
  8
11
  6
CONTINUOUS
 62
     7
  5
2E2
 10
940593.954
 20
7297066.39
 30
0.0
 40
8.0
  1
125'
 50
88.1878
  7
ROMANS
210
0.0
220
0.0
230
1.0
  0
TEXT
  8
11
  6
CONTINUOUS
 62
     7
  5
2E3
 10
940346.046
 20
7296733.608
 30
0.0
 40
8.0
  1
125'
 50
88.1878
  7
ROMANS
210
0.0
220
0.0
230
1.0
  0
TEXT
  8
11
  6
CONTINUOUS
 62
     7
  5
2E4
 10
940371.655
 20
7296724.155
 30
0.0
 40
8.0
  1
125'
 50
88.1878
  7
ROMANS
210
0.0
220
0.0
230
1.0
  0
TEXT
  8
11
  6
CONTINUOUS
 62
     7
  5
2E5
 10
940397.295
 20
7296715.662
 30
0.0
 40
8.0
  1
125'
 50
88.1878
  7
ROMANS
210
0.0
220
0.0
230
1.0
  0
TEXT
  8
11
  6
CONTINUOUS
 62
     7
  5
2E6
 10
940483.54
 20
7296711.973
 30
0.0
 40
8.0
  1
125'
 50
88.1878
  7
ROMANS
210
0.0
220
0.0
230
1.0
  0
TEXT
  8
11
  6
CONTINUOUS
 62
     7
  5
2E7
 10
940525.932
 20
7296717.353
 30
0.0
 40
8.0
  1
125'
 50
88.1878
  7
ROMANS
210
0.0
220
0.0
230
1.0
  0
TEXT
  8
11
  6
CONTINUOUS
 62
     7
  5
2E8
 10
940551.311
 20
7296730.954
 30
0.0
 40
8.0
  1
125'
 50
88.1878
  7
ROMANS
210
0.0
220
0.0
230
1.0
  0
TEXT
  8
11
  6
CONTINUOUS
 62
     7
  5
2E9
 10
940576.69
 20
7296744.555
 30
0.0
 40
8.0
  1
125'
 50
88.1878
  7
ROMANS
210
0.0
220
0.0
230
1.0
  0
TEXT
  8
11
  6
CONTINUOUS
 62
     7
  5
2EA
 10
940602.191
 20
7296761.994
 30
0.0
 40
8.0
  1
125'
 50
88.1878
  7
ROMANS
210
0.0
220
0.0
230
1.0
  0
TEXT
  8
11
  6
CONTINUOUS
 62
     7
  5
2EB
 10
940627.661
 20
7296778.471
 30
0.0
 40
8.0
  1
125'
 50
88.1878
  7
ROMANS
210
0.0
220
0.0
230
1.0
  0
TEXT
  8
11
  6
CONTINUOUS
 62
     7
  5
2EC
 10
940423.465
 20
7296679.441
 30
0.0
 40
8.0
  1
66'
 50
88.1878
  7
ROMANS
210
0.0
220
0.0
230
1.0
  0
TEXT
  8
11
  6
CONTINUOUS
 62
     7
  5
2ED
 10
940115.194
 20
7296655.449
 30
0.0
 40
8.0
  1
20'
 50
88.1878
  7
ROMANS
210
0.0
220
0.0
230
1.0
  0
TEXT
  8
11
  6
CONTINUOUS
 62
     7
  5
2EE
 10
940227.351
 20
7296651.9
 30
0.0
 40
8.0
  1
20'
 50
88.1878
  7
ROMANS
210
0.0
220
0.0
230
1.0
  0
TEXT
  8
11
  6
CONTINUOUS
 62
     7
  5
2EF
 10
940097.678
 20
7296678.089
 30
0.0
 40
8.0
  1
10'
 50
88.1878
  7
ROMANS
210
0.0
220
0.0
230
1.0
  0
TEXT
  8
11
  6
CONTINUOUS
 62
     7
  5
2F0
 10
940099.026
 20
7296751.026
 30
0.0
 40
8.0
  1
10'
 50
88.1878
  7
ROMANS
210
0.0
220
0.0
230
1.0
  0
TEXT
  8
11
  6
CONTINUOUS
 62
     7
  5
2F1
 10
940339.899
 20
7296908.187
 30
0.0
 40
8.0
  1
90'
 50
88.1878
  7
ROMANS
210
0.0
220
0.0
230
1.0
  0
TEXT
  8
11
  6
CONTINUOUS
 62
     7
  5
2F2
 10
940711.509
 20
7297062.935
 30
0.0
 40
8.0
  1
20'
 50
88.1878
  7
ROMANS
210
0.0
220
0.0
230
1.0
  0
TEXT
  8
11
  6
CONTINUOUS
 62
     7
  5
2F3
 10
940703.999
 20
7297159.199
 30
0.0
 40
8.0
  1
14'
 50
88.1878
  7
ROMANS
210
0.0
220
0.0
230
1.0
  0
TEXT
  8
11
  6
CONTINUOUS
 62
     7
  5
2F4
 10
940796.026
 20
7297156.287
 30
0.0
 40
8.0
  1
14'
 50
88.1878
  7
ROMANS
210
0.0
220
0.0
230
1.0
  0
TEXT
  8
11
  6
CONTINUOUS
 62
     7
  5
2F5
 10
940533.255
 20
7297136.573
 30
0.0
 40
8.0
  1
60'
 50
88.1878
  7
ROMANS
210
0.0
220
0.0
230
1.0
  0
TEXT
  8
11
  6
CONTINUOUS
 62
     7
  5
2F6
 10
940774.871
 20
7296640.201
 30
0.0
 40
8.0
  1
62'
 50
88.1878
  7
ROMANS
210
0.0
220
0.0
230
1.0
  0
TEXT
  8
11
  6
CONTINUOUS
 62
     7
  5
2F7
 10
940664.741
 20
7296777.937
 30
0.0
 40
8.0
  1
55'
 50
358.1878
  7
ROMANS
210
0.0
220
0.0
230
1.0
  0
TEXT
  8
11
  6
CONTINUOUS
 62
     7
  5
2F8
 10
940669.177
 20
7296857.498
 30
0.0
 40
8.0
  1
55'
 50
358.1878
  7
ROMANS
210
0.0
220
0.0
230
1.0
  0
TEXT
  8
11
  6
CONTINUOUS
 62
     7
  5
2F9
 10
940496.844
 20
7296774.195
 30
0.0
 40
8.0
  1
29'
 50
358.1878
  7
ROMANS
210
0.0
220
0.0
230
1.0
  0
TEXT
  8
11
  6
CONTINUOUS
 62
     7
  5
2FA
 10
940473.813
 20
7297061.081
 30
0.0
 40
8.0
  1
28'
 50
358.1878
  7
ROMANS
210
0.0
220
0.0
230
1.0
  0
TEXT
  8
11
  6
CONTINUOUS
 62
     7
  5
2FB
 10
940599.656
 20
7297025.822
 30
0.0
 40
8.0
  1
23'
 50
358.1878
  7
ROMANS
210
0.0
220
0.0
230
1.0
  0
TEXT
  8
11
  6
CONTINUOUS
 62
     7
  5
2FC
 10
940830.805
 20
7296688.778
 30
0.0
 40
8.0
  1
40.2'
 50
358.1878
  7
ROMANS
210
0.0
220
0.0
230
1.0
  0
TEXT
  8
11
  6
CONTINUOUS
 62
     7
  5
2FD
 10
940835.044
 20
7296857.707
 30
0.0
 40
8.0
  1
40.2'
 50
358.1878
  7
ROMANS
210
0.0
220
0.0
230
1.0
  0
TEXT
  8
11
  6
CONTINUOUS
 62
     7
  5
2FE
 10
940827.51
 20
7297104.821
 30
0.0
 40
8.0
  1
68.2'
 50
358.1878
  7
ROMANS
210
0.0
220
0.0
230
1.0
  0
TEXT
  8
11
  6
CONTINUOUS
 62
     7
  5
2FF
 10
940116.651
 20
7297138.904
 30
0.0
 40
8.0
  1
32'
 50
358.1878
  7
ROMANS
210
0.0
220
0.0
230
1.0
  0
TEXT
  8
11
  6
CONTINUOUS
 62
     7
  5
300
 10
940278.016
 20
7297050.402
 30
0.0
 40
8.0
  1
70'
 50
358.1878
  7
ROMANS
210
0.0
220
0.0
230
1.0
  0
TEXT
  8
11
  6
CONTINUOUS
 62
     7
  5
301
 10
940277.201
 20
7296964.005
 30
0.0
 40
8.0
  1
62'
 50
358.1878
  7
ROMANS
210
0.0
220
0.0
230
1.0
  0
TEXT
  8
11
  6
CONTINUOUS
 62
     7
  5
302
 10
940453.812
 20
7296631.93
 30
0.0
 40
8.0
  1
777.2'
 50
358.1878
  7
ROMANS
210
0.0
220
0.0
230
1.0
  0
TEXT
  8
11
  6
CONTINUOUS
 62
     7
  5
303
 10
940540.285
 20
7297181.341
 30
0.0
 40
8.0
  1
509.18'
 50
358.1878
  7
ROMANS
210
0.0
220
0.0
230
1.0
  0
TEXT
  8
11
  6
CONTINUOUS
 62
     7
  5
304
 10
940218.125
 20
7297183.464
 30
0.0
 40
8.0
  1
9
 50
350.740003
  7
ROMANS
 72
     1
 11
940221.714915
 21
7297190.984332
 31
0.0
210
0.0
220
0.0
230
1.0
 73
     3
  0
TEXT
  8
11
  6
CONTINUOUS
 62
     7
  5
305
 10
940226.021
 20
7297182.177
 30
0.0
 40
8.0
  1
9
 50
350.740003
  7
ROMANS
 72
     1
 11
940229.610915
 21
7297189.697332
 31
0.0
210
0.0
220
0.0
230
1.0
 73
     3
  0
TEXT
  8
11
  6
CONTINUOUS
 62
     7
  5
306
 10
940234.911
 20
7297180.727
 30
0.0
 40
8.0
  1
.
 50
350.740003
  7
ROMANS
 72
     1
 11
940237.50309
 21
7297188.410017
 31
0.0
210
0.0
220
0.0
230
1.0
 73
     3
  0
TEXT
  8
11
  6
CONTINUOUS
 62
     7
  5
307
 10
940242.243
 20
7297179.726
 30
0.0
 40
8.0
  1
8
 50
352.867944
  7
ROMANS
 72
     1
 11
940245.551202
 21
7297187.374444
 31
0.0
210
0.0
220
0.0
230
1.0
 73
     3
  0
TEXT
  8
11
  6
CONTINUOUS
 62
     7
  5
308
 10
940250.18
 20
7297178.733
 30
0.0
 40
8.0
  1
4
 50
352.867944
  7
ROMANS
 72
     1
 11
940253.488202
 21
7297186.381444
 31
0.0
210
0.0
220
0.0
230
1.0
 73
     3
  0
TEXT
  8
11
  6
CONTINUOUS
 62
     7
  5
309
 10
940259.545
 20
7297177.745
 30
0.0
 40
8.0
  1
'
 50
354.995886
  7
ROMANS
 72
     1
 11
940261.570737
 21
7297185.598234
 31
0.0
210
0.0
220
0.0
230
1.0
 73
     3
  0
TEXT
  8
11
  6
CONTINUOUS
 62
     7
  5
30A
 10
940134.915
 20
7297199.483
 30
0.0
 40
8.0
  1
8
 50
353.857408
  7
ROMANS
 72
     1
 11
940138.090631
 21
7297207.187431
 31
0.0
210
0.0
220
0.0
230
1.0
 73
     3
  0
TEXT
  8
11
  6
CONTINUOUS
 62
     7
  5
30B
 10
940142.245
 20
7297198.716
 30
0.0
 40
8.0
  1
6
 50
351.565539
  7
ROMANS
 72
     1
 11
940145.911168
 21
7297206.259846
 31
0.0
210
0.0
220
0.0
230
1.0
 73
     3
  0
TEXT
  8
11
  6
CONTINUOUS
 62
     7
  5
30C
 10
940151.343
 20
7297197.367
 30
0.0
 40
8.0
  1
.
 50
351.565539
  7
ROMANS
 72
     1
 11
940153.824126
 21
7297205.086566
 31
0.0
210
0.0
220
0.0
230
1.0
 73
     3
  0
TEXT
  8
11
  6
CONTINUOUS
 62
     7
  5
30D
 10
940157.516
 20
7297196.478
 30
0.0
 40
8.0
  1
0
 50
349.273669
  7
ROMANS
 72
     1
 11
940161.609625
 21
7297203.84482
 31
0.0
210
0.0
220
0.0
230
1.0
 73
     3
  0
TEXT
  8
11
  6
CONTINUOUS
 62
     7
  5
30E
 10
940165.687
 20
7297194.931
 30
0.0
 40
8.0
  1
7
 50
349.273669
  7
ROMANS
 72
     1
 11
940169.468182
 21
7297202.357005
 31
0.0
210
0.0
220
0.0
230
1.0
 73
     3
  0
TEXT
  8
11
  6
CONTINUOUS
 62
     7
  5
30F
 10
940174.099
 20
7297193.31
 30
0.0
 40
8.0
  1
'
 50
346.9818
  7
ROMANS
 72
     1
 11
940177.200799
 21
7297200.803891
 31
0.0
210
0.0
220
0.0
230
1.0
 73
     3
  0
TEXT
  8
11
  6
CONTINUOUS
 62
     7
  5
310
 10
940139.55
 20
7297213.066
 30
0.0
 40
8.0
  1
R
 50
353.857408
  7
ROMANS
 72
     1
 11
940142.055532
 21
7297212.796352
 31
0.0
210
0.0
220
0.0
230
1.0
  0
TEXT
  8
11
  6
CONTINUOUS
 62
     7
  5
311
 10
940146.797
 20
7297212.194
 30
0.0
 40
8.0
  1
=
 50
351.565539
  7
ROMANS
 72
     1
 11
940150.093951
 21
7297211.705122
 31
0.0
210
0.0
220
0.0
230
1.0
  0
TEXT
  8
11
  6
CONTINUOUS
 62
     7
  5
312
 10
940155.708
 20
7297210.873
 30
0.0
 40
8.0
  1
4
 50
351.565539
  7
ROMANS
 72
     1
 11
940158.015767
 21
7297210.5308
 31
0.0
210
0.0
220
0.0
230
1.0
  0
TEXT
  8
11
  6
CONTINUOUS
 62
     7
  5
313
 10
940163.408
 20
7297209.611
 30
0.0
 40
8.0
  1
0
 50
349.273669
  7
ROMANS
 72
     1
 11
940166.01268
 21
7297209.117601
 31
0.0
210
0.0
220
0.0
230
1.0
  0
TEXT
  8
11
  6
CONTINUOUS
 62
     7
  5
314
 10
940171.269
 20
7297208.122
 30
0.0
 40
8.0
  1
0
 50
349.273669
  7
ROMANS
 72
     1
 11
940173.87368
 21
7297207.628601
 31
0.0
210
0.0
220
0.0
230
1.0
  0
TEXT
  8
11
  6
CONTINUOUS
 62
     7
  5
315
 10
940180.511
 20
7297206.197
 30
0.0
 40
8.0
  1
'
 50
346.9818
  7
ROMANS
 72
     1
 11
940181.810714
 21
7297205.896502
 31
0.0
210
0.0
220
0.0
230
1.0
  0
TEXT
  8
11
  6
CONTINUOUS
 62
     7
  5
316
 10
940220.103
 20
7297197.326
 30
0.0
 40
8.0
  1
R
 50
350.740003
  7
ROMANS
 72
     1
 11
940222.59016
 21
7297196.920495
 31
0.0
210
0.0
220
0.0
230
1.0
  0
TEXT
  8
11
  6
CONTINUOUS
 62
     7
  5
317
 10
940227.19
 20
7297196.171
 30
0.0
 40
8.0
  1
=
 50
350.740003
  7
ROMANS
 72
     1
 11
940230.479565
 21
7297195.634671
 31
0.0
210
0.0
220
0.0
230
1.0
  0
TEXT
  8
11
  6
CONTINUOUS
 62
     7
  5
318
 10
940236.082
 20
7297194.721
 30
0.0
 40
8.0
  1
4
 50
350.740003
  7
ROMANS
 72
     1
 11
940238.384597
 21
7297194.345586
 31
0.0
210
0.0
220
0.0
230
1.0
  0
TEXT
  8
11
  6
CONTINUOUS
 62
     7
  5
319
 10
940243.705
 20
7297193.652
 30
0.0
 40
8.0
  1
6
 50
352.867944
  7
ROMANS
 72
     1
 11
940246.205502
 21
7297193.339125
 31
0.0
210
0.0
220
0.0
230
1.0
  0
TEXT
  8
11
  6
CONTINUOUS
 62
     7
  5
31A
 10
940251.831
 20
7297192.635
 30
0.0
 40
8.0
  1
4
 50
352.867944
  7
ROMANS
 72
     1
 11
940254.145949
 21
7297192.345343
 31
0.0
210
0.0
220
0.0
230
1.0
  0
TEXT
  8
11
  6
CONTINUOUS
 62
     7
  5
31B
 10
940260.677
 20
7297191.7
 30
0.0
 40
8.0
  1
'
 50
354.995886
  7
ROMANS
 72
     1
 11
940262.004919
 21
7297191.583726
 31
0.0
210
0.0
220
0.0
230
1.0
  0
TEXT
  8
11
  6
CONTINUOUS
 62
     7
  5
31C
 10
940084.808
 20
7296950.102
 30
0.0
 40
8.0
  1
569'
 50
88.1878
  7
ROMANS
210
0.0
220
0.0
230
1.0
  0
TEXT
  8
11
  6
CONTINUOUS
 62
     7
  5
31D
 10
940894.809
 20
7297134.595
 30
0.0
 40
8.0
  1
50'
 50
358.1878
  7
ROMANS
210
0.0
220
0.0
230
1.0
  0
TEXT
  8
11
  6
CONTINUOUS
 62
     7
  5
31E
 10
940878.313
 20
7296591.19
 30
0.0
 40
8.0
  1
50'
 50
358.1878
  7
ROMANS
210
0.0
220
0.0
230
1.0
  0
TEXT
  8
11
  6
CONTINUOUS
 62
     7
  5
31F
 10
940863.695
 20
7296162.079
 30
0.0
 40
8.0
  1
50'
 50
358.1878
  7
ROMANS
210
0.0
220
0.0
230
1.0
  0
TEXT
  8
11
  6
CONTINUOUS
 62
     7
  5
320
 10
940852.757
 20
7295679.655
 30
0.0
 40
8.0
  1
50'
 50
358.1878
  7
ROMANS
210
0.0
220
0.0
230
1.0
  0
TEXT
  8
11
  6
CONTINUOUS
 62
     7
  5
321
 10
940842.853
 20
7295398.72
 30
0.0
 40
8.0
  1
50'
 50
358.1878
  7
ROMANS
210
0.0
220
0.0
230
1.0
  0
TEXT
  8
11
  6
CONTINUOUS
 62
     7
  5
322
 10
939014.505
 20
7294673.571
 30
0.0
 40
8.0
  1
3221.64'
 50
358.1878
  7
ROMANS
210
0.0
220
0.0
230
1.0
  0
TEXT
  8
11
  6
CONTINUOUS
 62
     7
  5
323
 10
940612.482
 20
7295861.264
 30
0.0
 40
8.0
  1
470'
 50
358.1878
  7
ROMANS
210
0.0
220
0.0
230
1.0
  0
TEXT
  8
11
  6
CONTINUOUS
 62
     7
  5
324
 10
940623.084
 20
7296438.509
 30
0.0
 40
8.0
  1
470'
 50
358.1878
  7
ROMANS
210
0.0
220
0.0
230
1.0
  0
TEXT
  8
11
  6
CONTINUOUS
 62
     7
  5
325
 10
940390.545
 20
7296140.801
 30
0.0
 40
8.0
  1
590'
 50
88.1878
  7
ROMANS
210
0.0
220
0.0
230
1.0
  0
TEXT
  8
11
  6
CONTINUOUS
 62
     7
  5
326
 10
940847.188
 20
7296125.075
 30
0.0
 40
8.0
  1
590'
 50
88.1878
  7
ROMANS
210
0.0
220
0.0
230
1.0
  0
TEXT
  8
11
  6
CONTINUOUS
 62
     7
  5
327
 10
942716.014
 20
7294890.294
 30
0.0
 40
8.0
  1
750'
 50
88.1878
  7
ROMANS
210
0.0
220
0.0
230
1.0
  0
TEXT
  8
11
  6
CONTINUOUS
 62
     7
  5
328
 10
941801.325
 20
7295532.343
 30
0.0
 40
8.0
  1
50'
 50
358.1878
  7
ROMANS
210
0.0
220
0.0
230
1.0
  0
TEXT
  8
11
  6
CONTINUOUS
 62
     7
  5
329
 10
941813.938
 20
7296008.946
 30
0.0
 40
8.0
  1
50'
 50
358.1878
  7
ROMANS
210
0.0
220
0.0
230
1.0
  0
TEXT
  8
11
  6
CONTINUOUS
 62
     7
  5
32A
 10
941827.689
 20
7296443.541
 30
0.0
 40
8.0
  1
50'
 50
358.1878
  7
ROMANS
210
0.0
220
0.0
230
1.0
  0
TEXT
  8
11
  6
CONTINUOUS
 62
     7
  5
32B
 10
941835.883
 20
7296702.508
 30
0.0
 40
8.0
  1
50'
 50
358.1878
  7
ROMANS
210
0.0
220
0.0
230
1.0
  0
TEXT
  8
11
  6
CONTINUOUS
 62
     7
  5
32C
 10
940988.734
 20
7296745.843
 30
0.0
 40
8.0
  1
20'
 50
88.1878
  7
ROMANS
210
0.0
220
0.0
230
1.0
  0
TEXT
  8
11
  6
CONTINUOUS
 62
     7
  5
32D
 10
941771.308
 20
7296721.082
 30
0.0
 40
8.0
  1
20'
 50
88.1878
  7
ROMANS
210
0.0
220
0.0
230
1.0
  0
TEXT
  8
11
  6
CONTINUOUS
 62
     7
  5
32E
 10
942714.232
 20
7296691.249
 30
0.0
 40
8.0
  1
20'
 50
88.1878
  7
ROMANS
210
0.0
220
0.0
230
1.0
  0
TEXT
  8
11
  6
CONTINUOUS
 62
     7
  5
32F
 10
941927.12
 20
7296716.153
 30
0.0
 40
8.0
  1
20'
 50
88.1878
  7
ROMANS
210
0.0
220
0.0
230
1.0
  0
TEXT
  8
11
  6
CONTINUOUS
 62
     7
  5
330
 10
941921.235
 20
7296280.453
 30
0.0
 40
8.0
  1
20'
 50
88.1878
  7
ROMANS
210
0.0
220
0.0
230
1.0
  0
TEXT
  8
11
  6
CONTINUOUS
 62
     7
  5
331
 10
942709.481
 20
7296255.513
 30
0.0
 40
8.0
  1
20'
 50
88.1878
  7
ROMANS
210
0.0
220
0.0
230
1.0
  0
TEXT
  8
11
  6
CONTINUOUS
 62
     7
  5
332
 10
941761.318
 20
7296285.513
 30
0.0
 40
8.0
  1
20'
 50
88.1878
  7
ROMANS
210
0.0
220
0.0
230
1.0
  0
TEXT
  8
11
  6
CONTINUOUS
 62
     7
  5
333
 10
940959.206
 20
7296310.891
 30
0.0
 40
8.0
  1
20'
 50
88.1878
  7
ROMANS
210
0.0
220
0.0
230
1.0
  0
TEXT
  8
11
  6
CONTINUOUS
 62
     7
  5
334
 10
940945.392
 20
7295874.296
 30
0.0
 40
8.0
  1
20'
 50
88.1878
  7
ROMANS
210
0.0
220
0.0
230
1.0
  0
TEXT
  8
11
  6
CONTINUOUS
 62
     7
  5
335
 10
941750.65
 20
7295848.818
 30
0.0
 40
8.0
  1
20'
 50
88.1878
  7
ROMANS
210
0.0
220
0.0
230
1.0
  0
TEXT
  8
11
  6
CONTINUOUS
 62
     7
  5
336
 10
941774.573
 20
7295336.739
 30
0.0
 40
8.0
  1
20'
 50
88.1878
  7
ROMANS
210
0.0
220
0.0
230
1.0
  0
TEXT
  8
11
  6
CONTINUOUS
 62
     7
  5
337
 10
940940.507
 20
7295359.121
 30
0.0
 40
8.0
  1
20'
 50
88.1878
  7
ROMANS
210
0.0
220
0.0
230
1.0
  0
TEXT
  8
11
  6
CONTINUOUS
 62
     7
  5
338
 10
941847.426
 20
7295333.516
 30
0.0
 40
8.0
  1
20'
 50
88.1878
  7
ROMANS
210
0.0
220
0.0
230
1.0
  0
TEXT
  8
11
  6
CONTINUOUS
 62
     7
  5
339
 10
942676.093
 20
7295304.208
 30
0.0
 40
8.0
  1
20'
 50
88.1878
  7
ROMANS
210
0.0
220
0.0
230
1.0
  0
TEXT
  8
11
  6
CONTINUOUS
 62
     7
  5
33A
 10
942687.693
 20
7295818.884
 30
0.0
 40
8.0
  1
20'
 50
88.1878
  7
ROMANS
210
0.0
220
0.0
230
1.0
  0
TEXT
  8
11
  6
CONTINUOUS
 62
     7
  5
33B
 10
941905.119
 20
7295843.644
 30
0.0
 40
8.0
  1
20'
 50
88.1878
  7
ROMANS
210
0.0
220
0.0
230
1.0
  0
TEXT
  8
11
  6
CONTINUOUS
 62
     7
  5
33C
 10
942672.88
 20
7295566.001
 30
0.0
 40
8.0
  1
60'
 50
88.1878
  7
ROMANS
210
0.0
220
0.0
230
1.0
  0
TEXT
  8
11
  6
CONTINUOUS
 62
     7
  5
33D
 10
941734.925
 20
7295595.677
 30
0.0
 40
8.0
  1
60'
 50
88.1878
  7
ROMANS
210
0.0
220
0.0
230
1.0
  0
TEXT
  8
11
  6
CONTINUOUS
 62
     7
  5
33E
 10
940940.636
 20
7295620.808
 30
0.0
 40
8.0
  1
60'
 50
88.1878
  7
ROMANS
210
0.0
220
0.0
230
1.0
  0
TEXT
  8
11
  6
CONTINUOUS
 62
     7
  5
33F
 10
940955.58
 20
7296093.117
 30
0.0
 40
8.0
  1
60'
 50
88.1878
  7
ROMANS
210
0.0
220
0.0
230
1.0
  0
TEXT
  8
11
  6
CONTINUOUS
 62
     7
  5
340
 10
940969.369
 20
7296528.945
 30
0.0
 40
8.0
  1
60'
 50
88.1878
  7
ROMANS
210
0.0
220
0.0
230
1.0
  0
TEXT
  8
11
  6
CONTINUOUS
 62
     7
  5
341
 10
941733.678
 20
7296070.77
 30
0.0
 40
8.0
  1
60'
 50
88.1878
  7
ROMANS
210
0.0
220
0.0
230
1.0
  0
TEXT
  8
11
  6
CONTINUOUS
 62
     7
  5
342
 10
941763.068
 20
7296503.832
 30
0.0
 40
8.0
  1
60'
 50
88.1878
  7
ROMANS
210
0.0
220
0.0
230
1.0
  0
TEXT
  8
11
  6
CONTINUOUS
 62
     7
  5
343
 10
942694.688
 20
7296474.356
 30
0.0
 40
8.0
  1
60'
 50
88.1878
  7
ROMANS
210
0.0
220
0.0
230
1.0
  0
TEXT
  8
11
  6
CONTINUOUS
 62
     7
  5
344
 10
942680.825
 20
7296036.21
 30
0.0
 40
8.0
  1
60'
 50
88.1878
  7
ROMANS
210
0.0
220
0.0
230
1.0
  0
TEXT
  8
11
  6
CONTINUOUS
 62
     7
  5
345
 10
940884.901
 20
7295475.864
 30
0.0
 40
8.0
  1
200'
 50
88.1878
  7
ROMANS
210
0.0
220
0.0
230
1.0
  0
TEXT
  8
11
  6
CONTINUOUS
 62
     7
  5
346
 10
940893.878
 20
7295759.606
 30
0.0
 40
8.0
  1
200'
 50
88.1878
  7
ROMANS
210
0.0
220
0.0
230
1.0
  0
TEXT
  8
11
  6
CONTINUOUS
 62
     7
  5
347
 10
941789.869
 20
7295731.257
 30
0.0
 40
8.0
  1
200'
 50
88.1878
  7
ROMANS
210
0.0
220
0.0
230
1.0
  0
TEXT
  8
11
  6
CONTINUOUS
 62
     7
  5
348
 10
941779.757
 20
7295443.786
 30
0.0
 40
8.0
  1
200'
 50
88.1878
  7
ROMANS
210
0.0
220
0.0
230
1.0
  0
TEXT
  8
11
  6
CONTINUOUS
 62
     7
  5
349
 10
941844.286
 20
7295441.745
 30
0.0
 40
8.0
  1
200'
 50
88.1878
  7
ROMANS
210
0.0
220
0.0
230
1.0
  0
TEXT
  8
11
  6
CONTINUOUS
 62
     7
  5
34A
 10
941853.382
 20
7295729.248
 30
0.0
 40
8.0
  1
200'
 50
88.1878
  7
ROMANS
210
0.0
220
0.0
230
1.0
  0
TEXT
  8
11
  6
CONTINUOUS
 62
     7
  5
34B
 10
941660.575
 20
7295735.348
 30
0.0
 40
8.0
  1
215'
 50
88.1878
  7
ROMANS
210
0.0
220
0.0
230
1.0
  0
TEXT
  8
11
  6
CONTINUOUS
 62
     7
  5
34C
 10
941009.563
 20
7295755.946
 30
0.0
 40
8.0
  1
215'
 50
88.1878
  7
ROMANS
210
0.0
220
0.0
230
1.0
  0
TEXT
  8
11
  6
CONTINUOUS
 62
     7
  5
34D
 10
941000.478
 20
7295468.8
 30
0.0
 40
8.0
  1
215'
 50
88.1878
  7
ROMANS
210
0.0
220
0.0
230
1.0
  0
TEXT
  8
11
  6
CONTINUOUS
 62
     7
  5
34E
 10
941666.051
 20
7295445.707
 30
0.0
 40
8.0
  1
215'
 50
88.1878
  7
ROMANS
210
0.0
220
0.0
230
1.0
  0
TEXT
  8
11
  6
CONTINUOUS
 62
     7
  5
34F
 10
941969.056
 20
7295438.154
 30
0.0
 40
8.0
  1
215'
 50
88.1878
  7
ROMANS
210
0.0
220
0.0
230
1.0
  0
TEXT
  8
11
  6
CONTINUOUS
 62
     7
  5
350
 10
941978.141
 20
7295725.301
 30
0.0
 40
8.0
  1
215'
 50
88.1878
  7
ROMANS
210
0.0
220
0.0
230
1.0
  0
TEXT
  8
11
  6
CONTINUOUS
 62
     7
  5
351
 10
941984.784
 20
7295935.27
 30
0.0
 40
8.0
  1
180'
 50
88.1878
  7
ROMANS
210
0.0
220
0.0
230
1.0
  0
TEXT
  8
11
  6
CONTINUOUS
 62
     7
  5
352
 10
941668.351
 20
7295945.281
 30
0.0
 40
8.0
  1
180'
 50
88.1878
  7
ROMANS
210
0.0
220
0.0
230
1.0
  0
TEXT
  8
11
  6
CONTINUOUS
 62
     7
  5
353
 10
941017.34
 20
7295965.879
 30
0.0
 40
8.0
  1
180'
 50
88.1878
  7
ROMANS
210
0.0
220
0.0
230
1.0
  0
TEXT
  8
11
  6
CONTINUOUS
 62
     7
  5
354
 10
940898.253
 20
7295969.647
 30
0.0
 40
8.0
  1
165'
 50
88.1878
  7
ROMANS
210
0.0
220
0.0
230
1.0
  0
TEXT
  8
11
  6
CONTINUOUS
 62
     7
  5
355
 10
941796.512
 20
7295941.226
 30
0.0
 40
8.0
  1
165'
 50
88.1878
  7
ROMANS
210
0.0
220
0.0
230
1.0
  0
TEXT
  8
11
  6
CONTINUOUS
 62
     7
  5
356
 10
941861.16
 20
7295939.181
 30
0.0
 40
8.0
  1
165'
 50
88.1878
  7
ROMANS
210
0.0
220
0.0
230
1.0
  0
TEXT
  8
11
  6
CONTINUOUS
 62
     7
  5
357
 10
940919.469
 20
7295386.103
 30
0.0
 40
8.0
  1
130'
 50
358.1878
  7
ROMANS
210
0.0
220
0.0
230
1.0
  0
TEXT
  8
11
  6
CONTINUOUS
 62
     7
  5
358
 10
941704.245
 20
7295361.273
 30
0.0
 40
8.0
  1
130'
 50
358.1878
  7
ROMANS
210
0.0
220
0.0
230
1.0
  0
TEXT
  8
11
  6
CONTINUOUS
 62
     7
  5
359
 10
941728.431
 20
7295836.536
 30
0.0
 40
8.0
  1
130'
 50
358.1878
  7
ROMANS
210
0.0
220
0.0
230
1.0
  0
TEXT
  8
11
  6
CONTINUOUS
 62
     7
  5
35A
 10
941729.473
 20
7295869.449
 30
0.0
 40
8.0
  1
130'
 50
358.1878
  7
ROMANS
210
0.0
220
0.0
230
1.0
  0
TEXT
  8
11
  6
CONTINUOUS
 62
     7
  5
35B
 10
940936.691
 20
7295894.533
 30
0.0
 40
8.0
  1
130'
 50
358.1878
  7
ROMANS
210
0.0
220
0.0
230
1.0
  0
TEXT
  8
11
  6
CONTINUOUS
 62
     7
  5
35C
 10
940935.649
 20
7295861.619
 30
0.0
 40
8.0
  1
130'
 50
358.1878
  7
ROMANS
210
0.0
220
0.0
230
1.0
  0
TEXT
  8
11
  6
CONTINUOUS
 62
     7
  5
35D
 10
940941.969
 20
7296061.373
 30
0.0
 40
8.0
  1
115'
 50
358.1878
  7
ROMANS
210
0.0
220
0.0
230
1.0
  0
TEXT
  8
11
  6
CONTINUOUS
 62
     7
  5
35E
 10
940929.257
 20
7295659.594
 30
0.0
 40
8.0
  1
115'
 50
358.1878
  7
ROMANS
210
0.0
220
0.0
230
1.0
  0
TEXT
  8
11
  6
CONTINUOUS
 62
     7
  5
35F
 10
940926.959
 20
7295586.957
 30
0.0
 40
8.0
  1
115'
 50
358.1878
  7
ROMANS
210
0.0
220
0.0
230
1.0
  0
TEXT
  8
11
  6
CONTINUOUS
 62
     7
  5
360
 10
941703.494
 20
7295560.353
 30
0.0
 40
8.0
  1
115'
 50
358.1878
  7
ROMANS
210
0.0
220
0.0
230
1.0
  0
TEXT
  8
11
  6
CONTINUOUS
 62
     7
  5
361
 10
941712.966
 20
7295634.798
 30
0.0
 40
8.0
  1
115'
 50
358.1878
  7
ROMANS
210
0.0
220
0.0
230
1.0
  0
TEXT
  8
11
  6
CONTINUOUS
 62
     7
  5
362
 10
941725.678
 20
7296036.577
 30
0.0
 40
8.0
  1
115'
 50
358.1878
  7
ROMANS
210
0.0
220
0.0
230
1.0
  0
TEXT
  8
11
  6
CONTINUOUS
 62
     7
  5
363
 10
941595.248
 20
7296040.704
 30
0.0
 40
8.0
  1
130'
 50
358.1878
  7
ROMANS
210
0.0
220
0.0
230
1.0
  0
TEXT
  8
11
  6
CONTINUOUS
 62
     7
  5
364
 10
941467.089
 20
7296044.759
 30
0.0
 40
8.0
  1
130'
 50
358.1878
  7
ROMANS
210
0.0
220
0.0
230
1.0
  0
TEXT
  8
11
  6
CONTINUOUS
 62
     7
  5
365
 10
941340.061
 20
7296048.778
 30
0.0
 40
8.0
  1
130'
 50
358.1878
  7
ROMANS
210
0.0
220
0.0
230
1.0
  0
TEXT
  8
11
  6
CONTINUOUS
 62
     7
  5
366
 10
941210.767
 20
7296052.869
 30
0.0
 40
8.0
  1
130'
 50
358.1878
  7
ROMANS
210
0.0
220
0.0
230
1.0
  0
TEXT
  8
11
  6
CONTINUOUS
 62
     7
  5
367
 10
941075.801
 20
7296057.139
 30
0.0
 40
8.0
  1
130'
 50
358.1878
  7
ROMANS
210
0.0
220
0.0
230
1.0
  0
TEXT
  8
11
  6
CONTINUOUS
 62
     7
  5
368
 10
941063.125
 20
7295656.495
 30
0.0
 40
8.0
  1
130'
 50
358.1878
  7
ROMANS
210
0.0
220
0.0
230
1.0
  0
TEXT
  8
11
  6
CONTINUOUS
 62
     7
  5
369
 10
941193.554
 20
7295652.369
 30
0.0
 40
8.0
  1
130'
 50
358.1878
  7
ROMANS
210
0.0
220
0.0
230
1.0
  0
TEXT
  8
11
  6
CONTINUOUS
 62
     7
  5
36A
 10
941327.385
 20
7295648.134
 30
0.0
 40
8.0
  1
130'
 50
358.1878
  7
ROMANS
210
0.0
220
0.0
230
1.0
  0
TEXT
  8
11
  6
CONTINUOUS
 62
     7
  5
36B
 10
941449.876
 20
7295644.259
 30
0.0
 40
8.0
  1
130'
 50
358.1878
  7
ROMANS
210
0.0
220
0.0
230
1.0
  0
TEXT
  8
11
  6
CONTINUOUS
 62
     7
  5
36C
 10
941581.439
 20
7295640.096
 30
0.0
 40
8.0
  1
130'
 50
358.1878
  7
ROMANS
210
0.0
220
0.0
230
1.0
  0
TEXT
  8
11
  6
CONTINUOUS
 62
     7
  5
36D
 10
941579.105
 20
7295566.323
 30
0.0
 40
8.0
  1
130'
 50
358.1878
  7
ROMANS
210
0.0
220
0.0
230
1.0
  0
TEXT
  8
11
  6
CONTINUOUS
 62
     7
  5
36E
 10
941448.675
 20
7295570.45
 30
0.0
 40
8.0
  1
130'
 50
358.1878
  7
ROMANS
210
0.0
220
0.0
230
1.0
  0
TEXT
  8
11
  6
CONTINUOUS
 62
     7
  5
36F
 10
941326.185
 20
7295574.325
 30
0.0
 40
8.0
  1
130'
 50
358.1878
  7
ROMANS
210
0.0
220
0.0
230
1.0
  0
TEXT
  8
11
  6
CONTINUOUS
 62
     7
  5
370
 10
941192.354
 20
7295578.56
 30
0.0
 40
8.0
  1
130'
 50
358.1878
  7
ROMANS
210
0.0
220
0.0
230
1.0
  0
TEXT
  8
11
  6
CONTINUOUS
 62
     7
  5
371
 10
941067.596
 20
7295582.507
 30
0.0
 40
8.0
  1
130'
 50
358.1878
  7
ROMANS
210
0.0
220
0.0
230
1.0
  0
TEXT
  8
11
  6
CONTINUOUS
 62
     7
  5
372
 10
941888.023
 20
7295556.549
 30
0.0
 40
8.0
  1
110'
 50
358.1878
  7
ROMANS
210
0.0
220
0.0
230
1.0
  0
TEXT
  8
11
  6
CONTINUOUS
 62
     7
  5
373
 10
941890.321
 20
7295629.19
 30
0.0
 40
8.0
  1
110'
 50
358.1878
  7
ROMANS
210
0.0
220
0.0
230
1.0
  0
TEXT
  8
11
  6
CONTINUOUS
 62
     7
  5
374
 10
941903.033
 20
7296030.969
 30
0.0
 40
8.0
  1
110'
 50
358.1878
  7
ROMANS
210
0.0
220
0.0
230
1.0
  0
TEXT
  8
11
  6
CONTINUOUS
 62
     7
  5
375
 10
941897.755
 20
7295864.128
 30
0.0
 40
8.0
  1
125'
 50
358.1878
  7
ROMANS
210
0.0
220
0.0
230
1.0
  0
TEXT
  8
11
  6
CONTINUOUS
 62
     7
  5
376
 10
941896.677
 20
7295830.079
 30
0.0
 40
8.0
  1
125'
 50
358.1878
  7
ROMANS
210
0.0
220
0.0
230
1.0
  0
TEXT
  8
11
  6
CONTINUOUS
 62
     7
  5
377
 10
941881.631
 20
7295354.528
 30
0.0
 40
8.0
  1
125'
 50
358.1878
  7
ROMANS
210
0.0
220
0.0
230
1.0
  0
TEXT
  8
11
  6
CONTINUOUS
 62
     7
  5
378
 10
942007.147
 20
7295553.92
 30
0.0
 40
8.0
  1
125'
 50
358.1878
  7
ROMANS
210
0.0
220
0.0
230
1.0
  0
TEXT
  8
11
  6
CONTINUOUS
 62
     7
  5
379
 10
942139.844
 20
7295549.721
 30
0.0
 40
8.0
  1
125'
 50
358.1878
  7
ROMANS
210
0.0
220
0.0
230
1.0
  0
TEXT
  8
11
  6
CONTINUOUS
 62
     7
  5
37A
 10
942268.005
 20
7295545.666
 30
0.0
 40
8.0
  1
125'
 50
358.1878
  7
ROMANS
210
0.0
220
0.0
230
1.0
  0
TEXT
  8
11
  6
CONTINUOUS
 62
     7
  5
37B
 10
942396.166
 20
7295541.611
 30
0.0
 40
8.0
  1
125'
 50
358.1878
  7
ROMANS
210
0.0
220
0.0
230
1.0
  0
TEXT
  8
11
  6
CONTINUOUS
 62
     7
  5
37C
 10
942518.656
 20
7295537.736
 30
0.0
 40
8.0
  1
125'
 50
358.1878
  7
ROMANS
210
0.0
220
0.0
230
1.0
  0
TEXT
  8
11
  6
CONTINUOUS
 62
     7
  5
37D
 10
942520.918
 20
7295609.238
 30
0.0
 40
8.0
  1
125'
 50
358.1878
  7
ROMANS
210
0.0
220
0.0
230
1.0
  0
TEXT
  8
11
  6
CONTINUOUS
 62
     7
  5
37E
 10
942396.16
 20
7295613.185
 30
0.0
 40
8.0
  1
125'
 50
358.1878
  7
ROMANS
210
0.0
220
0.0
230
1.0
  0
TEXT
  8
11
  6
CONTINUOUS
 62
     7
  5
37F
 10
942266.865
 20
7295617.276
 30
0.0
 40
8.0
  1
125'
 50
358.1878
  7
ROMANS
210
0.0
220
0.0
230
1.0
  0
TEXT
  8
11
  6
CONTINUOUS
 62
     7
  5
380
 10
942139.839
 20
7295621.295
 30
0.0
 40
8.0
  1
125'
 50
358.1878
  7
ROMANS
210
0.0
220
0.0
230
1.0
  0
TEXT
  8
11
  6
CONTINUOUS
 62
     7
  5
381
 10
942010.543
 20
7295625.386
 30
0.0
 40
8.0
  1
125'
 50
358.1878
  7
ROMANS
210
0.0
220
0.0
230
1.0
  0
TEXT
  8
11
  6
CONTINUOUS
 62
     7
  5
382
 10
942023.255
 20
7296027.165
 30
0.0
 40
8.0
  1
125'
 50
358.1878
  7
ROMANS
210
0.0
220
0.0
230
1.0
  0
TEXT
  8
11
  6
CONTINUOUS
 62
     7
  5
383
 10
942155.953
 20
7296022.966
 30
0.0
 40
8.0
  1
125'
 50
358.1878
  7
ROMANS
210
0.0
220
0.0
230
1.0
  0
TEXT
  8
11
  6
CONTINUOUS
 62
     7
  5
384
 10
942279.577
 20
7296019.055
 30
0.0
 40
8.0
  1
125'
 50
358.1878
  7
ROMANS
210
0.0
220
0.0
230
1.0
  0
TEXT
  8
11
  6
CONTINUOUS
 62
     7
  5
385
 10
942404.336
 20
7296015.108
 30
0.0
 40
8.0
  1
125'
 50
358.1878
  7
ROMANS
210
0.0
220
0.0
230
1.0
  0
TEXT
  8
11
  6
CONTINUOUS
 62
     7
  5
386
 10
942532.495
 20
7296011.053
 30
0.0
 40
8.0
  1
125'
 50
358.1878
  7
ROMANS
210
0.0
220
0.0
230
1.0
  0
TEXT
  8
11
  6
CONTINUOUS
 62
     7
  5
387
 10
942645.913
 20
7296007.464
 30
0.0
 40
8.0
  1
118.81'
 50
358.1878
  7
ROMANS
210
0.0
220
0.0
230
1.0
  0
TEXT
  8
11
  6
CONTINUOUS
 62
     7
  5
388
 10
942633.201
 20
7295605.685
 30
0.0
 40
8.0
  1
122.07'
 50
358.1878
  7
ROMANS
210
0.0
220
0.0
230
1.0
  0
TEXT
  8
11
  6
CONTINUOUS
 62
     7
  5
389
 10
942630.902
 20
7295533.048
 30
0.0
 40
8.0
  1
122.54'
 50
358.1878
  7
ROMANS
210
0.0
220
0.0
230
1.0
  0
TEXT
  8
11
  6
CONTINUOUS
 62
     7
  5
38A
 10
942624.546
 20
7295332.158
 30
0.0
 40
8.0
  1
139.23'
 50
358.1878
  7
ROMANS
210
0.0
220
0.0
230
1.0
  0
TEXT
  8
11
  6
CONTINUOUS
 62
     7
  5
38B
 10
942639.593
 20
7295807.71
 30
0.0
 40
8.0
  1
135.38'
 50
358.1878
  7
ROMANS
210
0.0
220
0.0
230
1.0
  0
TEXT
  8
11
  6
CONTINUOUS
 62
     7
  5
38C
 10
942640.67
 20
7295841.759
 30
0.0
 40
8.0
  1
135.22'
 50
358.1878
  7
ROMANS
210
0.0
220
0.0
230
1.0
  0
TEXT
  8
11
  6
CONTINUOUS
 62
     7
  5
38D
 10
942579.006
 20
7295422.69
 30
0.0
 40
8.0
  1
215'
 50
88.1878
  7
ROMANS
210
0.0
220
0.0
230
1.0
  0
TEXT
  8
11
  6
CONTINUOUS
 62
     7
  5
38E
 10
942590.837
 20
7295700.237
 30
0.0
 40
8.0
  1
215'
 50
88.1878
  7
ROMANS
210
0.0
220
0.0
230
1.0
  0
TEXT
  8
11
  6
CONTINUOUS
 62
     7
  5
38F
 10
942597.48
 20
7295910.207
 30
0.0
 40
8.0
  1
180'
 50
88.1878
  7
ROMANS
210
0.0
220
0.0
230
1.0
  0
TEXT
  8
11
  6
CONTINUOUS
 62
     7
  5
390
 10
942735.849
 20
7295905.829
 30
0.0
 40
8.0
  1
165'
 50
88.1878
  7
ROMANS
210
0.0
220
0.0
230
1.0
  0
TEXT
  8
11
  6
CONTINUOUS
 62
     7
  5
391
 10
942729.169
 20
7295694.725
 30
0.0
 40
8.0
  1
200'
 50
88.1878
  7
ROMANS
210
0.0
220
0.0
230
1.0
  0
TEXT
  8
11
  6
CONTINUOUS
 62
     7
  5
392
 10
942720.383
 20
7295417.027
 30
0.0
 40
8.0
  1
200'
 50
88.1878
  7
ROMANS
210
0.0
220
0.0
230
1.0
  0
TEXT
  8
11
  6
CONTINUOUS
 62
     7
  5
393
 10
942743.232
 20
7296138.661
 30
0.0
 40
8.0
  1
162.27'
 50
88.1878
  7
ROMANS
210
0.0
220
0.0
230
1.0
  0
TEXT
  8
11
  6
CONTINUOUS
 62
     7
  5
394
 10
941867.655
 20
7296166.364
 30
0.0
 40
8.0
  1
162.27'
 50
88.1878
  7
ROMANS
210
0.0
220
0.0
230
1.0
  0
TEXT
  8
11
  6
CONTINUOUS
 62
     7
  5
395
 10
941803.009
 20
7296168.41
 30
0.0
 40
8.0
  1
162.27'
 50
88.1878
  7
ROMANS
210
0.0
220
0.0
230
1.0
  0
TEXT
  8
11
  6
CONTINUOUS
 62
     7
  5
396
 10
941673.714
 20
7296172.5
 30
0.0
 40
8.0
  1
177.27'
 50
88.1878
  7
ROMANS
210
0.0
220
0.0
230
1.0
  0
TEXT
  8
11
  6
CONTINUOUS
 62
     7
  5
397
 10
941978.804
 20
7296162.847
 30
0.0
 40
8.0
  1
177.27'
 50
88.1878
  7
ROMANS
210
0.0
220
0.0
230
1.0
  0
TEXT
  8
11
  6
CONTINUOUS
 62
     7
  5
398
 10
942616.205
 20
7296142.68
 30
0.0
 40
8.0
  1
177.27'
 50
88.1878
  7
ROMANS
210
0.0
220
0.0
230
1.0
  0
TEXT
  8
11
  6
CONTINUOUS
 62
     7
  5
399
 10
942655.002
 20
7296078.916
 30
0.0
 40
8.0
  1
118.34'
 50
358.1878
  7
ROMANS
210
0.0
220
0.0
230
1.0
  0
TEXT
  8
11
  6
CONTINUOUS
 62
     7
  5
39A
 10
942530.243
 20
7296082.863
 30
0.0
 40
8.0
  1
125'
 50
358.1878
  7
ROMANS
210
0.0
220
0.0
230
1.0
  0
TEXT
  8
11
  6
CONTINUOUS
 62
     7
  5
39B
 10
942404.351
 20
7296086.846
 30
0.0
 40
8.0
  1
125'
 50
358.1878
  7
ROMANS
210
0.0
220
0.0
230
1.0
  0
TEXT
  8
11
  6
CONTINUOUS
 62
     7
  5
39C
 10
942284.129
 20
7296090.65
 30
0.0
 40
8.0
  1
125'
 50
358.1878
  7
ROMANS
210
0.0
220
0.0
230
1.0
  0
TEXT
  8
11
  6
CONTINUOUS
 62
     7
  5
39D
 10
942157.103
 20
7296094.669
 30
0.0
 40
8.0
  1
125'
 50
358.1878
  7
ROMANS
210
0.0
220
0.0
230
1.0
  0
TEXT
  8
11
  6
CONTINUOUS
 62
     7
  5
39E
 10
942032.344
 20
7296098.616
 30
0.0
 40
8.0
  1
125'
 50
358.1878
  7
ROMANS
210
0.0
220
0.0
230
1.0
  0
TEXT
  8
11
  6
CONTINUOUS
 62
     7
  5
39F
 10
941904.184
 20
7296102.671
 30
0.0
 40
8.0
  1
110'
 50
358.1878
  7
ROMANS
210
0.0
220
0.0
230
1.0
  0
TEXT
  8
11
  6
CONTINUOUS
 62
     7
  5
3A0
 10
941909.462
 20
7296269.512
 30
0.0
 40
8.0
  1
125'
 50
358.1878
  7
ROMANS
210
0.0
220
0.0
230
1.0
  0
TEXT
  8
11
  6
CONTINUOUS
 62
     7
  5
3A1
 10
942660.281
 20
7296245.756
 30
0.0
 40
8.0
  1
131.95'
 50
358.1878
  7
ROMANS
210
0.0
220
0.0
230
1.0
  0
TEXT
  8
11
  6
CONTINUOUS
 62
     7
  5
3A2
 10
941735.629
 20
7296273.893
 30
0.0
 40
8.0
  1
130'
 50
358.1878
  7
ROMANS
210
0.0
220
0.0
230
1.0
  0
TEXT
  8
11
  6
CONTINUOUS
 62
     7
  5
3A3
 10
940950.786
 20
7296298.725
 30
0.0
 40
8.0
  1
130'
 50
358.1878
  7
ROMANS
210
0.0
220
0.0
230
1.0
  0
TEXT
  8
11
  6
CONTINUOUS
 62
     7
  5
3A4
 10
940945.579
 20
7296134.154
 30
0.0
 40
8.0
  1
115'
 50
358.1878
  7
ROMANS
210
0.0
220
0.0
230
1.0
  0
TEXT
  8
11
  6
CONTINUOUS
 62
     7
  5
3A5
 10
941725.885
 20
7296109.466
 30
0.0
 40
8.0
  1
115'
 50
358.1878
  7
ROMANS
210
0.0
220
0.0
230
1.0
  0
TEXT
  8
11
  6
CONTINUOUS
 62
     7
  5
3A6
 10
941601.127
 20
7296113.413
 30
0.0
 40
8.0
  1
130'
 50
358.1878
  7
ROMANS
210
0.0
220
0.0
230
1.0
  0
TEXT
  8
11
  6
CONTINUOUS
 62
     7
  5
3A7
 10
941472.966
 20
7296117.468
 30
0.0
 40
8.0
  1
130'
 50
358.1878
  7
ROMANS
210
0.0
220
0.0
230
1.0
  0
TEXT
  8
11
  6
CONTINUOUS
 62
     7
  5
3A8
 10
941339.135
 20
7296121.703
 30
0.0
 40
8.0
  1
130'
 50
358.1878
  7
ROMANS
210
0.0
220
0.0
230
1.0
  0
TEXT
  8
11
  6
CONTINUOUS
 62
     7
  5
3A9
 10
941210.974
 20
7296125.757
 30
0.0
 40
8.0
  1
130'
 50
358.1878
  7
ROMANS
210
0.0
220
0.0
230
1.0
  0
TEXT
  8
11
  6
CONTINUOUS
 62
     7
  5
3AA
 10
941085.081
 20
7296129.741
 30
0.0
 40
8.0
  1
130'
 50
358.1878
  7
ROMANS
210
0.0
220
0.0
230
1.0
  0
TEXT
  8
11
  6
CONTINUOUS
 62
     7
  5
3AB
 10
941037.446
 20
7296192.631
 30
0.0
 40
8.0
  1
177.27'
 50
88.1878
  7
ROMANS
210
0.0
220
0.0
230
1.0
  0
TEXT
  8
11
  6
CONTINUOUS
 62
     7
  5
3AC
 10
940908.152
 20
7296196.722
 30
0.0
 40
8.0
  1
162.27'
 50
88.1878
  7
ROMANS
210
0.0
220
0.0
230
1.0
  0
TEXT
  8
11
  6
CONTINUOUS
 62
     7
  5
3AD
 10
940921.052
 20
7296649.45
 30
0.0
 40
8.0
  1
162'
 50
88.1878
  7
ROMANS
210
0.0
220
0.0
230
1.0
  0
TEXT
  8
11
  6
CONTINUOUS
 62
     7
  5
3AE
 10
941820.446
 20
7296620.993
 30
0.0
 40
8.0
  1
162'
 50
88.1878
  7
ROMANS
210
0.0
220
0.0
230
1.0
  0
TEXT
  8
11
  6
CONTINUOUS
 62
     7
  5
3AF
 10
941882.825
 20
7296619.02
 30
0.0
 40
8.0
  1
162'
 50
88.1878
  7
ROMANS
210
0.0
220
0.0
230
1.0
  0
TEXT
  8
11
  6
CONTINUOUS
 62
     7
  5
3B0
 10
941874.996
 20
7296371.597
 30
0.0
 40
8.0
  1
162'
 50
88.1878
  7
ROMANS
210
0.0
220
0.0
230
1.0
  0
TEXT
  8
11
  6
CONTINUOUS
 62
     7
  5
3B1
 10
941811.483
 20
7296373.606
 30
0.0
 40
8.0
  1
162'
 50
88.1878
  7
ROMANS
210
0.0
220
0.0
230
1.0
  0
TEXT
  8
11
  6
CONTINUOUS
 62
     7
  5
3B2
 10
940914.358
 20
7296401.991
 30
0.0
 40
8.0
  1
162'
 50
88.1878
  7
ROMANS
210
0.0
220
0.0
230
1.0
  0
TEXT
  8
11
  6
CONTINUOUS
 62
     7
  5
3B3
 10
941031.178
 20
7296398.295
 30
0.0
 40
8.0
  1
177'
 50
88.1878
  7
ROMANS
210
0.0
220
0.0
230
1.0
  0
TEXT
  8
11
  6
CONTINUOUS
 62
     7
  5
3B4
 10
941693.53
 20
7296377.338
 30
0.0
 40
8.0
  1
177'
 50
88.1878
  7
ROMANS
210
0.0
220
0.0
230
1.0
  0
TEXT
  8
11
  6
CONTINUOUS
 62
     7
  5
3B5
 10
941701.251
 20
7296621.356
 30
0.0
 40
8.0
  1
177'
 50
88.1878
  7
ROMANS
210
0.0
220
0.0
230
1.0
  0
TEXT
  8
11
  6
CONTINUOUS
 62
     7
  5
3B6
 10
941038.898
 20
7296642.312
 30
0.0
 40
8.0
  1
177'
 50
88.1878
  7
ROMANS
210
0.0
220
0.0
230
1.0
  0
TEXT
  8
11
  6
CONTINUOUS
 62
     7
  5
3B7
 10
940961.079
 20
7296732.203
 30
0.0
 40
8.0
  1
130'
 50
358.1878
  7
ROMANS
210
0.0
220
0.0
230
1.0
  0
TEXT
  8
11
  6
CONTINUOUS
 62
     7
  5
3B8
 10
941752.727
 20
7296707.156
 30
0.0
 40
8.0
  1
130'
 50
358.1878
  7
ROMANS
210
0.0
220
0.0
230
1.0
  0
TEXT
  8
11
  6
CONTINUOUS
 62
     7
  5
3B9
 10
941740.015
 20
7296305.378
 30
0.0
 40
8.0
  1
130'
 50
358.1878
  7
ROMANS
210
0.0
220
0.0
230
1.0
  0
TEXT
  8
11
  6
CONTINUOUS
 62
     7
  5
3BA
 10
940949.501
 20
7296330.39
 30
0.0
 40
8.0
  1
130'
 50
358.1878
  7
ROMANS
210
0.0
220
0.0
230
1.0
  0
TEXT
  8
11
  6
CONTINUOUS
 62
     7
  5
3BB
 10
941093.112
 20
7296491.717
 30
0.0
 40
8.0
  1
130'
 50
358.1878
  7
ROMANS
210
0.0
220
0.0
230
1.0
  0
TEXT
  8
11
  6
CONTINUOUS
 62
     7
  5
3BC
 10
941221.273
 20
7296487.662
 30
0.0
 40
8.0
  1
130'
 50
358.1878
  7
ROMANS
210
0.0
220
0.0
230
1.0
  0
TEXT
  8
11
  6
CONTINUOUS
 62
     7
  5
3BD
 10
941361.909
 20
7296483.212
 30
0.0
 40
8.0
  1
130'
 50
358.1878
  7
ROMANS
210
0.0
220
0.0
230
1.0
  0
TEXT
  8
11
  6
CONTINUOUS
 62
     7
  5
3BE
 10
941478.728
 20
7296479.516
 30
0.0
 40
8.0
  1
130'
 50
358.1878
  7
ROMANS
210
0.0
220
0.0
230
1.0
  0
TEXT
  8
11
  6
CONTINUOUS
 62
     7
  5
3BF
 10
941611.426
 20
7296475.318
 30
0.0
 40
8.0
  1
130'
 50
358.1878
  7
ROMANS
210
0.0
220
0.0
230
1.0
  0
TEXT
  8
11
  6
CONTINUOUS
 62
     7
  5
3C0
 10
941613.724
 20
7296547.955
 30
0.0
 40
8.0
  1
130'
 50
358.1878
  7
ROMANS
210
0.0
220
0.0
230
1.0
  0
TEXT
  8
11
  6
CONTINUOUS
 62
     7
  5
3C1
 10
941481.026
 20
7296552.154
 30
0.0
 40
8.0
  1
130'
 50
358.1878
  7
ROMANS
210
0.0
220
0.0
230
1.0
  0
TEXT
  8
11
  6
CONTINUOUS
 62
     7
  5
3C2
 10
941359.671
 20
7296555.993
 30
0.0
 40
8.0
  1
130'
 50
358.1878
  7
ROMANS
210
0.0
220
0.0
230
1.0
  0
TEXT
  8
11
  6
CONTINUOUS
 62
     7
  5
3C3
 10
941221.302
 20
7296560.371
 30
0.0
 40
8.0
  1
130'
 50
358.1878
  7
ROMANS
210
0.0
220
0.0
230
1.0
  0
TEXT
  8
11
  6
CONTINUOUS
 62
     7
  5
3C4
 10
941086.337
 20
7296564.641
 30
0.0
 40
8.0
  1
130'
 50
358.1878
  7
ROMANS
210
0.0
220
0.0
230
1.0
  0
TEXT
  8
11
  6
CONTINUOUS
 62
     7
  5
3C5
 10
940964.981
 20
7296568.481
 30
0.0
 40
8.0
  1
115'
 50
358.1878
  7
ROMANS
210
0.0
220
0.0
230
1.0
  0
TEXT
  8
11
  6
CONTINUOUS
 62
     7
  5
3C6
 10
940962.683
 20
7296495.843
 30
0.0
 40
8.0
  1
115'
 50
358.1878
  7
ROMANS
210
0.0
220
0.0
230
1.0
  0
TEXT
  8
11
  6
CONTINUOUS
 62
     7
  5
3C7
 10
941744.123
 20
7296471.119
 30
0.0
 40
8.0
  1
115'
 50
358.1878
  7
ROMANS
210
0.0
220
0.0
230
1.0
  0
TEXT
  8
11
  6
CONTINUOUS
 62
     7
  5
3C8
 10
941746.385
 20
7296542.622
 30
0.0
 40
8.0
  1
115'
 50
358.1878
  7
ROMANS
210
0.0
220
0.0
230
1.0
  0
TEXT
  8
11
  6
CONTINUOUS
 62
     7
  5
3C9
 10
941920.842
 20
7296702.974
 30
0.0
 40
8.0
  1
125'
 50
358.1878
  7
ROMANS
210
0.0
220
0.0
230
1.0
  0
TEXT
  8
11
  6
CONTINUOUS
 62
     7
  5
3CA
 10
941908.13
 20
7296301.195
 30
0.0
 40
8.0
  1
125'
 50
358.1878
  7
ROMANS
210
0.0
220
0.0
230
1.0
  0
TEXT
  8
11
  6
CONTINUOUS
 62
     7
  5
3CB
 10
942043.766
 20
7296461.639
 30
0.0
 40
8.0
  1
125'
 50
358.1878
  7
ROMANS
210
0.0
220
0.0
230
1.0
  0
TEXT
  8
11
  6
CONTINUOUS
 62
     7
  5
3CC
 10
942170.793
 20
7296457.62
 30
0.0
 40
8.0
  1
125'
 50
358.1878
  7
ROMANS
210
0.0
220
0.0
230
1.0
  0
TEXT
  8
11
  6
CONTINUOUS
 62
     7
  5
3CD
 10
942292.148
 20
7296453.78
 30
0.0
 40
8.0
  1
125'
 50
358.1878
  7
ROMANS
210
0.0
220
0.0
230
1.0
  0
TEXT
  8
11
  6
CONTINUOUS
 62
     7
  5
3CE
 10
942418.041
 20
7296449.797
 30
0.0
 40
8.0
  1
125'
 50
358.1878
  7
ROMANS
210
0.0
220
0.0
230
1.0
  0
TEXT
  8
11
  6
CONTINUOUS
 62
     7
  5
3CF
 10
942538.263
 20
7296445.993
 30
0.0
 40
8.0
  1
125'
 50
358.1878
  7
ROMANS
210
0.0
220
0.0
230
1.0
  0
TEXT
  8
11
  6
CONTINUOUS
 62
     7
  5
3D0
 10
942540.561
 20
7296518.631
 30
0.0
 40
8.0
  1
125'
 50
358.1878
  7
ROMANS
210
0.0
220
0.0
230
1.0
  0
TEXT
  8
11
  6
CONTINUOUS
 62
     7
  5
3D1
 10
942418.07
 20
7296522.506
 30
0.0
 40
8.0
  1
125'
 50
358.1878
  7
ROMANS
210
0.0
220
0.0
230
1.0
  0
TEXT
  8
11
  6
CONTINUOUS
 62
     7
  5
3D2
 10
942292.178
 20
7296526.489
 30
0.0
 40
8.0
  1
125'
 50
358.1878
  7
ROMANS
210
0.0
220
0.0
230
1.0
  0
TEXT
  8
11
  6
CONTINUOUS
 62
     7
  5
3D3
 10
942171.956
 20
7296530.293
 30
0.0
 40
8.0
  1
125'
 50
358.1878
  7
ROMANS
210
0.0
220
0.0
230
1.0
  0
TEXT
  8
11
  6
CONTINUOUS
 62
     7
  5
3D4
 10
942042.662
 20
7296534.384
 30
0.0
 40
8.0
  1
125'
 50
358.1878
  7
ROMANS
210
0.0
220
0.0
230
1.0
  0
TEXT
  8
11
  6
CONTINUOUS
 62
     7
  5
3D5
 10
941912.232
 20
7296538.511
 30
0.0
 40
8.0
  1
110'
 50
358.1878
  7
ROMANS
210
0.0
220
0.0
230
1.0
  0
TEXT
  8
11
  6
CONTINUOUS
 62
     7
  5
3D6
 10
941909.934
 20
7296465.873
 30
0.0
 40
8.0
  1
110'
 50
358.1878
  7
ROMANS
210
0.0
220
0.0
230
1.0
  0
TEXT
  8
11
  6
CONTINUOUS
 62
     7
  5
3D7
 10
942670.525
 20
7296679.254
 30
0.0
 40
8.0
  1
128.54'
 50
358.1878
  7
ROMANS
210
0.0
220
0.0
230
1.0
  0
TEXT
  8
11
  6
CONTINUOUS
 62
     7
  5
3D8
 10
942657.813
 20
7296277.475
 30
0.0
 40
8.0
  1
131.79'
 50
358.1878
  7
ROMANS
210
0.0
220
0.0
230
1.0
  0
TEXT
  8
11
  6
CONTINUOUS
 62
     7
  5
3D9
 10
942663.056
 20
7296443.18
 30
0.0
 40
8.0
  1
115.40'
 50
358.1878
  7
ROMANS
210
0.0
220
0.0
230
1.0
  0
TEXT
  8
11
  6
CONTINUOUS
 62
     7
  5
3DA
 10
942665.319
 20
7296514.683
 30
0.0
 40
8.0
  1
114.93'
 50
358.1878
  7
ROMANS
210
0.0
220
0.0
230
1.0
  0
TEXT
  8
11
  6
CONTINUOUS
 62
     7
  5
3DB
 10
942749.698
 20
7296345.058
 30
0.0
 40
8.0
  1
162'
 50
88.1878
  7
ROMANS
210
0.0
220
0.0
230
1.0
  0
TEXT
  8
11
  6
CONTINUOUS
 62
     7
  5
3DC
 10
942757.49
 20
7296591.346
 30
0.0
 40
8.0
  1
162'
 50
88.1878
  7
ROMANS
210
0.0
220
0.0
230
1.0
  0
TEXT
  8
11
  6
CONTINUOUS
 62
     7
  5
3DD
 10
942619.122
 20
7296595.724
 30
0.0
 40
8.0
  1
177'
 50
88.1878
  7
ROMANS
210
0.0
220
0.0
230
1.0
  0
TEXT
  8
11
  6
CONTINUOUS
 62
     7
  5
3DE
 10
941994.196
 20
7296615.496
 30
0.0
 40
8.0
  1
177'
 50
88.1878
  7
ROMANS
210
0.0
220
0.0
230
1.0
  0
TEXT
  8
11
  6
CONTINUOUS
 62
     7
  5
3DF
 10
941986.511
 20
7296372.613
 30
0.0
 40
8.0
  1
177'
 50
88.1878
  7
ROMANS
210
0.0
220
0.0
230
1.0
  0
TEXT
  8
11
  6
CONTINUOUS
 62
     7
  5
3E0
 10
942610.303
 20
7296352.876
 30
0.0
 40
8.0
  1
177'
 50
88.1878
  7
ROMANS
210
0.0
220
0.0
230
1.0
  0
TEXT
  8
11
  6
CONTINUOUS
 62
     7
  5
3E1
 10
940925.612
 20
7296960.091
 30
0.0
 40
8.0
  1
438.1'
 50
88.1878
  7
ROMANS
210
0.0
220
0.0
230
1.0
  0
TEXT
  8
11
  6
CONTINUOUS
 62
     7
  5
3E2
 10
940716.554
 20
7296914.546
 30
0.0
 40
8.0
  1
125'
 50
358.1878
  7
ROMANS
210
0.0
220
0.0
230
1.0
  0
TEXT
  8
11
  6
CONTINUOUS
 62
     7
  5
3E3
 10
940668.72
 20
7297053.738
 30
0.0
 40
8.0
  1
125'
 50
358.1878
  7
ROMANS
210
0.0
220
0.0
230
1.0
  0
TEXT
  8
11
  6
CONTINUOUS
 62
     7
  5
3E4
 10
940775.311
 20
7296963.345
 30
0.0
 40
8.0
  1
15'
 50
358.1878
  7
ROMANS
 72
     1
 11
940784.639332
 21
7296963.049857
 31
0.0
210
0.0
220
0.0
230
1.0
  0
TEXT
  8
11
  6
CONTINUOUS
 62
     7
  5
3E5
 10
940644.77
 20
7296953.468
 30
0.0
 40
8.0
  1
15'
 50
358.1878
  7
ROMANS
 72
     1
 11
940654.351321
 21
7296961.168856
 31
0.0
210
0.0
220
0.0
230
1.0
 73
     3
  0
TEXT
  8
11
  6
CONTINUOUS
 62
     7
  5
3E6
 10
940625.896
 20
7296996.339
 30
0.0
 40
8.0
  1
31'
 50
358.1878
  7
ROMANS
 72
     1
 11
940635.477321
 21
7297004.039856
 31
0.0
210
0.0
220
0.0
230
1.0
 73
     3
  0
TEXT
  8
11
  6
CONTINUOUS
 62
     7
  5
3E7
 10
940750.431
 20
7297014.157
 30
0.0
 40
8.0
  1
31'
 50
358.1878
  7
ROMANS
 72
     1
 11
940759.759332
 21
7297013.861857
 31
0.0
210
0.0
220
0.0
230
1.0
  0
TEXT
  8
11
  6
CONTINUOUS
 62
     7
  5
3E8
 10
940743.648
 20
7297031.581
 30
0.0
 40
8.0
  1
50'
 50
88.1878
  7
ROMANS
 72
     4
 11
940739.945144
 21
7297041.035826
 31
0.0
210
0.0
220
0.0
230
1.0
  0
TEXT
  8
11
  6
CONTINUOUS
 62
     7
  5
3E9
 10
940772.913
 20
7296979.854
 30
0.0
 40
8.0
  1
50'
 50
88.1878
  7
ROMANS
 72
     4
 11
940769.210144
 21
7296989.308826
 31
0.0
210
0.0
220
0.0
230
1.0
  0
TEXT
  8
11
  6
CONTINUOUS
 62
     7
  5
3EA
 10
940787.478
 20
7296928.592
 30
0.0
 40
8.0
  1
50'
 50
88.1878
  7
ROMANS
 72
     4
 11
940783.775144
 21
7296938.046826
 31
0.0
210
0.0
220
0.0
230
1.0
  0
TEXT
  8
11
  6
CONTINUOUS
 62
     7
  5
3EB
 10
940241.645
 20
7296896.632
 30
0.0
 40
8.0
  1
50'
 50
88.1878
  7
ROMANS
 72
     4
 11
940237.942144
 21
7296906.086826
 31
0.0
210
0.0
220
0.0
230
1.0
  0
TEXT
  8
11
  6
CONTINUOUS
 62
     7
  5
3EC
 10
940240.752
 20
7296845.123
 30
0.0
 40
8.0
  1
50'
 50
88.1878
  7
ROMANS
 72
     4
 11
940237.049144
 21
7296854.577826
 31
0.0
210
0.0
220
0.0
230
1.0
  0
TEXT
  8
11
  6
CONTINUOUS
 62
     7
  5
3ED
 10
940243.544
 20
7296933.384
 30
0.0
 40
8.0
  1
25'
 50
88.1878
  7
ROMANS
 72
     4
 11
940239.841144
 21
7296942.838826
 31
0.0
210
0.0
220
0.0
230
1.0
  0
TEXT
  8
11
  6
CONTINUOUS
 62
     7
  5
3EE
 10
940282.508
 20
7296839.385
 30
0.0
 40
8.0
  1
40'
 50
88.1878
  7
ROMANS
 72
     4
 11
940278.805144
 21
7296848.839826
 31
0.0
210
0.0
220
0.0
230
1.0
  0
TEXT
  8
11
  6
CONTINUOUS
 62
     7
  5
3EF
 10
940299.77
 20
7296757.116
 30
0.0
 40
8.0
  1
85'
 50
88.1878
  7
ROMANS
 72
     4
 11
940296.067144
 21
7296766.570826
 31
0.0
210
0.0
220
0.0
230
1.0
  0
TEXT
  8
11
  6
CONTINUOUS
 62
     7
  5
3F0
 10
940335.754
 20
7296754.952
 30
0.0
 40
8.0
  1
125'
 50
88.1878
  7
ROMANS
 72
     4
 11
940332.177638
 21
7296768.404826
 31
0.0
210
0.0
220
0.0
230
1.0
  0
TEXT
  8
11
  6
CONTINUOUS
 62
     7
  5
3F1
 10
940300.841
 20
7296745.19
 30
0.0
 40
8.0
  1
50'
 50
358.1878
  7
ROMANS
 72
     1
 11
940310.169332
 21
7296744.894857
 31
0.0
210
0.0
220
0.0
230
1.0
  0
TEXT
  8
11
  6
CONTINUOUS
 62
     7
  5
3F2
 10
940130.004
 20
7296869.962
 30
0.0
 40
8.0
  1
117'
 50
358.1878
  7
ROMANS
 72
     1
 11
940143.330331
 21
7296869.540363
 31
0.0
210
0.0
220
0.0
230
1.0
  0
TEXT
  8
11
  6
CONTINUOUS
 62
     7
  5
3F3
 10
940296.267
 20
7296856.39
 30
0.0
 40
8.0
  1
70'
 50
358.1878
  7
ROMANS
 72
     1
 11
940305.848321
 21
7296864.090856
 31
0.0
210
0.0
220
0.0
230
1.0
 73
     3
  0
TEXT
  8
11
  6
CONTINUOUS
 62
     7
  5
3F4
 10
940268.541
 20
7296817.247
 30
0.0
 40
8.0
  1
20'
 50
358.1878
  7
ROMANS
 72
     1
 11
940278.122321
 21
7296824.947856
 31
0.0
210
0.0
220
0.0
230
1.0
 73
     3
  0
TEXT
  8
11
  6
CONTINUOUS
 62
     7
  5
3F5
 10
940177.03
 20
7296797.931
 30
0.0
 40
8.0
  1
60'
 50
358.1878
  7
ROMANS
 72
     4
 11
940186.484826
 21
7296801.633856
 31
0.0
210
0.0
220
0.0
230
1.0
  0
TEXT
  8
11
  6
CONTINUOUS
 62
     7
  5
3F6
 10
940247.989
 20
7296842.058
 30
0.0
 40
8.0
  1
34'
 50
358.1878
  7
ROMANS
 72
     4
 11
940257.443826
 21
7296845.760856
 31
0.0
210
0.0
220
0.0
230
1.0
  0
TEXT
  8
11
  6
CONTINUOUS
 62
     7
  5
3F7
 10
940723.306
 20
7296899.813
 30
0.0
 40
8.0
  1
16'
 50
358.1878
  7
ROMANS
 72
     4
 11
940732.760826
 21
7296903.515856
 31
0.0
210
0.0
220
0.0
230
1.0
  0
TEXT
  8
11
  6
CONTINUOUS
 62
     7
  5
3F8
 10
940793.435
 20
7296915.972
 30
0.0
 40
8.0
  1
85.7'
 50
358.1878
  7
ROMANS
 72
     4
 11
940810.885825
 21
7296919.421868
 31
0.0
210
0.0
220
0.0
230
1.0
  0
TEXT
  8
11
  6
CONTINUOUS
 62
     7
  5
3F9
 10
940756.342
 20
7297033.502
 30
0.0
 40
8.0
  1
131.7'
 50
358.1878
  7
ROMANS
 72
     4
 11
940777.790825
 21
7297036.825373
 31
0.0
210
0.0
220
0.0
230
1.0
  0
TEXT
  8
11
  6
CONTINUOUS
 62
     7
  5
3FA
 10
939810.398
 20
7299867.673
 30
0.0
 40
8.0
  1
4053.25'
 50
358.1878
  7
ROMANS
 72
     4
 11
939839.842823
 21
7299870.743385
 31
0.0
210
0.0
220
0.0
230
1.0
  0
INSERT
  8
11
  6
CONTINUOUS
 62
     7
  5
402
  2
*D0
 10
942867.366
 20
7299219.965
 30
0.0
 70
     0
 71
     0
  0
TEXT
  8
11
  6
CONTINUOUS
 62
     7
  5
403
 10
941794.529
 20
7297165.635
 30
0.0
 40
8.0
  1
1859.23'
 50
358.1878
  7
ROMANS
 72
     4
 11
941823.973823
 21
7297168.705385
 31
0.0
210
0.0
220
0.0
230
1.0
  0
TEXT
  8
11
  6
CONTINUOUS
 62
     7
  5
404
 10
941808.742
 20
7296742.831
 30
0.0
 40
8.0
  1
1859.23'
 50
358.1878
  7
ROMANS
 72
     4
 11
941838.186823
 21
7296745.901385
 31
0.0
210
0.0
220
0.0
230
1.0
  0
TEXT
  8
11
  6
CONTINUOUS
 62
     7
  5
405
 10
941778.977
 20
7295315.909
 30
0.0
 40
8.0
  1
1909.23'
 50
358.1878
  7
ROMANS
 72
     4
 11
941808.421823
 21
7295318.979385
 31
0.0
210
0.0
220
0.0
230
1.0
  0
TEXT
  8
11
  6
CONTINUOUS
 62
     7
  5
406
 10
940823.203
 20
7294972.265
 30
0.0
 40
8.0
  1
750'
 50
88.1878
  7
ROMANS
210
0.0
220
0.0
230
1.0
  0
TEXT
  8
11
  6
CONTINUOUS
 62
     7
  5
407
 10
938775.11
 20
7297238.423
 30
0.0
 40
8.0
  1
2542.18'
 50
358.1878
  7
ROMANS
 72
     4
 11
938804.554823
 21
7297241.493385
 31
0.0
210
0.0
220
0.0
230
1.0
  0
TEXT
  8
11
  6
CONTINUOUS
 62
     7
  5
408
 10
940869.69
 20
7296878.23
 30
0.0
 40
8.0
  1
523.95'
 50
88.1878
  7
ROMANS
 72
     4
 11
940866.493121
 21
7296903.676824
 31
0.0
210
0.0
220
0.0
230
1.0
  0
TEXT
  8
11
  6
CONTINUOUS
 62
     7
  5
409
 10
940719.219
 20
7296851.698
 30
0.0
 40
8.0
  1
25'
 50
88.1878
  7
ROMANS
210
0.0
220
0.0
230
1.0
  0
TEXT
  8
11
  6
CONTINUOUS
 62
     7
  5
40A
 10
942864.585
 20
7299523.642
 30
0.0
 40
8.0
  1
520'
 50
88.1878
  7
ROMANS
 72
     4
 11
942861.008638
 21
7299537.094826
 31
0.0
210
0.0
220
0.0
230
1.0
  0
TEXT
  8
11
  6
CONTINUOUS
 62
     7
  5
40B
 10
942831.576
 20
7298246.414
 30
0.0
 40
8.0
  1
2083.7'
 50
88.1878
  7
ROMANS
 72
     4
 11
942828.379121
 21
7298271.860824
 31
0.0
210
0.0
220
0.0
230
1.0
  0
TEXT
  8
11
  6
CONTINUOUS
 62
     7
  5
40C
 10
940813.517
 20
7295127.818
 30
0.0
 40
8.0
  1
1237.5'
 50
88.1878
  7
ROMANS
 72
     4
 11
940810.320121
 21
7295153.264824
 31
0.0
210
0.0
220
0.0
230
1.0
  0
TEXT
  8
11
  6
CONTINUOUS
 62
     7
  5
40D
 10
940853.964
 20
7296502.721
 30
0.0
 40
8.0
  1
188.37'
 50
88.1878
  7
ROMANS
 72
     4
 11
940850.767121
 21
7296528.167824
 31
0.0
210
0.0
220
0.0
230
1.0
  0
LINE
  8
21
  6
DASHDOT
 62
     7
  5
40F
 10
941262.954
 20
7295371.63
 30
0.0
 11
941269.753
 21
7295586.522
 31
0.0
  0
LINE
  8
21
  6
DASHDOT
 62
     7
  5
410
 10
942216.178
 20
7295616.608
 30
0.0
 11
942222.977
 21
7295831.5
 31
0.0
  0
LINE
  8
21
  6
DASHDOT
 62
     7
  5
411
 10
942352.138
 20
7296087.544
 30
0.0
 11
942357.744
 21
7296264.725
 31
0.0
  0
LINE
  8
21
  6
DASHDOT
 62
     7
  5
412
 10
941416.606
 20
7296117.143
 30
0.0
 11
941422.212
 21
7296294.325
 31
0.0
  0
LINE
  8
21
  6
DASHDOT
 62
     7
  5
413
 10
941548.782
 20
7296310.33
 30
0.0
 11
941554.379
 21
7296487.242
 31
0.0
  0
LINE
  8
21
  6
DASHDOT
 62
     7
  5
414
 10
942358.377
 20
7296284.715
 30
0.0
 11
942363.974
 21
7296461.626
 31
0.0
  0
POLYLINE
  8
21
  6
DASHDOT
 62
     7
  5
415
 66
     1
 10
0.0
 20
0.0
 30
0.0
  0
VERTEX
  8
21
  6
DASHDOT
 62
     7
  5
416
 10
940077.014
 20
7296654.273
 30
0.0
  0
VERTEX
  8
21
  6
DASHDOT
 62
     7
  5
417
 10
940094.69
 20
7297212.943
 30
0.0
  0
VERTEX
  8
21
  6
DASHDOT
 62
     7
  5
418
 10
937606.937
 20
7297291.654
 30
0.0
  0
SEQEND
  8
21
  6
DASHDOT
 62
     7
  5
419
  0
POLYLINE
  8
21
  6
DASHDOT
 62
     7
  5
41A
 66
     1
 10
0.0
 20
0.0
 30
0.0
  0
VERTEX
  8
21
  6
DASHDOT
 62
     7
  5
41B
 10
940866.159
 20
7296659.32
 30
0.0
  0
VERTEX
  8
21
  6
DASHDOT
 62
     7
  5
41C
 10
940644.07
 20
7296666.346
 30
0.0
  0
VERTEX
  8
21
  6
DASHDOT
 62
     7
  5
41D
 10
940643.121
 20
7296636.361
 30
0.0
  0
SEQEND
  8
21
  6
DASHDOT
 62
     7
  5
41E
  0
POLYLINE
  8
21
  6
DASHDOT
 62
     7
  5
41F
 66
     1
 10
0.0
 20
0.0
 30
0.0
  0
VERTEX
  8
21
  6
DASHDOT
 62
     7
  5
420
 10
940623.131
 20
7296636.994
 30
0.0
  0
VERTEX
  8
21
  6
DASHDOT
 62
     7
  5
421
 10
940624.08
 20
7296666.979
 30
0.0
  0
VERTEX
  8
21
  6
DASHDOT
 62
     7
  5
422
 10
940342.221
 20
7296675.897
 30
0.0
  0
VERTEX
  8
21
  6
DASHDOT
 62
     7
  5
423
 10
940341.272
 20
7296645.912
 30
0.0
  0
SEQEND
  8
21
  6
DASHDOT
 62
     7
  5
424
  0
POLYLINE
  8
21
  6
DASHDOT
 62
     7
  5
425
 66
     1
 10
0.0
 20
0.0
 30
0.0
  0
VERTEX
  8
21
  6
DASHDOT
 62
     7
  5
426
 10
940321.282
 20
7296646.544
 30
0.0
  0
VERTEX
  8
21
  6
DASHDOT
 62
     7
  5
427
 10
940322.231
 20
7296676.529
 30
0.0
  0
VERTEX
  8
21
  6
DASHDOT
 62
     7
  5
428
 10
940258.263
 20
7296678.553
 30
0.0
  0
VERTEX
  8
21
  6
DASHDOT
 62
     7
  5
429
 10
940257.504
 20
7296654.565
 30
0.0
  0
VERTEX
  8
21
  6
DASHDOT
 62
     7
  5
42A
 10
940088.588
 20
7296659.909
 30
0.0
  0
SEQEND
  8
21
  6
DASHDOT
 62
     7
  5
42B
  0
POLYLINE
  8
21
  6
DASHDOT
 62
     7
  5
42C
 66
     1
 10
0.0
 20
0.0
 30
0.0
  0
VERTEX
  8
21
  6
DASHDOT
 62
     7
  5
42D
 10
940097.637
 20
7296673.63
 30
0.0
  0
VERTEX
  8
21
  6
DASHDOT
 62
     7
  5
42E
 10
940097.51
 20
7296669.632
 30
0.0
  0
VERTEX
  8
21
  6
DASHDOT
 62
     7
  5
42F
 10
940236.441
 20
7296665.237
 30
0.0
  0
VERTEX
  8
21
  6
DASHDOT
 62
     7
  5
430
 10
940239.635
 20
7296766.186
 30
0.0
  0
VERTEX
  8
21
  6
DASHDOT
 62
     7
  5
431
 10
940259.625
 20
7296765.554
 30
0.0
  0
VERTEX
  8
21
  6
DASHDOT
 62
     7
  5
432
 10
940257.506
 20
7296698.587
 30
0.0
  0
VERTEX
  8
21
  6
DASHDOT
 62
     7
  5
433
 10
940307.481
 20
7296697.006
 30
0.0
  0
VERTEX
  8
21
  6
DASHDOT
 62
     7
  5
434
 10
940308.113
 20
7296716.996
 30
0.0
  0
VERTEX
  8
21
  6
DASHDOT
 62
     7
  5
435
 10
940328.103
 20
7296716.363
 30
0.0
  0
VERTEX
  8
21
  6
DASHDOT
 62
     7
  5
436
 10
940327.471
 20
7296696.373
 30
0.0
  0
SEQEND
  8
21
  6
DASHDOT
 62
     7
  5
437
  0
POLYLINE
  8
21
  6
DASHDOT
 62
     7
  5
438
 66
     1
 10
0.0
 20
0.0
 30
0.0
  0
VERTEX
  8
21
  6
DASHDOT
 62
     7
  5
439
 10
940327.471
 20
7296696.373
 30
0.0
  0
VERTEX
  8
21
  6
DASHDOT
 62
     7
  5
43A
 10
940366.451
 20
7296695.14
 30
0.0
  0
VERTEX
  8
21
  6
DASHDOT
 62
     7
  5
43B
 10
940366.768
 20
7296705.135
 30
0.0
  0
VERTEX
  8
21
  6
DASHDOT
 62
     7
  5
43C
 10
940466.718
 20
7296701.973
 30
0.0
  0
VERTEX
  8
21
  6
DASHDOT
 62
     7
  5
43D
 10
940466.401
 20
7296691.978
 30
0.0
  0
VERTEX
  8
21
  6
DASHDOT
 62
     7
  5
43E
 10
940541.364
 20
7296689.606
 30
0.0
  0
VERTEX
  8
21
  6
DASHDOT
 62
     7
  5
43F
 10
940541.743
 20
7296701.6
 30
0.0
  0
SEQEND
  8
21
  6
DASHDOT
 62
     7
  5
440
  0
POLYLINE
  8
21
  6
DASHDOT
 62
     7
  5
441
 66
     1
 10
0.0
 20
0.0
 30
0.0
  0
VERTEX
  8
21
  6
DASHDOT
 62
     7
  5
442
 10
940826.991
 20
7296692.575
 30
0.0
  0
VERTEX
  8
21
  6
DASHDOT
 62
     7
  5
443
 10
940826.611
 20
7296680.581
 30
0.0
  0
VERTEX
  8
21
  6
DASHDOT
 62
     7
  5
444
 10
940646.701
 20
7296686.273
 30
0.0
  0
VERTEX
  8
21
  6
DASHDOT
 62
     7
  5
445
 10
940648.852
 20
7296754.239
 30
0.0
  0
SEQEND
  8
21
  6
DASHDOT
 62
     7
  5
446
  0
POLYLINE
  8
21
  6
DASHDOT
 62
     7
  5
447
 66
     1
 10
0.0
 20
0.0
 30
0.0
  0
VERTEX
  8
21
  6
DASHDOT
 62
     7
  5
448
 10
940621.714
 20
7296687.064
 30
0.0
  0
VERTEX
  8
21
  6
DASHDOT
 62
     7
  5
449
 10
940623.232
 20
7296735.04
 30
0.0
  0
VERTEX
  8
21
  6
DASHDOT
 62
     7
  5
44A
 10
940648.852
 20
7296754.239
 30
0.0
  0
SEQEND
  8
21
  6
DASHDOT
 62
     7
  5
44B
  0
POLYLINE
  8
21
  6
DASHDOT
 62
     7
  5
44C
 66
     1
 10
0.0
 20
0.0
 30
0.0
  0
VERTEX
  8
21
  6
DASHDOT
 62
     7
  5
44D
 10
940621.714
 20
7296687.064
 30
0.0
  0
VERTEX
  8
21
  6
DASHDOT
 62
     7
  5
44E
 10
940608.72
 20
7296687.475
 30
0.0
  0
VERTEX
  8
21
  6
DASHDOT
 62
     7
  5
44F
 10
940609.764
 20
7296720.458
 30
0.0
  0
VERTEX
  8
21
  6
DASHDOT
 62
     7
  5
450
 10
940541.743
 20
7296701.6
 30
0.0
  0
SEQEND
  8
21
  6
DASHDOT
 62
     7
  5
451
  0
POLYLINE
  8
21
  6
DASHDOT
 62
     7
  5
452
 66
     1
 10
0.0
 20
0.0
 30
0.0
  0
VERTEX
  8
21
  6
DASHDOT
 62
     7
  5
453
 10
940866.791
 20
7296679.31
 30
0.0
  0
VERTEX
  8
21
  6
DASHDOT
 62
     7
  5
454
 10
940846.601
 20
7296679.948
 30
0.0
  0
VERTEX
  8
21
  6
DASHDOT
 62
     7
  5
455
 10
940848.527
 20
7296740.818
 30
0.0
  0
VERTEX
  8
21
  6
DASHDOT
 62
     7
  5
456
 10
940868.717
 20
7296740.179
 30
0.0
  0
SEQEND
  8
21
  6
DASHDOT
 62
     7
  5
457
  0
POLYLINE
  8
21
  6
DASHDOT
 62
     7
  5
458
 66
     1
 10
0.0
 20
0.0
 30
0.0
  0
VERTEX
  8
21
  6
DASHDOT
 62
     7
  5
459
 10
940869.602
 20
7296768.165
 30
0.0
  0
VERTEX
  8
21
  6
DASHDOT
 62
     7
  5
45A
 10
940849.412
 20
7296768.804
 30
0.0
  0
VERTEX
  8
21
  6
DASHDOT
 62
     7
  5
45B
 10
940853.74
 20
7296905.576
 30
0.0
  0
SEQEND
  8
21
  6
DASHDOT
 62
     7
  5
45C
  0
LINE
  8
21
  6
DASHDOT
 62
     7
  5
45D
 10
940832.525
 20
7296867.487
 30
0.0
 11
940833.659
 21
7296903.329
 31
0.0
  0
LINE
  8
21
  6
DASHDOT
 62
     7
  5
45E
 10
940813.645
 20
7297156.179
 30
0.0
 11
940814.088
 21
7297170.172
 31
0.0
  0
POLYLINE
  8
21
  6
DASHDOT
 62
     7
  5
45F
 66
     1
 10
0.0
 20
0.0
 30
0.0
  0
VERTEX
  8
21
  6
DASHDOT
 62
     7
  5
460
 10
940834.078
 20
7297169.539
 30
0.0
  0
VERTEX
  8
21
  6
DASHDOT
 62
     7
  5
461
 10
940832.465
 20
7297118.565
 30
0.0
  0
VERTEX
  8
21
  6
DASHDOT
 62
     7
  5
462
 10
940842.46
 20
7297118.249
 30
0.0
  0
VERTEX
  8
21
  6
DASHDOT
 62
     7
  5
463
 10
940842.428
 20
7297117.249
 30
0.0
  0
VERTEX
  8
21
  6
DASHDOT
 62
     7
  5
464
 10
940880.609
 20
7297116.041
 30
0.0
  0
SEQEND
  8
21
  6
DASHDOT
 62
     7
  5
465
  0
POLYLINE
  8
21
  6
DASHDOT
 62
     7
  5
466
 66
     1
 10
0.0
 20
0.0
 30
0.0
  0
VERTEX
  8
21
  6
DASHDOT
 62
     7
  5
467
 10
940880.04
 20
7297098.05
 30
0.0
  0
VERTEX
  8
21
  6
DASHDOT
 62
     7
  5
468
 10
940841.859
 20
7297099.258
 30
0.0
  0
VERTEX
  8
21
  6
DASHDOT
 62
     7
  5
469
 10
940841.827
 20
7297098.259
 30
0.0
  0
VERTEX
  8
21
  6
DASHDOT
 62
     7
  5
46A
 10
940831.832
 20
7297098.575
 30
0.0
  0
VERTEX
  8
21
  6
DASHDOT
 62
     7
  5
46B
 10
940831.2
 20
7297078.585
 30
0.0
  0
VERTEX
  8
21
  6
DASHDOT
 62
     7
  5
46C
 10
940879.376
 20
7297077.061
 30
0.0
  0
SEQEND
  8
21
  6
DASHDOT
 62
     7
  5
46D
  0
POLYLINE
  8
21
  6
DASHDOT
 62
     7
  5
46E
 66
     1
 10
0.0
 20
0.0
 30
0.0
  0
VERTEX
  8
21
  6
DASHDOT
 62
     7
  5
46F
 10
940878.806
 20
7297059.07
 30
0.0
  0
VERTEX
  8
21
  6
DASHDOT
 62
     7
  5
470
 10
940827.632
 20
7297060.689
 30
0.0
  0
VERTEX
  8
21
  6
DASHDOT
 62
     7
  5
471
 10
940825.219
 20
7296984.407
 30
0.0
  0
VERTEX
  8
21
  6
DASHDOT
 62
     7
  5
472
 10
940853.74
 20
7296905.576
 30
0.0
  0
SEQEND
  8
21
  6
DASHDOT
 62
     7
  5
473
  0
POLYLINE
  8
21
  6
DASHDOT
 62
     7
  5
474
 66
     1
 10
0.0
 20
0.0
 30
0.0
  0
VERTEX
  8
21
  6
DASHDOT
 62
     7
  5
475
 10
940807.642
 20
7297061.321
 30
0.0
  0
VERTEX
  8
21
  6
DASHDOT
 62
     7
  5
476
 10
940805.103
 20
7296981.061
 30
0.0
  0
VERTEX
  8
21
  6
DASHDOT
 62
     7
  5
477
 10
940833.659
 20
7296903.329
 30
0.0
  0
SEQEND
  8
21
  6
DASHDOT
 62
     7
  5
478
  0
LINE
  8
21
  6
DASHDOT
 62
     7
  5
479
 10
940807.642
 20
7297061.321
 30
0.0
 11
940664.414
 21
7297065.853
 31
0.0
  0
POLYLINE
  8
21
  6
DASHDOT
 62
     7
  5
47A
 66
     1
 10
0.0
 20
0.0
 30
0.0
  0
VERTEX
  8
21
  6
DASHDOT
 62
     7
  5
47B
 10
940811.273
 20
7297081.216
 30
0.0
  0
VERTEX
  8
21
  6
DASHDOT
 62
     7
  5
47C
 10
940811.21
 20
7297079.217
 30
0.0
  0
VERTEX
  8
21
  6
DASHDOT
 62
     7
  5
47D
 10
940673.279
 20
7297083.581
 30
0.0
  0
SEQEND
  8
21
  6
DASHDOT
 62
     7
  5
47E
  0
POLYLINE
  8
21
  6
DASHDOT
 62
     7
  5
47F
 66
     1
 10
0.0
 20
0.0
 30
0.0
  0
VERTEX
  8
21
  6
DASHDOT
 62
     7
  5
480
 10
940499.273
 20
7297130.107
 30
0.0
  0
VERTEX
  8
21
  6
DASHDOT
 62
     7
  5
481
 10
940499.589
 20
7297140.102
 30
0.0
  0
VERTEX
  8
21
  6
DASHDOT
 62
     7
  5
482
 10
940471.603
 20
7297140.988
 30
0.0
  0
VERTEX
  8
21
  6
DASHDOT
 62
     7
  5
483
 10
940471.445
 20
7297135.99
 30
0.0
  0
SEQEND
  8
21
  6
DASHDOT
 62
     7
  5
484
  0
POLYLINE
  8
21
  6
DASHDOT
 62
     7
  5
485
 66
     1
 10
0.0
 20
0.0
 30
0.0
  0
VERTEX
  8
21
  6
DASHDOT
 62
     7
  5
486
 10
940499.273
 20
7297130.107
 30
0.0
  0
VERTEX
  8
21
  6
DASHDOT
 62
     7
  5
487
 10
940584.231
 20
7297127.419
 30
0.0
  0
VERTEX
  8
21
  6
DASHDOT
 62
     7
  5
488
 10
940584.547
 20
7297137.414
 30
0.0
  0
VERTEX
  8
21
  6
DASHDOT
 62
     7
  5
489
 10
940597.74
 20
7297136.997
 30
0.0
  0
VERTEX
  8
21
  6
DASHDOT
 62
     7
  5
48A
 10
940664.414
 20
7297065.853
 30
0.0
  0
SEQEND
  8
21
  6
DASHDOT
 62
     7
  5
48B
  0
LINE
  8
21
  6
DASHDOT
 62
     7
  5
48C
 10
940585.347
 20
7297177.409
 30
0.0
 11
940673.279
 21
7297083.581
 31
0.0
  0
POLYLINE
  8
21
  6
DASHDOT
 62
     7
  5
48D
 66
     1
 10
0.0
 20
0.0
 30
0.0
  0
VERTEX
  8
21
  6
DASHDOT
 62
     7
  5
48E
 10
940574.352
 20
7297177.757
 30
0.0
  0
VERTEX
  8
21
  6
DASHDOT
 62
     7
  5
48F
 10
940573.594
 20
7297153.769
 30
0.0
  0
VERTEX
  8
21
  6
DASHDOT
 62
     7
  5
490
 10
940374.693
 20
7297160.062
 30
0.0
  0
SEQEND
  8
21
  6
DASHDOT
 62
     7
  5
491
  0
LINE
  8
21
  6
DASHDOT
 62
     7
  5
492
 10
940135.657
 20
7297179.631
 30
0.0
 11
940136.632
 21
7297210.443
 31
0.0
  0
LINE
  8
21
  6
DASHDOT
 62
     7
  5
493
 10
940135.657
 20
7297179.631
 30
0.0
 11
940253.598
 21
7297175.899
 31
0.0
  0
LINE
  8
21
  6
DASHDOT
 62
     7
  5
494
 10
940253.598
 20
7297175.899
 30
0.0
 11
940374.693
 21
7297160.062
 31
0.0
  0
POLYLINE
  8
21
  6
DASHDOT
 62
     7
  5
495
 66
     1
 10
0.0
 20
0.0
 30
0.0
  0
VERTEX
  8
21
  6
DASHDOT
 62
     7
  5
496
 10
940134.962
 20
7297157.642
 30
0.0
  0
VERTEX
  8
21
  6
DASHDOT
 62
     7
  5
497
 10
940135.025
 20
7297159.641
 30
0.0
  0
VERTEX
  8
21
  6
DASHDOT
 62
     7
  5
498
 10
940251.966
 20
7297155.941
 30
0.0
  0
SEQEND
  8
21
  6
DASHDOT
 62
     7
  5
499
  0
POLYLINE
  8
21
  6
DASHDOT
 62
     7
  5
49A
 66
     1
 10
0.0
 20
0.0
 30
0.0
  0
VERTEX
  8
21
  6
DASHDOT
 62
     7
  5
49B
 10
940103.676
 20
7297180.721
 30
0.0
  0
VERTEX
  8
21
  6
DASHDOT
 62
     7
  5
49C
 10
940115.67
 20
7297180.341
 30
0.0
  0
VERTEX
  8
21
  6
DASHDOT
 62
     7
  5
49D
 10
940116.65
 20
7297211.326
 30
0.0
  0
SEQEND
  8
21
  6
DASHDOT
 62
     7
  5
49E
  0
POLYLINE
  8
21
  6
DASHDOT
 62
     7
  5
49F
 66
     1
 10
0.0
 20
0.0
 30
0.0
  0
VERTEX
  8
21
  6
DASHDOT
 62
     7
  5
4A0
 10
940103.043
 20
7297160.731
 30
0.0
  0
VERTEX
  8
21
  6
DASHDOT
 62
     7
  5
4A1
 10
940115.037
 20
7297160.351
 30
0.0
  0
VERTEX
  8
21
  6
DASHDOT
 62
     7
  5
4A2
 10
940113.836
 20
7297122.37
 30
0.0
  0
VERTEX
  8
21
  6
DASHDOT
 62
     7
  5
4A3
 10
940101.842
 20
7297122.75
 30
0.0
  0
SEQEND
  8
21
  6
DASHDOT
 62
     7
  5
4A4
  0
POLYLINE
  8
21
  6
DASHDOT
 62
     7
  5
4A5
 66
     1
 10
0.0
 20
0.0
 30
0.0
  0
VERTEX
  8
21
  6
DASHDOT
 62
     7
  5
4A6
 10
940101.209
 20
7297102.76
 30
0.0
  0
VERTEX
  8
21
  6
DASHDOT
 62
     7
  5
4A7
 10
940113.203
 20
7297102.38
 30
0.0
  0
VERTEX
  8
21
  6
DASHDOT
 62
     7
  5
4A8
 10
940107.432
 20
7296919.972
 30
0.0
  0
VERTEX
  8
21
  6
DASHDOT
 62
     7
  5
4A9
 10
940095.438
 20
7296920.351
 30
0.0
  0
SEQEND
  8
21
  6
DASHDOT
 62
     7
  5
4AA
  0
POLYLINE
  8
21
  6
DASHDOT
 62
     7
  5
4AB
 66
     1
 10
0.0
 20
0.0
 30
0.0
  0
VERTEX
  8
21
  6
DASHDOT
 62
     7
  5
4AC
 10
940095.28
 20
7296915.354
 30
0.0
  0
VERTEX
  8
21
  6
DASHDOT
 62
     7
  5
4AD
 10
940107.274
 20
7296914.974
 30
0.0
  0
VERTEX
  8
21
  6
DASHDOT
 62
     7
  5
4AE
 10
940103.779
 20
7296804.529
 30
0.0
  0
VERTEX
  8
21
  6
DASHDOT
 62
     7
  5
4AF
 10
940091.406
 20
7296792.915
 30
0.0
  0
SEQEND
  8
21
  6
DASHDOT
 62
     7
  5
4B0
  0
LINE
  8
21
  6
DASHDOT
 62
     7
  5
4B1
 10
940321.723
 20
7297146.817
 30
0.0
 11
940319.762
 21
7297084.848
 31
0.0
  0
POLYLINE
  8
21
  6
DASHDOT
 62
     7
  5
4B2
 66
     1
 10
0.0
 20
0.0
 30
0.0
  0
VERTEX
  8
21
  6
DASHDOT
 62
     7
  5
4B3
 10
940368.217
 20
7297140.468
 30
0.0
  0
VERTEX
  8
21
  6
DASHDOT
 62
     7
  5
4B4
 10
940367.363
 20
7297113.481
 30
0.0
  0
VERTEX
  8
21
  6
DASHDOT
 62
     7
  5
4B5
 10
940471.445
 20
7297135.99
 30
0.0
  0
SEQEND
  8
21
  6
DASHDOT
 62
     7
  5
4B6
  0
LINE
  8
21
  6
DASHDOT
 62
     7
  5
4B7
 10
940251.966
 20
7297155.941
 30
0.0
 11
940321.723
 21
7297146.817
 31
0.0
  0
LINE
  8
21
  6
DASHDOT
 62
     7
  5
4B8
 10
940355.364
 20
7297142.418
 30
0.0
 11
940368.226
 21
7297140.737
 31
0.0
  0
POLYLINE
  8
21
  6
DASHDOT
 62
     7
  5
4B9
 66
     1
 10
0.0
 20
0.0
 30
0.0
  0
VERTEX
  8
21
  6
DASHDOT
 62
     7
  5
4BA
 10
940355.364
 20
7297142.418
 30
0.0
  0
VERTEX
  8
21
  6
DASHDOT
 62
     7
  5
4BB
 10
940354.131
 20
7297103.438
 30
0.0
  0
VERTEX
  8
21
  6
DASHDOT
 62
     7
  5
4BC
 10
940319.762
 20
7297084.848
 30
0.0
  0
SEQEND
  8
21
  6
DASHDOT
 62
     7
  5
4BD
  0
POLYLINE
  8
1
  6
HIDDEN
 62
   253
  5
4BF
 66
     1
 10
0.0
 20
0.0
 30
0.0
 70
     1
  0
VERTEX
  8
1
  6
HIDDEN
 62
   253
  5
4C0
 10
942980.555
 20
7299861.556
 30
0.0
  0
VERTEX
  8
1
  6
HIDDEN
 62
   253
  5
4C1
 10
937690.811
 20
7300004.558
 30
0.0
  0
VERTEX
  8
1
  6
HIDDEN
 62
   253
  5
4C2
 10
937528.847
 20
7294765.819
 30
0.0
  0
VERTEX
  8
1
  6
HIDDEN
 62
   253
  5
4C3
 10
942818.036
 20
7294618.83
 30
0.0
  0
SEQEND
  8
1
  6
HIDDEN
 62
   253
  5
4C4
  0
TEXT
  8
22
  6
CONTINUOUS
 62
     3
  5
4C6
 10
937875.823
 20
7297271.223
 30
0.0
 40
8.0
  1
10'  UUE
 50
358.1878
  7
ROMANS
210
0.0
220
0.0
230
1.0
  0
TEXT
  8
22
  6
CONTINUOUS
 62
     3
  5
4C7
 10
938895.346
 20
7297241.427
 30
0.0
 40
8.0
  1
10'  UUE
 50
358.1878
  7
ROMANS
210
0.0
220
0.0
230
1.0
  0
TEXT
  8
22
  6
CONTINUOUS
 62
     3
  5
4C8
 10
939887.693
 20
7297207.568
 30
0.0
 40
8.0
  1
10'  UUE
 50
358.1878
  7
ROMANS
210
0.0
220
0.0
230
1.0
  0
TEXT
  8
22
  6
CONTINUOUS
 62
     3
  5
4C9
 10
940394.752
 20
7297166.038
 30
0.0
 40
8.0
  1
UTILITIES EASEMENT
 50
358.1878
  7
ROMANS
210
0.0
220
0.0
230
1.0
  0
TEXT
  8
22
  6
CONTINUOUS
 62
     3
  5
4CA
 10
940736.415
 20
7297067.336
 30
0.0
 40
8.0
  1
UTILITIES EASEMENT
 50
358.1878
  7
ROMANS
210
0.0
220
0.0
230
1.0
  0
TEXT
  8
22
  6
CONTINUOUS
 62
     3
  5
4CB
 10
940840.786
 20
7296710.934
 30
0.0
 40
8.0
  1
UTILITIES EASEMENT
 50
88.1878
  7
ROMANS
210
0.0
220
0.0
230
1.0
  0
TEXT
  8
22
  6
CONTINUOUS
 62
     3
  5
4CC
 10
940444.113
 20
7296677.573
 30
0.0
 40
8.0
  1
UTILITIES EASEMENT
 50
358.1878
  7
ROMANS
210
0.0
220
0.0
230
1.0
  0
TEXT
  8
22
  6
CONTINUOUS
 62
     3
  5
4CD
 10
940076.893
 20
7296872.444
 30
0.0
 40
8.0
  1
10'  UUE
 50
88.1878
  7
ROMANS
210
0.0
220
0.0
230
1.0
  0
TEXT
  8
19
  6
CONTINUOUS
 62
     1
  5
4CF
 10
942437.661
 20
7296484.057
 30
0.0
 40
24.0
  1
PURDUE ST
 50
358.1878
  7
ROMANC
 72
     4
 11
942555.895508
 21
7296492.322135
 31
0.0
210
0.0
220
0.0
230
1.0
  0
TEXT
  8
19
  6
CONTINUOUS
 62
     1
  5
4D0
 10
942373.872
 20
7296046.717
 30
0.0
 40
24.0
  1
NEWCOMB  ST
 50
358.1878
  7
ROMANC
 72
     4
 11
942521.287906
 21
7296054.058853
 31
0.0
210
0.0
220
0.0
230
1.0
  0
TEXT
  8
19
  6
CONTINUOUS
 62
     1
  5
4D1
 10
942338.684
 20
7295573.065
 30
0.0
 40
24.0
  1
MARLBORO  ST
 50
358.1878
  7
ROMANC
 72
     4
 11
942494.976464
 21
7295580.126004
 31
0.0
210
0.0
220
0.0
230
1.0
  0
TEXT
  8
19
  6
CONTINUOUS
 62
     1
  5
4D2
 10
942230.339
 20
7294583.049
 30
0.0
 40
24.0
  1
KENT ST
 50
358.1878
  7
ROMANC
 72
     4
 11
942318.638488
 21
7294592.261261
 31
0.0
210
0.0
220
0.0
230
1.0
  0
TEXT
  8
19
  6
CONTINUOUS
 62
     1
  5
4D3
 10
941829.288
 20
7295700.027
 30
0.0
 40
24.0
  1
N AKRON AVE
 50
88.1878
  7
ROMANC
 72
     4
 11
941822.101482
 21
7295852.352449
 31
0.0
210
0.0
220
0.0
230
1.0
  0
TEXT
  8
19
  6
CONTINUOUS
 62
     1
  5
4D4
 10
937542.434
 20
7294779.437
 30
0.0
 40
24.0
  1
INDIANA AVE
 50
88.1878
  7
ROMANC
 72
     4
 11
937534.83217
 21
7294918.636018
 31
0.0
210
0.0
220
0.0
230
1.0
  0
TEXT
  8
19
  6
CONTINUOUS
 62
     1
  5
4D5
 10
942785.477
 20
7295653.34
 30
0.0
 40
24.0
  1
N UNIVERSITY AVE
 50
88.1878
  7
ROMANC
 72
     4
 11
942780.044358
 21
7295861.09871
 31
0.0
210
0.0
220
0.0
230
1.0
  0
TEXT
  8
19
  6
CONTINUOUS
 62
     1
  5
4D6
 10
937868.707
 20
7299955.528
 30
0.0
 40
24.0
  1
FARM RD 2641 (BLUEFIELD ST.)
 50
358.1878
  7
ROMANC
 72
     4
 11
938205.374204
 21
7299956.882054
 31
0.0
210
0.0
220
0.0
230
1.0
  0
TEXT
  8
19
  6
CONTINUOUS
 62
     1
  5
4D7
 10
939650.295
 20
7299903.579
 30
0.0
 40
24.0
  1
FARM RD 2641 (BLUEFIELD ST.)
 50
358.1878
  7
ROMANC
 72
     4
 11
939986.962204
 21
7299904.933054
 31
0.0
210
0.0
220
0.0
230
1.0
  0
TEXT
  8
19
  6
CONTINUOUS
 62
     1
  5
4D8
 10
941882.4
 20
7299829.198
 30
0.0
 40
24.0
  1
FARM RD 2641 (BLUEFIELD ST.)
 50
358.1878
  7
ROMANC
 72
     4
 11
942219.067204
 21
7299830.552054
 31
0.0
210
0.0
220
0.0
230
1.0
  0
TEXT
  8
19
  6
CONTINUOUS
 62
     1
  5
4D9
 10
942405.767
 20
7297124.718
 30
0.0
 40
24.0
  1
REGIS ST
 50
358.1878
  7
ROMANC
 72
     4
 11
942499.069984
 21
7297133.771954
 31
0.0
210
0.0
220
0.0
230
1.0
  0
TEXT
  8
19
  6
CONTINUOUS
 62
     1
  5
4DA
 10
940326.357
 20
7297212.598
 30
0.0
 40
24.0
  1
REGIS ST
 50
358.1878
  7
ROMANC
 72
     4
 11
940419.659984
 21
7297221.651954
 31
0.0
210
0.0
220
0.0
230
1.0
  0
TEXT
  8
19
  6
CONTINUOUS
 62
     1
  5
4DB
 10
938075.993
 20
7297298.558
 30
0.0
 40
24.0
  1
REGIS ST
 50
358.1878
  7
ROMANC
 72
     4
 11
938169.295984
 21
7297307.611954
 31
0.0
210
0.0
220
0.0
230
1.0
  0
TEXT
  8
19
  6
CONTINUOUS
 62
     1
  5
4DC
 10
940896.639
 20
7296501.994
 30
0.0
 40
24.0
  1
N BOSTON AVE
 50
88.1878
  7
ROMANC
 72
     4
 11
940889.718405
 21
7296662.724243
 31
0.0
210
0.0
220
0.0
230
1.0
  0
TEXT
  8
19
  6
CONTINUOUS
 62
     1
  5
4DD
 10
942858.93
 20
7298141.185
 30
0.0
 40
24.0
  1
N UNIVERSITY AVE
 50
88.1878
  7
ROMANC
 72
     4
 11
942853.497358
 21
7298348.94371
 31
0.0
210
0.0
220
0.0
230
1.0
  0
TEXT
  8
22
  6
CONTINUOUS
 62
     3
  5
4DE
 10
941547.585
 20
7296373.597
 30
0.0
 40
8.0
  1
2' USE
 50
88.1878
  7
ROMANS
210
0.0
220
0.0
230
1.0
  0
TEXT
  8
22
  6
CONTINUOUS
 62
     3
  5
4DF
 10
941433.027
 20
7296185.474
 30
0.0
 40
8.0
  1
2' USE
 50
88.1878
  7
ROMANS
210
0.0
220
0.0
230
1.0
  0
TEXT
  8
22
  6
CONTINUOUS
 62
     3
  5
4E0
 10
941278.094
 20
7295457.134
 30
0.0
 40
8.0
  1
2' USE
 50
88.1878
  7
ROMANS
210
0.0
220
0.0
230
1.0
  0
LINE
  8
6
  6
CONTINUOUS
 62
     7
  5
4E1
 10
940823.727
 20
7295358.493
 30
0.0
 11
940865.108
 21
7296629.499
 31
0.0
  0
TEXT
  8
11
  6
CONTINUOUS
 62
     7
  5
4E2
 10
942747.601
 20
7295280.776
 30
0.0
 40
8.0
  1
50'
 50
358.1878
  7
ROMANS
210
0.0
220
0.0
230
1.0
  0
TEXT
  8
11
  6
CONTINUOUS
 62
     7
  5
4E3
 10
941778.977
 20
7295315.909
 30
0.0
 40
8.0
  1
1909.23'
 50
358.1878
  7
ROMANS
 72
     4
 11
941808.421823
 21
7295318.979385
 31
0.0
210
0.0
220
0.0
230
1.0
  0
LINE
  8
6
  6
CONTINUOUS
 62
     7
  5
4E4
 10
942717.625
 20
7295304.016
 30
0.0
 11
942714.863
 21
7295199.683
 31
0.0
  0
ARC
  8
6
  6
CONTINUOUS
 62
     7
  5
4E5
 10
942699.868049
 20
7295200.079609
 30
0.0
 40
15.000276
 50
268.1352
 51
358.482789
210
0.0
220
0.0
230
1.0
  0
LINE
  8
7
  6
CONTINUOUS
 62
     7
  5
4E6
 10
942635.759
 20
7295308.299
 30
0.0
 11
942631.977
 21
7295188.786
 31
0.0
  0
LINE
  8
7
  6
CONTINUOUS
 62
     7
  5
4E7
 10
942555.802
 20
7295310.939
 30
0.0
 11
942552.017
 21
7295191.316
 31
0.0
  0
LINE
  8
7
  6
CONTINUOUS
 62
     7
  5
4E8
 10
942475.845
 20
7295313.577
 30
0.0
 11
942472.057
 21
7295193.845
 31
0.0
  0
LINE
  8
7
  6
CONTINUOUS
 62
     7
  5
4E9
 10
942395.889
 20
7295316.217
 30
0.0
 11
942392.097
 21
7295196.375
 31
0.0
  0
LINE
  8
7
  6
CONTINUOUS
 62
     7
  5
4EA
 10
942315.932
 20
7295318.857
 30
0.0
 11
942312.137
 21
7295198.905
 31
0.0
  0
LINE
  8
7
  6
CONTINUOUS
 62
     7
  5
4EB
 10
942235.976
 20
7295321.497
 30
0.0
 11
942232.177
 21
7295201.435
 31
0.0
  0
LINE
  8
7
  6
CONTINUOUS
 62
     7
  5
4EC
 10
942156.019
 20
7295324.136
 30
0.0
 11
942152.217
 21
7295203.965
 31
0.0
  0
LINE
  8
7
  6
CONTINUOUS
 62
     7
  5
4ED
 10
942076.063
 20
7295326.776
 30
0.0
 11
942072.257
 21
7295206.495
 31
0.0
  0
LINE
  8
7
  6
CONTINUOUS
 62
     7
  5
4EE
 10
941996.106
 20
7295329.415
 30
0.0
 11
941992.297
 21
7295209.025
 31
0.0
  0
LINE
  8
7
  6
CONTINUOUS
 62
     7
  5
4EF
 10
941916.15
 20
7295332.055
 30
0.0
 11
941912.337
 21
7295211.555
 31
0.0
  0
LINE
  8
6
  6
CONTINUOUS
 62
     7
  5
4F0
 10
941829.906
 20
7295334.137
 30
0.0
 11
941826.467
 21
7295228.516
 31
0.0
  0
LINE
  8
6
  6
CONTINUOUS
 62
     7
  5
4F1
 10
941777.935
 20
7295335.901
 30
0.0
 11
941774.495
 21
7295230.209
 31
0.0
  0
LINE
  8
6
  6
CONTINUOUS
 62
     7
  5
4F2
 10
940881.943
 20
7295244.26
 30
0.0
 11
941759.014
 21
7295215.704
 31
0.0
  0
LINE
  8
6
  6
CONTINUOUS
 62
     7
  5
4F3
 10
941840.971
 20
7295213.035
 30
0.0
 11
942699.38
 21
7295185.088
 31
0.0
  0
LINE
  8
7
  6
CONTINUOUS
 62
     7
  5
4F4
 10
941694.271
 20
7295339.381
 30
0.0
 11
941690.448
 21
7295218.575
 31
0.0
  0
LINE
  8
7
  6
CONTINUOUS
 62
     7
  5
4F5
 10
941612.385
 20
7295342.083
 30
0.0
 11
941608.559
 21
7295221.166
 31
0.0
  0
LINE
  8
7
  6
CONTINUOUS
 62
     7
  5
4F6
 10
941284.883
 20
7295352.895
 30
0.0
 11
941281.043
 21
7295231.528
 31
0.0
  0
LINE
  8
7
  6
CONTINUOUS
 62
     7
  5
4F7
 10
941202.998
 20
7295355.599
 30
0.0
 11
941199.154
 21
7295234.119
 31
0.0
  0
LINE
  8
7
  6
CONTINUOUS
 62
     7
  5
4F8
 10
941121.112
 20
7295358.301
 30
0.0
 11
941117.265
 21
7295236.71
 31
0.0
  0
LINE
  8
7
  6
CONTINUOUS
 62
     7
  5
4F9
 10
941039.227
 20
7295361.005
 30
0.0
 11
941035.376
 21
7295239.301
 31
0.0
  0
LINE
  8
7
  6
CONTINUOUS
 62
     7
  5
4FA
 10
940957.341
 20
7295363.708
 30
0.0
 11
940953.487
 21
7295241.892
 31
0.0
  0
ARC
  8
6
  6
CONTINUOUS
 62
     7
  5
4FB
 10
941759.502334
 20
7295230.696409
 30
0.0
 40
15.0
 50
268.1352
 51
358.1352
210
0.0
220
0.0
230
1.0
  0
ARC
  8
6
  6
CONTINUOUS
 62
     7
  5
4FC
 10
941841.458907
 20
7295228.028035
 30
0.0
 40
15.0
 50
178.1352
 51
268.1352
210
0.0
220
0.0
230
1.0
  0
LINE
  8
6
  6
CONTINUOUS
 62
     7
  5
4FD
 10
940871.139
 20
7295366.671
 30
0.0
 11
940867.44
 21
7295259.771
 31
0.0
  0
ARC
  8
6
  6
CONTINUOUS
 62
     7
  5
4FE
 10
940882.43108
 20
7295259.252443
 30
0.0
 40
15.000032
 50
178.016789
 51
267.898378
210
0.0
220
0.0
230
1.0
  0
LINE
  8
6
  6
CONTINUOUS
 62
     7
  5
4FF
 10
940871.139
 20
7295366.671
 30
0.0
 11
941777.935
 21
7295335.901
 31
0.0
  0
LINE
  8
6
  6
CONTINUOUS
 62
     7
  5
500
 10
941829.906
 20
7295334.137
 30
0.0
 11
942717.625
 21
7295304.016
 31
0.0
  0
LINE
  8
6
  6
CONTINUOUS
 62
     7
  5
501
 10
940880.084
 20
7295192.296
 30
0.0
 11
941916.604
 21
7295158.549
 31
0.0
  0
LINE
  8
6
  6
CONTINUOUS
 62
     7
  5
502
 10
941998.562
 20
7295155.88
 30
0.0
 11
942698.19
 21
7295133.1
 31
0.0
  0
ARC
  8
6
  6
CONTINUOUS
 62
     7
  5
503
 10
940879.595827
 20
7295177.303305
 30
0.0
 40
15.0
 50
88.135078
 51
178.016789
210
0.0
220
0.0
230
1.0
  0
ARC
  8
6
  6
CONTINUOUS
 62
     7
  5
504
 10
941916.116623
 20
7295143.55585
 30
0.0
 40
15.0
 50
358.1352
 51
88.1352
210
0.0
220
0.0
230
1.0
  0
ARC
  8
6
  6
CONTINUOUS
 62
     7
  5
505
 10
941998.073196
 20
7295140.887475
 30
0.0
 40
15.0
 50
88.1352
 51
178.1352
210
0.0
220
0.0
230
1.0
  0
ARC
  8
6
  6
CONTINUOUS
 62
     7
  5
506
 10
942697.698727
 20
7295118.10879
 30
0.0
 40
15.0
 50
358.467517
 51
88.120886
210
0.0
220
0.0
230
1.0
  0
TEXT
  8
11
  6
CONTINUOUS
 62
     7
  5
508
 10
940879.604
 20
7295283.337
 30
0.0
 40
8.0
  1
106.97'
 50
88.071025
  7
txt
 72
     1
 11
940872.34422
 21
7295305.4499
 31
0.0
210
0.0
220
0.0
230
1.0
 73
     3
  0
TEXT
  8
11
  6
CONTINUOUS
 62
     7
  5
509
 10
940908.68
 20
7295355.309
 30
0.0
 40
8.0
  1
85'
 50
358.109183
  7
txt
 72
     1
 11
940918.576712
 21
7295362.986638
 31
0.0
210
0.0
220
0.0
230
1.0
 73
     3
  0
TEXT
  8
11
  6
CONTINUOUS
 62
     7
  5
50A
 10
940979.884
 20
7295242.919
 30
0.0
 40
8.0
  1
81.93'
 50
358.109183
  7
txt
 72
     1
 11
940998.184134
 21
7295250.319217
 31
0.0
210
0.0
220
0.0
230
1.0
 73
     3
  0
TEXT
  8
11
  6
CONTINUOUS
 62
     7
  5
50B
 10
941064.839
 20
7295241.416
 30
0.0
 40
8.0
  1
81.93'
 50
358.109183
  7
txt
 72
     1
 11
941083.139134
 21
7295248.816217
 31
0.0
210
0.0
220
0.0
230
1.0
 73
     3
  0
TEXT
  8
11
  6
CONTINUOUS
 62
     7
  5
50C
 10
941145.829
 20
7295237.44
 30
0.0
 40
8.0
  1
81.93'
 50
358.109183
  7
txt
 72
     1
 11
941164.129134
 21
7295244.840217
 31
0.0
210
0.0
220
0.0
230
1.0
 73
     3
  0
TEXT
  8
11
  6
CONTINUOUS
 62
     7
  5
50D
 10
941226.852
 20
7295234.766
 30
0.0
 40
8.0
  1
81.93'
 50
358.109183
  7
txt
 72
     1
 11
941245.152134
 21
7295242.166217
 31
0.0
210
0.0
220
0.0
230
1.0
 73
     3
  0
TEXT
  8
11
  6
CONTINUOUS
 62
     7
  5
50E
 10
941636.561
 20
7295221.239
 30
0.0
 40
8.0
  1
81.93'
 50
358.109183
  7
txt
 72
     1
 11
941654.861134
 21
7295228.639217
 31
0.0
210
0.0
220
0.0
230
1.0
 73
     3
  0
TEXT
  8
11
  6
CONTINUOUS
 62
     7
  5
50F
 10
941730.52
 20
7295328.178
 30
0.0
 40
8.0
  1
85'
 50
358.109183
  7
txt
 72
     1
 11
941740.416712
 21
7295335.855638
 31
0.0
210
0.0
220
0.0
230
1.0
 73
     3
  0
TEXT
  8
11
  6
CONTINUOUS
 62
     7
  5
510
 10
941775.214
 20
7295259.861
 30
0.0
 40
8.0
  1
105.75'
 50
88.1878
  7
txt
 72
     1
 11
941767.921183
 21
7295282.338867
 31
0.0
210
0.0
220
0.0
230
1.0
 73
     3
  0
TEXT
  8
11
  6
CONTINUOUS
 62
     7
  5
511
 10
941723.286
 20
7295219.537
 30
0.0
 40
8.0
  1
70'
 50
358.1878
  7
txt
 72
     1
 11
941732.91818
 21
7295219.232244
 31
0.0
210
0.0
220
0.0
230
1.0
  0
TEXT
  8
11
  6
CONTINUOUS
 62
     7
  5
512
 10
941700.699
 20
7295264.279
 30
0.0
 40
8.0
  1
120.87'
 50
88.1878
  7
txt
 72
     4
 11
941697.404183
 21
7295286.630373
 31
0.0
210
0.0
220
0.0
230
1.0
  0
TEXT
  8
11
  6
CONTINUOUS
 62
     7
  5
513
 10
941618.981
 20
7295259.524
 30
0.0
 40
8.0
  1
120.98'
 50
88.1878
  7
txt
 72
     4
 11
941615.679162
 21
7295281.653484
 31
0.0
210
0.0
220
0.0
230
1.0
  0
TEXT
  8
11
  6
CONTINUOUS
 62
     7
  5
514
 10
941291.537
 20
7295274.885
 30
0.0
 40
8.0
  1
121.43'
 50
88.1878
  7
txt
 72
     4
 11
941288.203349
 21
7295296.008987
 31
0.0
210
0.0
220
0.0
230
1.0
  0
TEXT
  8
11
  6
CONTINUOUS
 62
     7
  5
515
 10
941209.542
 20
7295277.67
 30
0.0
 40
8.0
  1
121.55'
 50
88.1878
  7
txt
 72
     4
 11
941206.20234
 21
7295298.604082
 31
0.0
210
0.0
220
0.0
230
1.0
  0
TEXT
  8
11
  6
CONTINUOUS
 62
     7
  5
516
 10
941127.554
 20
7295280.642
 30
0.0
 40
8.0
  1
121.66'
 50
88.1878
  7
txt
 72
     4
 11
941124.202387
 21
7295301.198271
 31
0.0
210
0.0
220
0.0
230
1.0
  0
TEXT
  8
11
  6
CONTINUOUS
 62
     7
  5
517
 10
941045.824
 20
7295282.787
 30
0.0
 40
8.0
  1
121.77'
 50
88.1878
  7
txt
 72
     4
 11
941042.486333
 21
7295303.784051
 31
0.0
210
0.0
220
0.0
230
1.0
  0
TEXT
  8
11
  6
CONTINUOUS
 62
     7
  5
518
 10
940963.741
 20
7295285.447
 30
0.0
 40
8.0
  1
121.88'
 50
88.1878
  7
txt
 72
     4
 11
940960.40134
 21
7295306.381082
 31
0.0
210
0.0
220
0.0
230
1.0
  0
TEXT
  8
11
  6
CONTINUOUS
 62
     7
  5
519
 10
940895.069
 20
7295245.741
 30
0.0
 40
8.0
  1
70.22'
 50
358.1878
  7
txt
 72
     1
 11
940914.712171
 21
7295245.119502
 31
0.0
210
0.0
220
0.0
230
1.0
  0
TEXT
  8
11
  6
CONTINUOUS
 62
     7
  5
51A
 10
940876.434
 20
7295247.87
 30
0.0
 40
8.0
  1
R=15'
 50
43.1878
  7
txt
 72
     4
 11
940884.994789
 21
7295261.391794
 31
0.0
210
0.0
220
0.0
230
1.0
  0
TEXT
  8
11
  6
CONTINUOUS
 62
     7
  5
51B
 10
941751.183
 20
7295238.299
 30
0.0
 40
8.0
  1
R=15'
 50
313.1878
  7
txt
 72
     4
 11
941764.704794
 21
7295229.738211
 31
0.0
210
0.0
220
0.0
230
1.0
  0
TEXT
  8
11
  6
CONTINUOUS
 62
     7
  5
51C
 10
940837.982
 20
7295357.643
 30
0.0
 40
8.0
  1
52'
 50
358.109183
  7
txt
 72
     1
 11
940847.878712
 21
7295365.320638
 31
0.0
210
0.0
220
0.0
230
1.0
 73
     3
  0
TEXT
  8
11
  6
CONTINUOUS
 62
     7
  5
51D
 10
940833.199
 20
7295180.766
 30
0.0
 40
8.0
  1
52'
 50
358.069903
  7
txt
 72
     1
 11
940842.831532
 21
7295180.44139
 31
0.0
210
0.0
220
0.0
230
1.0
  0
TEXT
  8
11
  6
CONTINUOUS
 62
     7
  5
51E
 10
941795.901
 20
7295326.019
 30
0.0
 40
8.0
  1
52'
 50
358.109183
  7
txt
 72
     1
 11
941805.797712
 21
7295333.696638
 31
0.0
210
0.0
220
0.0
230
1.0
 73
     3
  0
TEXT
  8
11
  6
CONTINUOUS
 62
     7
  5
51F
 10
941950.252
 20
7295145.324
 30
0.0
 40
8.0
  1
52'
 50
358.1878
  7
txt
 72
     1
 11
941959.88518
 21
7295145.019212
 31
0.0
210
0.0
220
0.0
230
1.0
  0
TEXT
  8
11
  6
CONTINUOUS
 62
     7
  5
520
 10
941967.934
 20
7295174.296
 30
0.0
 40
8.0
  1
R=15'
 50
313.1878
  7
txt
 72
     4
 11
941981.455794
 21
7295165.735211
 31
0.0
210
0.0
220
0.0
230
1.0
  0
TEXT
  8
11
  6
CONTINUOUS
 62
     7
  5
521
 10
941836.619
 20
7295217.631
 30
0.0
 40
8.0
  1
R=15'
 50
43.1878
  7
txt
 72
     4
 11
941845.179789
 21
7295231.152794
 31
0.0
210
0.0
220
0.0
230
1.0
  0
TEXT
  8
11
  6
CONTINUOUS
 62
     7
  5
522
 10
941929.602
 20
7295156.739
 30
0.0
 40
8.0
  1
R=15'
 50
43.1878
  7
txt
 72
     4
 11
941938.162789
 21
7295170.260794
 31
0.0
210
0.0
220
0.0
230
1.0
  0
TEXT
  8
11
  6
CONTINUOUS
 62
     7
  5
523
 10
941869.529
 20
7295323.779
 30
0.0
 40
8.0
  1
85'
 50
358.109183
  7
txt
 72
     1
 11
941879.425712
 21
7295331.456638
 31
0.0
210
0.0
220
0.0
230
1.0
 73
     3
  0
TEXT
  8
11
  6
CONTINUOUS
 62
     7
  5
524
 10
941839.613
 20
7295259.205
 30
0.0
 40
8.0
  1
105.68'
 50
88.1878
  7
txt
 72
     4
 11
941836.311162
 21
7295281.334484
 31
0.0
210
0.0
220
0.0
230
1.0
  0
TEXT
  8
11
  6
CONTINUOUS
 62
     7
  5
525
 10
941923.976
 20
7295256.314
 30
0.0
 40
8.0
  1
120.57'
 50
88.1878
  7
txt
 72
     4
 11
941920.681183
 21
7295278.665373
 31
0.0
210
0.0
220
0.0
230
1.0
  0
TEXT
  8
11
  6
CONTINUOUS
 62
     7
  5
526
 10
942003.465
 20
7295251.941
 30
0.0
 40
8.0
  1
120.46'
 50
88.1878
  7
txt
 72
     4
 11
942000.169171
 21
7295274.260389
 31
0.0
210
0.0
220
0.0
230
1.0
  0
TEXT
  8
11
  6
CONTINUOUS
 62
     7
  5
527
 10
942083.824
 20
7295249.64
 30
0.0
 40
8.0
  1
120.35'
 50
88.1878
  7
txt
 72
     4
 11
942080.528171
 21
7295271.959389
 31
0.0
210
0.0
220
0.0
230
1.0
  0
TEXT
  8
11
  6
CONTINUOUS
 62
     7
  5
528
 10
942164.221
 20
7295248.556
 30
0.0
 40
8.0
  1
120.24'
 50
88.1878
  7
txt
 72
     4
 11
942160.931148
 21
7295271.064294
 31
0.0
210
0.0
220
0.0
230
1.0
  0
TEXT
  8
11
  6
CONTINUOUS
 62
     7
  5
529
 10
942242.898
 20
7295243.919
 30
0.0
 40
8.0
  1
120.13'
 50
88.1878
  7
txt
 72
     4
 11
942239.557328
 21
7295264.821098
 31
0.0
210
0.0
220
0.0
230
1.0
  0
TEXT
  8
11
  6
CONTINUOUS
 62
     7
  5
52A
 10
942323.12
 20
7295242.306
 30
0.0
 40
8.0
  1
120.02'
 50
88.1878
  7
txt
 72
     4
 11
942319.823159
 21
7295264.593405
 31
0.0
210
0.0
220
0.0
230
1.0
  0
TEXT
  8
11
  6
CONTINUOUS
 62
     7
  5
52B
 10
942403.547
 20
7295242.163
 30
0.0
 40
8.0
  1
119.91'
 50
88.1878
  7
txt
 72
     4
 11
942400.150544
 21
7295261.30198
 31
0.0
210
0.0
220
0.0
230
1.0
  0
TEXT
  8
11
  6
CONTINUOUS
 62
     7
  5
52C
 10
942483.061
 20
7295238.571
 30
0.0
 40
8.0
  1
119.8'
 50
88.1878
  7
txt
 72
     4
 11
942479.588869
 21
7295255.318177
 31
0.0
210
0.0
220
0.0
230
1.0
  0
TEXT
  8
11
  6
CONTINUOUS
 62
     7
  5
52D
 10
942564.149
 20
7295233.881
 30
0.0
 40
8.0
  1
119.69'
 50
88.1878
  7
txt
 72
     4
 11
942560.791378
 21
7295254.247366
 31
0.0
210
0.0
220
0.0
230
1.0
  0
TEXT
  8
11
  6
CONTINUOUS
 62
     7
  5
52E
 10
942642.76
 20
7295232.214
 30
0.0
 40
8.0
  1
119.58'
 50
88.1878
  7
txt
 72
     4
 11
942639.414364
 21
7295252.959177
 31
0.0
210
0.0
220
0.0
230
1.0
  0
TEXT
  8
11
  6
CONTINUOUS
 62
     7
  5
52F
 10
942716.727
 20
7295231.233
 30
0.0
 40
8.0
  1
104.37'
 50
88.1878
  7
txt
 72
     4
 11
942713.438128
 21
7295253.772279
 31
0.0
210
0.0
220
0.0
230
1.0
  0
TEXT
  8
11
  6
CONTINUOUS
 62
     7
  5
530
 10
942655.943
 20
7295190.028
 30
0.0
 40
8.0
  1
68.86'
 50
358.1878
  7
txt
 72
     1
 11
942675.20736
 21
7295189.418487
 31
0.0
210
0.0
220
0.0
230
1.0
  0
TEXT
  8
11
  6
CONTINUOUS
 62
     7
  5
531
 10
942658.954
 20
7295297.528
 30
0.0
 40
8.0
  1
83.23'
 50
358.109183
  7
txt
 72
     1
 11
942678.861259
 21
7295304.875161
 31
0.0
210
0.0
220
0.0
230
1.0
 73
     3
  0
TEXT
  8
11
  6
CONTINUOUS
 62
     7
  5
532
 10
942586.495
 20
7295190.531
 30
0.0
 40
8.0
  1
80'
 50
358.109183
  7
txt
 72
     1
 11
942596.35973
 21
7295198.209694
 31
0.0
210
0.0
220
0.0
230
1.0
 73
     3
  0
TEXT
  8
11
  6
CONTINUOUS
 62
     7
  5
533
 10
942505.363
 20
7295193.86
 30
0.0
 40
8.0
  1
80'
 50
358.109183
  7
txt
 72
     1
 11
942515.22773
 21
7295201.538694
 31
0.0
210
0.0
220
0.0
230
1.0
 73
     3
  0
TEXT
  8
11
  6
CONTINUOUS
 62
     7
  5
534
 10
942425.819
 20
7295196.485
 30
0.0
 40
8.0
  1
80'
 50
358.109183
  7
txt
 72
     1
 11
942435.68373
 21
7295204.163694
 31
0.0
210
0.0
220
0.0
230
1.0
 73
     3
  0
TEXT
  8
11
  6
CONTINUOUS
 62
     7
  5
535
 10
942346.96
 20
7295197.787
 30
0.0
 40
8.0
  1
80'
 50
358.109183
  7
txt
 72
     1
 11
942356.82473
 21
7295205.465694
 31
0.0
210
0.0
220
0.0
230
1.0
 73
     3
  0
TEXT
  8
11
  6
CONTINUOUS
 62
     7
  5
536
 10
942265.825
 20
7295201.116
 30
0.0
 40
8.0
  1
80'
 50
358.109183
  7
txt
 72
     1
 11
942275.68973
 21
7295208.794694
 31
0.0
210
0.0
220
0.0
230
1.0
 73
     3
  0
TEXT
  8
11
  6
CONTINUOUS
 62
     7
  5
537
 10
942184.744
 20
7295206.397
 30
0.0
 40
8.0
  1
80'
 50
358.109183
  7
txt
 72
     1
 11
942194.60873
 21
7295214.075694
 31
0.0
210
0.0
220
0.0
230
1.0
 73
     3
  0
TEXT
  8
11
  6
CONTINUOUS
 62
     7
  5
538
 10
942109.219
 20
7295208.891
 30
0.0
 40
8.0
  1
80'
 50
358.109183
  7
txt
 72
     1
 11
942119.08373
 21
7295216.569694
 31
0.0
210
0.0
220
0.0
230
1.0
 73
     3
  0
TEXT
  8
11
  6
CONTINUOUS
 62
     7
  5
539
 10
942026.46
 20
7295211.624
 30
0.0
 40
8.0
  1
80'
 50
358.109183
  7
txt
 72
     1
 11
942036.32473
 21
7295219.302694
 31
0.0
210
0.0
220
0.0
230
1.0
 73
     3
  0
TEXT
  8
11
  6
CONTINUOUS
 62
     7
  5
53A
 10
941947.004
 20
7295211.642
 30
0.0
 40
8.0
  1
80'
 50
358.109183
  7
txt
 72
     1
 11
941956.86873
 21
7295219.320694
 31
0.0
210
0.0
220
0.0
230
1.0
 73
     3
  0
TEXT
  8
11
  6
CONTINUOUS
 62
     7
  5
53B
 10
941869.369
 20
7295214.915
 30
0.0
 40
8.0
  1
70'
 50
358.1878
  7
txt
 72
     1
 11
941879.00118
 21
7295214.610244
 31
0.0
210
0.0
220
0.0
230
1.0
  0
TEXT
  8
11
  6
CONTINUOUS
 62
     7
  5
53C
 10
942735.013
 20
7295295.016
 30
0.0
 40
8.0
  1
60.19'
 50
358.109183
  7
txt
 72
     1
 11
942753.092254
 21
7295302.423509
 31
0.0
210
0.0
220
0.0
230
1.0
 73
     3
  0
TEXT
  8
11
  6
CONTINUOUS
 62
     7
  5
53D
 10
942730.329
 20
7295120.824
 30
0.0
 40
8.0
  1
60.14'
 50
358.52125
  7
txt
 72
     1
 11
942748.526937
 21
7295120.354224
 31
0.0
210
0.0
220
0.0
230
1.0
  0
TEXT
  8
11
  6
CONTINUOUS
 62
     7
  5
53E
 10
942773.331
 20
7295196.124
 30
0.0
 40
8.0
  1
185.94'
 50
88.1878
  7
txt
 72
     4
 11
942770.036183
 21
7295218.475373
 31
0.0
210
0.0
220
0.0
230
1.0
  0
TEXT
  8
11
  6
CONTINUOUS
 62
     7
  5
53F
 10
942691.135
 20
7295208.692
 30
0.0
 40
8.0
  1
R=15'
 50
313.1878
  7
txt
 72
     4
 11
942704.656794
 21
7295200.131211
 31
0.0
210
0.0
220
0.0
230
1.0
  0
TEXT
  8
10
  6
CONTINUOUS
 62
   134
  5
540
 10
940913.507
 20
7295294.419
 30
0.0
 40
13.999
  1
1
 50
358.1878
  7
txt
 72
     4
 11
940915.931263
 21
7295301.345801
 31
0.0
210
0.0
220
0.0
230
1.0
  0
TEXT
  8
10
  6
CONTINUOUS
 62
   134
  5
541
 10
940992.316
 20
7295291.925
 30
0.0
 40
13.999
  1
2
 50
358.1878
  7
txt
 72
     4
 11
940997.219022
 21
7295298.773374
 31
0.0
210
0.0
220
0.0
230
1.0
  0
TEXT
  8
10
  6
CONTINUOUS
 62
   134
  5
542
 10
941075.861
 20
7295289.282
 30
0.0
 40
13.999
  1
3
 50
358.1878
  7
txt
 72
     4
 11
941080.764022
 21
7295296.130374
 31
0.0
210
0.0
220
0.0
230
1.0
  0
TEXT
  8
10
  6
CONTINUOUS
 62
   134
  5
543
 10
941157.947
 20
7295286.685
 30
0.0
 40
13.999
  1
4
 50
358.1878
  7
txt
 72
     4
 11
941163.180857
 21
7295293.522907
 31
0.0
210
0.0
220
0.0
230
1.0
  0
TEXT
  8
10
  6
CONTINUOUS
 62
   134
  5
544
 10
941240.694
 20
7295284.067
 30
0.0
 40
13.999
  1
5
 50
358.1878
  7
txt
 72
     4
 11
941245.597022
 21
7295290.915374
 31
0.0
210
0.0
220
0.0
230
1.0
  0
TEXT
  8
10
  6
CONTINUOUS
 62
   134
  5
545
 10
941644.929
 20
7295271.277
 30
0.0
 40
13.999
  1
10
 50
358.1878
  7
txt
 72
     4
 11
941654.29379
 21
7295277.984206
 31
0.0
210
0.0
220
0.0
230
1.0
  0
TEXT
  8
10
  6
CONTINUOUS
 62
   134
  5
546
 10
941730.898
 20
7295268.557
 30
0.0
 40
13.999
  1
11
 50
358.1878
  7
txt
 72
     4
 11
941737.839003
 21
7295275.340894
 31
0.0
210
0.0
220
0.0
230
1.0
  0
TEXT
  8
10
  6
CONTINUOUS
 62
   134
  5
547
 10
941866.832
 20
7295264.256
 30
0.0
 40
13.999
  1
12
 50
358.1878
  7
txt
 72
     4
 11
941876.252762
 21
7295270.961435
 31
0.0
210
0.0
220
0.0
230
1.0
  0
TEXT
  8
10
  6
CONTINUOUS
 62
   134
  5
548
 10
941948.119
 20
7295261.684
 30
0.0
 40
13.999
  1
13
 50
358.1878
  7
txt
 72
     4
 11
941957.539762
 21
7295268.389435
 31
0.0
210
0.0
220
0.0
230
1.0
  0
TEXT
  8
10
  6
CONTINUOUS
 62
   134
  5
549
 10
942026.819
 20
7295259.194
 30
0.0
 40
13.999
  1
14
 50
358.1878
  7
txt
 72
     4
 11
942036.569597
 21
7295265.889
 31
0.0
210
0.0
220
0.0
230
1.0
  0
TEXT
  8
10
  6
CONTINUOUS
 62
   134
  5
54A
 10
942108.436
 20
7295256.612
 30
0.0
 40
13.999
  1
15
 50
358.1878
  7
txt
 72
     4
 11
942117.856762
 21
7295263.317435
 31
0.0
210
0.0
220
0.0
230
1.0
  0
TEXT
  8
10
  6
CONTINUOUS
 62
   134
  5
54B
 10
942188.926
 20
7295254.065
 30
0.0
 40
13.999
  1
16
 50
358.1878
  7
txt
 72
     4
 11
942198.015927
 21
7295260.780903
 31
0.0
210
0.0
220
0.0
230
1.0
  0
TEXT
  8
10
  6
CONTINUOUS
 62
   134
  5
54C
 10
942266.441
 20
7295251.613
 30
0.0
 40
13.999
  1
17
 50
358.1878
  7
txt
 72
     4
 11
942275.915735
 21
7295258.316728
 31
0.0
210
0.0
220
0.0
230
1.0
  0
TEXT
  8
10
  6
CONTINUOUS
 62
   134
  5
54D
 10
942348.912
 20
7295249.003
 30
0.0
 40
13.999
  1
18
 50
358.1878
  7
txt
 72
     4
 11
942358.332762
 21
7295255.708435
 31
0.0
210
0.0
220
0.0
230
1.0
  0
TEXT
  8
10
  6
CONTINUOUS
 62
   134
  5
54E
 10
942427.143
 20
7295246.528
 30
0.0
 40
13.999
  1
19
 50
358.1878
  7
txt
 72
     4
 11
942436.232927
 21
7295253.243903
 31
0.0
210
0.0
220
0.0
230
1.0
  0
TEXT
  8
10
  6
CONTINUOUS
 62
   134
  5
54F
 10
942502.064
 20
7295244.158
 30
0.0
 40
13.999
  1
20
 50
358.1878
  7
txt
 72
     4
 11
942513.907549
 21
7295250.78678
 31
0.0
210
0.0
220
0.0
230
1.0
  0
TEXT
  8
10
  6
CONTINUOUS
 62
   134
  5
550
 10
942590.29
 20
7295241.366
 30
0.0
 40
13.999
  1
21
 50
358.1878
  7
txt
 72
     4
 11
942599.710762
 21
7295248.071435
 31
0.0
210
0.0
220
0.0
230
1.0
  0
TEXT
  8
10
  6
CONTINUOUS
 62
   134
  5
551
 10
942665.711
 20
7295238.98
 30
0.0
 40
13.999
  1
22
 50
358.1878
  7
txt
 72
     4
 11
942677.610521
 21
7295245.607009
 31
0.0
210
0.0
220
0.0
230
1.0
  0
TEXT
  8
11
  6
CONTINUOUS
 62
     7
  5
552
 10
942724.978
 20
7295216.87
 30
0.0
 40
6.0
  1
S00%%d20'53"E
 50
88.1878
  7
txt
 72
     4
 11
942722.915306
 21
7295246.54207
 31
0.0
210
0.0
220
0.0
230
1.0
  0
TEXT
  8
11
  6
CONTINUOUS
 62
     7
  5
553
 10
942631.804
 20
7295241.957
 30
0.0
 40
6.0
  1
N-S
 50
88.1878
  7
txt
 72
     4
 11
942629.041539
 21
7295249.512138
 31
0.0
210
0.0
220
0.0
230
1.0
  0
TEXT
  8
11
  6
CONTINUOUS
 62
     7
  5
554
 10
940953.241
 20
7295298.459
 30
0.0
 40
6.0
  1
N-S
 50
88.1878
  7
txt
 72
     4
 11
940950.478539
 21
7295306.014138
 31
0.0
210
0.0
220
0.0
230
1.0
  0
TEXT
  8
19
  6
CONTINUOUS
 62
     1
  5
555
 10
942386.67
 20
7295156.819
 30
0.0
 40
24.0
  1
MADISON ST
 50
358.1878
  7
ROMANC
 72
     4
 11
942513.498208
 21
7295164.812235
 31
0.0
210
0.0
220
0.0
230
1.0
  0
TEXT
  8
22
  6
CONTINUOUS
 62
     3
  5
556
 10
941030.563
 20
7295278.305
 30
0.0
 40
6.0
  1
5' UUE-LPL
 50
88.1878
  7
txt
 72
     4
 11
941028.330171
 21
7295302.599761
 31
0.0
210
0.0
220
0.0
230
1.0
  0
POLYLINE
  8
21
  6
DASHDOT
 62
     7
  5
557
 66
     1
 10
0.0
 20
0.0
 30
0.0
 70
     1
  0
VERTEX
  8
21
  6
DASHDOT
 62
     7
  5
558
 10
941034.23
 20
7295361.17
 30
0.0
  0
VERTEX
  8
21
  6
DASHDOT
 62
     7
  5
559
 10
941039.227
 20
7295361.005
 30
0.0
  0
VERTEX
  8
21
  6
DASHDOT
 62
     7
  5
55A
 10
941035.376
 20
7295239.301
 30
0.0
  0
VERTEX
  8
21
  6
DASHDOT
 62
     7
  5
55B
 10
941030.379
 20
7295239.459
 30
0.0
  0
SEQEND
  8
21
  6
DASHDOT
 62
     7
  5
55C
  0
TEXT
  8
22
  6
CONTINUOUS
 62
     3
  5
55D
 10
941685.252
 20
7295257.591
 30
0.0
 40
6.0
  1
5' UUE-LPL
 50
88.1878
  7
txt
 72
     4
 11
941683.019171
 21
7295281.885761
 31
0.0
210
0.0
220
0.0
230
1.0
  0
POLYLINE
  8
21
  6
DASHDOT
 62
     7
  5
55E
 66
     1
 10
0.0
 20
0.0
 30
0.0
 70
     1
  0
VERTEX
  8
21
  6
DASHDOT
 62
     7
  5
55F
 10
941689.273
 20
7295339.545
 30
0.0
  0
VERTEX
  8
21
  6
DASHDOT
 62
     7
  5
560
 10
941694.271
 20
7295339.381
 30
0.0
  0
VERTEX
  8
21
  6
DASHDOT
 62
     7
  5
561
 10
941690.448
 20
7295218.575
 30
0.0
  0
VERTEX
  8
21
  6
DASHDOT
 62
     7
  5
562
 10
941685.451
 20
7295218.733
 30
0.0
  0
SEQEND
  8
21
  6
DASHDOT
 62
     7
  5
563
  0
TEXT
  8
22
  6
CONTINUOUS
 62
     3
  5
564
 10
942309.939
 20
7295237.826
 30
0.0
 40
6.0
  1
2' USE-LPL
 50
88.1878
  7
txt
 72
     4
 11
942307.706171
 21
7295262.120761
 31
0.0
210
0.0
220
0.0
230
1.0
  0
POLYLINE
  8
21
  6
DASHDOT
 62
     7
  5
565
 66
     1
 10
0.0
 20
0.0
 30
0.0
 70
     1
  0
VERTEX
  8
21
  6
DASHDOT
 62
     7
  5
566
 10
942313.934
 20
7295318.923
 30
0.0
  0
VERTEX
  8
21
  6
DASHDOT
 62
     7
  5
567
 10
942315.932
 20
7295318.857
 30
0.0
  0
VERTEX
  8
21
  6
DASHDOT
 62
     7
  5
568
 10
942312.137
 20
7295198.905
 30
0.0
  0
VERTEX
  8
21
  6
DASHDOT
 62
     7
  5
569
 10
942310.138
 20
7295198.968
 30
0.0
  0
SEQEND
  8
21
  6
DASHDOT
 62
     7
  5
56A
  0
TEXT
  8
19
  6
CONTINUOUS
 62
     1
  5
56B
 10
940858.011
 20
7295281.132
 30
0.0
 40
24.0
  1
N BOSTON AVE
 50
88.1878
  7
ROMANC
 72
     4
 11
940851.090405
 21
7295441.862243
 31
0.0
210
0.0
220
0.0
230
1.0
  0
LINE
  8
6
  6
CONTINUOUS
 62
     7
  5
56C
 10
942250.901
 20
7296721.994
 30
0.0
 11
942264.72
 21
7297146.369
 31
0.0
  0
LINE
  8
6
  6
CONTINUOUS
 62
     7
  5
56D
 10
942263.678
 20
7297114.385
 30
0.0
 11
942750.17
 21
7297098.546
 31
0.0
  0
LINE
  8
6
  6
CONTINUOUS
 62
     7
  5
56E
 10
942755.237
 20
7296705.575
 30
0.0
 11
942764.672
 21
7297083.18
 31
0.0
  0
LINE
  8
6
  6
CONTINUOUS
 62
     7
  5
56F
 10
942250.901
 20
7296721.994
 30
0.0
 11
942755.237
 21
7296705.575
 31
0.0
  0
TEXT
  8
11
  6
CONTINUOUS
 62
     7
  5
570
 10
942489.733
 20
7296718.472
 30
0.0
 40
8.0
  1
504.61'
 50
358.1878
  7
txt
 72
     4
 11
942512.052389
 21
7296721.767829
 31
0.0
210
0.0
220
0.0
230
1.0
  0
TEXT
  8
11
  6
CONTINUOUS
 62
     7
  5
571
 10
942474.171
 20
7297098.491
 30
0.0
 40
8.0
  1
486.75'
 50
358.1878
  7
txt
 72
     4
 11
942497.969649
 21
7297101.740026
 31
0.0
210
0.0
220
0.0
230
1.0
  0
TEXT
  8
11
  6
CONTINUOUS
 62
     7
  5
572
 10
942267.354
 20
7296917.031
 30
0.0
 40
8.0
  1
392.6'
 50
88.1878
  7
txt
 72
     4
 11
942263.965514
 21
7296936.421854
 31
0.0
210
0.0
220
0.0
230
1.0
  0
TEXT
  8
11
  6
CONTINUOUS
 62
     7
  5
573
 10
942758.003
 20
7296893.322
 30
0.0
 40
8.0
  1
377.72'
 50
88.1878
  7
txt
 72
     4
 11
942754.755966
 21
7296917.183617
 31
0.0
210
0.0
220
0.0
230
1.0
  0
TEXT
  8
11
  6
CONTINUOUS
 62
     7
  5
574
 10
942807.197
 20
7297074.947
 30
0.0
 40
8.0
  1
60'
 50
358.1878
  7
txt
 72
     4
 11
942816.734785
 21
7297078.647232
 31
0.0
210
0.0
220
0.0
230
1.0
  0
TEXT
  8
11
  6
CONTINUOUS
 62
     7
  5
575
 10
942748.614
 20
7297107.429
 30
0.0
 40
8.0
  1
32'
 50
88.1878
  7
txt
 72
     4
 11
942744.920789
 21
7297117.188674
 31
0.0
210
0.0
220
0.0
230
1.0
  0
TEXT
  8
11
  6
CONTINUOUS
 62
     7
  5
576
 10
942275.658
 20
7297123.215
 30
0.0
 40
8.0
  1
32'
 50
88.1878
  7
txt
 72
     4
 11
942271.964789
 21
7297132.974674
 31
0.0
210
0.0
220
0.0
230
1.0
  0
ARC
  8
6
  6
CONTINUOUS
 62
     7
  5
577
 10
942749.676472
 20
7297083.554645
 30
0.0
 40
15.0
 50
358.566039
 51
88.116456
210
0.0
220
0.0
230
1.0
  0
TEXT
  8
10
  6
CONTINUOUS
 62
   134
  5
578
 10
942483.144
 20
7296917.588
 30
0.0
 40
13.999
  1
A
 50
358.1878
  7
txt
 72
     4
 11
942488.762664
 21
7296924.413732
 31
0.0
210
0.0
220
0.0
230
1.0
  0
LINE
  8
6
  6
CONTINUOUS
 62
     7
  5
579
 10
940920.803
 20
7297190.125
 30
0.0
 11
942769.661
 21
7297129.928
 31
0.0
  0
LINE
  8
6
  6
CONTINUOUS
 62
     7
  5
57A
 10
942769.661
 20
7297129.928
 30
0.0
 11
942830.794
 21
7299217.054
 31
0.0
  0
TEXT
  8
15
  6
CONTINUOUS
 62
    30
  5
57B
 10
942289.809
 20
7296895.121
 30
0.0
 40
50.0
  1
LUBBOCK
 50
28.1878
  7
ROMANC
 72
     4
 11
942445.769895
 21
7297007.067583
 31
0.0
210
0.0
220
0.0
230
1.0
  0
TEXT
  8
15
  6
CONTINUOUS
 62
    30
  5
57C
 10
942304.415
 20
7296817.857
 30
0.0
 40
50.0
  1
PRIMITIVE
 50
28.1878
  7
ROMANC
 72
     4
 11
942481.194659
 21
7296940.960799
 31
0.0
210
0.0
220
0.0
230
1.0
  0
TEXT
  8
15
  6
CONTINUOUS
 62
    30
  5
57D
 10
942377.319
 20
7296771.837
 30
0.0
 40
50.0
  1
BAPTIST
 50
28.1878
  7
ROMANC
 72
     4
 11
942516.449485
 21
7296874.763809
 31
0.0
210
0.0
220
0.0
230
1.0
  0
TEXT
  8
15
  6
CONTINUOUS
 62
    30
  5
57E
 10
942415.87
 20
7296707.405
 30
0.0
 40
50.0
  1
CHURCH
 50
28.1878
  7
ROMANC
 72
     4
 11
942551.877671
 21
7296808.658227
 31
0.0
210
0.0
220
0.0
230
1.0
  0
TEXT
  8
11
  6
CONTINUOUS
 62
     7
  5
57F
 10
942811.149
 20
7297158.286
 30
0.0
 40
8.0
  1
43.3'
 50
358.1878
  7
ROMANS
210
0.0
220
0.0
230
1.0
  0
LINE
  8
6
  6
CONTINUOUS
 62
     7
  5
580
 10
942757.181
 20
7296522.644
 30
0.0
 11
942762.453
 21
7296684.558
 31
0.0
  0
LINE
  8
6
  6
CONTINUOUS
 62
     7
  5
581
 10
942762.453
 20
7296684.558
 30
0.0
 11
941873.694
 21
7296713.495
 31
0.0
  0
LINE
  8
6
  6
CONTINUOUS
 62
     7
  5
582
 10
941873.694
 20
7296713.495
 30
0.0
 11
941868.423
 21
7296551.58
 31
0.0
  0
LINE
  8
7
  6
CONTINUOUS
 62
     7
  5
583
 10
941044.133
 20
7296740.504
 30
0.0
 11
941038.536
 21
7296563.593
 31
0.0
  0
LINE
  8
6
  6
CONTINUOUS
 62
     7
  5
584
 10
941818.449
 20
7296553.208
 30
0.0
 11
941823.72
 21
7296715.122
 31
0.0
  0
LINE
  8
6
  6
CONTINUOUS
 62
     7
  5
585
 10
941823.72
 20
7296715.122
 30
0.0
 11
940914.202
 21
7296744.734
 31
0.0
  0
LINE
  8
6
  6
CONTINUOUS
 62
     7
  5
586
 10
940914.202
 20
7296744.734
 30
0.0
 11
940908.931
 21
7296582.82
 31
0.0
  0
LINE
  8
58
  6
DIVIDE
 62
   216
  5
588
 10
937608.72
 20
7297457.575
 30
0.0
 11
942900.844
 21
7297290.135
 31
0.0
  0
TEXT
  8
22
  6
CONTINUOUS
 62
     3
  5
589
 10
942229.183
 20
7295700.186
 30
0.0
 40
8.0
  1
2' USE
 50
88.1878
  7
ROMANS
210
0.0
220
0.0
230
1.0
  0
TEXT
  8
22
  6
CONTINUOUS
 62
     3
  5
58A
 10
942350.057
 20
7296156.671
 30
0.0
 40
8.0
  1
2' USE
 50
88.1878
  7
ROMANS
210
0.0
220
0.0
230
1.0
  0
TEXT
  8
22
  6
CONTINUOUS
 62
     3
  5
58B
 10
942375.692
 20
7296345.494
 30
0.0
 40
8.0
  1
2' USE
 50
88.1878
  7
ROMANS
210
0.0
220
0.0
230
1.0
  0
TEXT
  8
15
  6
CONTINUOUS
 62
    30
  5
58C
 10
942016.931
 20
7295739.843
 30
0.0
 40
50.0
  1
 HILLCREST
 50
28.1878
  7
ROMANC
 72
     4
 11
942224.940568
 21
7295879.683569
 31
0.0
210
0.0
220
0.0
230
1.0
  0
TEXT
  8
15
  6
CONTINUOUS
 62
    30
  5
58D
 10
942137.236
 20
7295707.881
 30
0.0
 40
50.0
  1
 SOUTH
 50
28.1878
  7
ROMANC
 72
     4
 11
942265.090683
 21
7295804.764868
 31
0.0
210
0.0
220
0.0
230
1.0
  0
TEXT
  8
15
  6
CONTINUOUS
 62
    30
  5
58E
 10
941094.711
 20
7296098.094
 30
0.0
 40
50.0
  1
 HILLCREST
 50
28.1878
  7
ROMANC
 72
     4
 11
941302.720568
 21
7296237.934569
 31
0.0
210
0.0
220
0.0
230
1.0
  0
TEXT
  8
15
  6
CONTINUOUS
 62
    30
  5
58F
 10
941215.016
 20
7296066.132
 30
0.0
 40
50.0
  1
 SOUTH
 50
28.1878
  7
ROMANC
 72
     4
 11
941342.870683
 21
7296163.015868
 31
0.0
210
0.0
220
0.0
230
1.0
  0
LINE
  8
7
  6
CONTINUOUS
 62
     7
  5
590
 10
941376.712
 20
7295349.516
 30
0.0
 11
941372.876
 21
7295228.276
 31
0.0
  0
LINE
  8
7
  6
CONTINUOUS
 62
     7
  5
591
 10
941492.436
 20
7295345.589
 30
0.0
 11
941488.605
 21
7295224.508
 31
0.0
  0
TEXT
  8
11
  6
CONTINUOUS
 62
     7
  5
592
 10
941383.56
 20
7295269.715
 30
0.0
 40
8.0
  1
121.31'
 50
88.187783
  7
txt
 72
     1
 11
941384.173535
 21
7295289.106296
 31
0.0
210
0.0
220
0.0
230
1.0
  0
POLYLINE
  8
21
  6
DASHDOT
 62
     7
  5
593
 66
     1
 10
0.0
 20
0.0
 30
0.0
 70
     1
  0
VERTEX
  8
21
  6
DASHDOT
 62
     7
  5
594
 10
941374.713
 20
7295349.583
 30
0.0
  0
VERTEX
  8
21
  6
DASHDOT
 62
     7
  5
595
 10
941370.877
 20
7295228.341
 30
0.0
  0
VERTEX
  8
21
  6
DASHDOT
 62
     7
  5
596
 10
941372.876
 20
7295228.276
 30
0.0
  0
VERTEX
  8
21
  6
DASHDOT
 62
     7
  5
597
 10
941376.712
 20
7295349.516
 30
0.0
  0
SEQEND
  8
21
  6
DASHDOT
 62
     7
  5
598
  0
TEXT
  8
11
  6
CONTINUOUS
 62
     7
  5
599
 10
941311.201
 20
7295232.642
 30
0.0
 40
8.0
  1
91.89'
 50
358.056547
  7
txt
 72
     1
 11
941329.319034
 21
7295240.031811
 31
0.0
210
0.0
220
0.0
230
1.0
 73
     3
  0
TEXT
  8
10
  6
CONTINUOUS
 62
   134
  5
59A
 10
941317.603
 20
7295287.631
 30
0.0
 40
13.999
  1
6-A
 50
356.639253
  7
txt
210
0.0
220
0.0
230
1.0
  0
TEXT
  8
22
  6
CONTINUOUS
 62
     3
  5
59B
 10
941370.289
 20
7295276.155
 30
0.0
 40
6.0
  1
2' USE
 50
88.187811
  7
txt
 72
     1
 11
941370.710287
 21
7295289.470337
 31
0.0
210
0.0
220
0.0
230
1.0
  0
TEXT
  8
11
  6
CONTINUOUS
 62
     7
  5
59C
 10
941415.67
 20
7295229.098
 30
0.0
 40
8.0
  1
115.79'
 50
358.056547
  7
txt
 72
     1
 11
941436.589421
 21
7295236.392753
 31
0.0
210
0.0
220
0.0
230
1.0
 73
     3
  0
TEXT
  8
10
  6
CONTINUOUS
 62
   134
  5
59D
 10
941416.448
 20
7295284.959
 30
0.0
 40
13.999
  1
7-A
 50
356.639253
  7
txt
210
0.0
220
0.0
230
1.0
  0
TEXT
  8
11
  6
CONTINUOUS
 62
     7
  5
59E
 10
941499.991
 20
7295268.515
 30
0.0
 40
8.0
  1
121.15'
 50
88.187767
  7
txt
 72
     1
 11
941500.60454
 21
7295287.906296
 31
0.0
210
0.0
220
0.0
230
1.0
  0
TEXT
  8
11
  6
CONTINUOUS
 62
     7
  5
59F
 10
941536.622
 20
7295224.993
 30
0.0
 40
8.0
  1
120'
 50
358.056547
  7
txt
 72
     1
 11
941549.074294
 21
7295232.575065
 31
0.0
210
0.0
220
0.0
230
1.0
 73
     3
  0
TEXT
  8
10
  6
CONTINUOUS
 62
   134
  5
5A0
 10
941532.851
 20
7295281.812
 30
0.0
 40
13.999
  1
8-A
 50
356.639253
  7
txt
210
0.0
220
0.0
230
1.0
  0
LINE
  8
6
  6
CONTINUOUS
 62
     7
  5
5A1
 10
940813.273
 20
7295037.421
 30
0.0
 11
942708.07
 21
7294975.726
 31
0.0
  0
LINE
  8
6
  6
CONTINUOUS
 62
     7
  5
5A2
 10
941989.106
 20
7295019.146
 30
0.0
 11
942699.466
 21
7294996.017
 31
0.0
  0
LINE
  8
6
  6
CONTINUOUS
 62
     7
  5
5A3
 10
941979.437
 20
7295029.466
 30
0.0
 11
941989.106
 21
7295019.146
 31
0.0
  0
LINE
  8
6
  6
CONTINUOUS
 62
     7
  5
5A4
 10
942712.693
 20
7295117.708
 30
0.0
 11
942709.14
 21
7295005.704
 31
0.0
  0
LINE
  8
6
  6
CONTINUOUS
 62
     7
  5
5A5
 10
942699.466
 20
7294996.017
 30
0.0
 11
942709.14
 21
7295005.704
 31
0.0
  0
LINE
  8
7
  6
CONTINUOUS
 62
     7
  5
5A6
 10
942628.227
 20
7295135.378
 30
0.0
 11
942623.77
 21
7294998.482
 31
0.0
  0
LINE
  8
7
  6
CONTINUOUS
 62
     7
  5
5A7
 10
942548.269
 20
7295137.981
 30
0.0
 11
942543.812
 21
7295001.085
 31
0.0
  0
LINE
  8
7
  6
CONTINUOUS
 62
     7
  5
5A8
 10
942468.312
 20
7295140.584
 30
0.0
 11
942463.855
 21
7295003.688
 31
0.0
  0
LINE
  8
7
  6
CONTINUOUS
 62
     7
  5
5A9
 10
942388.354
 20
7295143.188
 30
0.0
 11
942383.897
 21
7295006.292
 31
0.0
  0
LINE
  8
7
  6
CONTINUOUS
 62
     7
  5
5AA
 10
942293.404
 20
7295146.279
 30
0.0
 11
942288.947
 21
7295009.383
 31
0.0
  0
LINE
  8
7
  6
CONTINUOUS
 62
     7
  5
5AB
 10
942183.462
 20
7295149.858
 30
0.0
 11
942179.005
 21
7295012.962
 31
0.0
  0
LINE
  8
7
  6
CONTINUOUS
 62
     7
  5
5AC
 10
942083.515
 20
7295153.112
 30
0.0
 11
942079.058
 21
7295016.216
 31
0.0
  0
LINE
  8
6
  6
CONTINUOUS
 62
     7
  5
5AD
 10
941983.081
 20
7295141.376
 30
0.0
 11
941979.437
 21
7295029.466
 31
0.0
  0
TEXT
  8
11
  6
CONTINUOUS
 62
     7
  5
5AE
 10
942029.77
 20
7295143.858
 30
0.0
 40
8.0
  1
85'
 50
358.1351
  7
txt
 72
     1
 11
942039.663238
 21
7295151.540114
 31
0.0
210
0.0
220
0.0
230
1.0
 73
     3
  0
TEXT
  8
11
  6
CONTINUOUS
 62
     7
  5
5AF
 10
942129.483
 20
7295140.612
 30
0.0
 40
8.0
  1
100'
 50
358.1351
  7
txt
 72
     1
 11
942141.892905
 21
7295148.212171
 31
0.0
210
0.0
220
0.0
230
1.0
 73
     3
  0
TEXT
  8
11
  6
CONTINUOUS
 62
     7
  5
5B0
 10
942234.108
 20
7295137.205
 30
0.0
 40
8.0
  1
110'
 50
358.1351
  7
txt
 72
     1
 11
942245.133638
 21
7295144.850243
 31
0.0
210
0.0
220
0.0
230
1.0
 73
     3
  0
TEXT
  8
11
  6
CONTINUOUS
 62
     7
  5
5B1
 10
942336.649
 20
7295133.866
 30
0.0
 40
8.0
  1
95'
 50
358.1351
  7
txt
 72
     1
 11
942346.352339
 21
7295141.554297
 31
0.0
210
0.0
220
0.0
230
1.0
 73
     3
  0
TEXT
  8
11
  6
CONTINUOUS
 62
     7
  5
5B2
 10
942419.489
 20
7295131.169
 30
0.0
 40
8.0
  1
80'
 50
358.1351
  7
txt
 72
     1
 11
942429.350255
 21
7295138.852156
 31
0.0
210
0.0
220
0.0
230
1.0
 73
     3
  0
TEXT
  8
11
  6
CONTINUOUS
 62
     7
  5
5B3
 10
942502.487
 20
7295128.466
 30
0.0
 40
8.0
  1
80'
 50
358.1351
  7
txt
 72
     1
 11
942512.348255
 21
7295136.149156
 31
0.0
210
0.0
220
0.0
230
1.0
 73
     3
  0
TEXT
  8
11
  6
CONTINUOUS
 62
     7
  5
5B4
 10
942582.449
 20
7295125.863
 30
0.0
 40
8.0
  1
80'
 50
358.1351
  7
txt
 72
     1
 11
942592.310255
 21
7295133.546156
 31
0.0
210
0.0
220
0.0
230
1.0
 73
     3
  0
TEXT
  8
11
  6
CONTINUOUS
 62
     7
  5
5B5
 10
942663.392
 20
7295123.227
 30
0.0
 40
8.0
  1
70'
 50
358.1351
  7
txt
 72
     1
 11
942673.284239
 21
7295130.909147
 31
0.0
210
0.0
220
0.0
230
1.0
 73
     3
  0
TEXT
  8
11
  6
CONTINUOUS
 62
     7
  5
5B6
 10
942645.08
 20
7295000.79
 30
0.0
 40
8.0
  1
75.74'
 50
358.135133
  7
txt
 72
     1
 11
942664.974457
 21
7295000.142245
 31
0.0
210
0.0
220
0.0
230
1.0
  0
TEXT
  8
11
  6
CONTINUOUS
 62
     7
  5
5B7
 10
942022.954
 20
7295021.045
 30
0.0
 40
8.0
  1
90'
 50
358.135133
  7
txt
 72
     1
 11
942032.365013
 21
7295020.738582
 31
0.0
210
0.0
220
0.0
230
1.0
  0
TEXT
  8
11
  6
CONTINUOUS
 62
     7
  5
5B8
 10
941989.912
 20
7295024.152
 30
0.0
 40
8.0
  1
14.14'
 50
43.135133
  7
txt
 72
     1
 11
942002.460663
 21
7295035.909273
 31
0.0
210
0.0
220
0.0
230
1.0
  0
TEXT
  8
11
  6
CONTINUOUS
 62
     7
  5
5B9
 10
942673.532
 20
7295025.055
 30
0.0
 40
8.0
  1
14.10'
 50
313.135133
  7
txt
 72
     1
 11
942685.138854
 21
7295012.66688
 31
0.0
210
0.0
220
0.0
230
1.0
  0
TEXT
  8
11
  6
CONTINUOUS
 62
     7
  5
5BA
 10
941991.725
 20
7295068.826
 30
0.0
 40
8.0
  1
111.97'
 50
88.135
  7
txt
 72
     1
 11
941984.355462
 21
7295088.318164
 31
0.0
210
0.0
220
0.0
230
1.0
 73
     3
  0
TEXT
  8
11
  6
CONTINUOUS
 62
     7
  5
5BB
 10
942078.536
 20
7295064.366
 30
0.0
 40
8.0
  1
136.97'
 50
88.135247
  7
txt
 72
     1
 11
942071.252479
 21
7295086.502731
 31
0.0
210
0.0
220
0.0
230
1.0
 73
     3
  0
TEXT
  8
11
  6
CONTINUOUS
 62
     7
  5
5BC
 10
942623.085
 20
7295046.636
 30
0.0
 40
8.0
  1
136.97'
 50
88.135247
  7
txt
 72
     1
 11
942615.801479
 21
7295068.772731
 31
0.0
210
0.0
220
0.0
230
1.0
 73
     3
  0
TEXT
  8
11
  6
CONTINUOUS
 62
     7
  5
5BD
 10
942706.813
 20
7295042.582
 30
0.0
 40
8.0
  1
112.06'
 50
88.183067
  7
txt
 72
     1
 11
942699.470074
 21
7295063.422294
 31
0.0
210
0.0
220
0.0
230
1.0
 73
     3
  0
TEXT
  8
10
  6
CONTINUOUS
 62
   134
  5
5BE
 10
942654.457
 20
7295060.133
 30
0.0
 40
13.999
  1
23
  7
txt
 72
     4
 11
942666.141
 21
7295067.133
 31
0.0
210
0.0
220
0.0
230
1.0
  0
TEXT
  8
10
  6
CONTINUOUS
 62
   134
  5
5BF
 10
942571.129
 20
7295062.836
 30
0.0
 40
13.999
  1
24
  7
txt
 72
     4
 11
942583.143
 21
7295069.836
 31
0.0
210
0.0
220
0.0
230
1.0
  0
TEXT
  8
10
  6
CONTINUOUS
 62
   134
  5
5C0
 10
942494.534
 20
7295065.341
 30
0.0
 40
13.999
  1
25
  7
txt
 72
     4
 11
942506.218
 21
7295072.341
 31
0.0
210
0.0
220
0.0
230
1.0
  0
TEXT
  8
10
  6
CONTINUOUS
 62
   134
  5
5C1
 10
942413.891
 20
7295067.978
 30
0.0
 40
13.999
  1
26
  7
txt
 72
     4
 11
942425.245
 21
7295074.978
 31
0.0
210
0.0
220
0.0
230
1.0
  0
TEXT
  8
10
  6
CONTINUOUS
 62
   134
  5
5C2
 10
942330.509
 20
7295070.681
 30
0.0
 40
13.999
  1
27
  7
txt
 72
     4
 11
942342.247
 21
7295077.681
 31
0.0
210
0.0
220
0.0
230
1.0
  0
TEXT
  8
10
  6
CONTINUOUS
 62
   134
  5
5C3
 10
942229.346
 20
7295073.977
 30
0.0
 40
13.999
  1
28
  7
txt
 72
     4
 11
942241.03
 21
7295080.977
 31
0.0
210
0.0
220
0.0
230
1.0
  0
TEXT
  8
10
  6
CONTINUOUS
 62
   134
  5
5C4
 10
942117.766
 20
7295077.621
 30
0.0
 40
13.999
  1
29
  7
txt
 72
     4
 11
942129.12
 21
7295084.621
 31
0.0
210
0.0
220
0.0
230
1.0
  0
TEXT
  8
10
  6
CONTINUOUS
 62
   134
  5
5C5
 10
942018.87
 20
7295080.833
 30
0.0
 40
13.999
  1
30
  7
txt
 72
     4
 11
942030.498
 21
7295087.833
 31
0.0
210
0.0
220
0.0
230
1.0
  0
LINE
  8
6
  6
CONTINUOUS
 62
     7
  5
5C6
 10
941931.109
 20
7295143.068
 30
0.0
 11
941927.465
 21
7295031.157
 31
0.0
  0
LINE
  8
6
  6
CONTINUOUS
 62
     7
  5
5C7
 10
940870.37
 20
7295055.57
 30
0.0
 11
941917.144
 21
7295021.489
 31
0.0
  0
LINE
  8
6
  6
CONTINUOUS
 62
     7
  5
5C8
 10
941847.241
 20
7295160.807
 30
0.0
 11
941842.784
 21
7295023.91
 31
0.0
  0
LINE
  8
6
  6
CONTINUOUS
 62
     7
  5
5C9
 10
941917.144
 20
7295021.489
 30
0.0
 11
941927.465
 21
7295031.157
 31
0.0
  0
LINE
  8
6
  6
CONTINUOUS
 62
     7
  5
5CA
 10
941765.654
 20
7295163.463
 30
0.0
 11
941761.197
 21
7295026.566
 31
0.0
  0
LINE
  8
6
  6
CONTINUOUS
 62
     7
  5
5CB
 10
941684.067
 20
7295166.119
 30
0.0
 11
941679.61
 21
7295029.222
 31
0.0
  0
LINE
  8
6
  6
CONTINUOUS
 62
     7
  5
5CC
 10
941591.676
 20
7295169.127
 30
0.0
 11
941587.219
 21
7295032.23
 31
0.0
  0
LINE
  8
6
  6
CONTINUOUS
 62
     7
  5
5CD
 10
941494.278
 20
7295172.298
 30
0.0
 11
941489.821
 21
7295035.401
 31
0.0
  0
LINE
  8
6
  6
CONTINUOUS
 62
     7
  5
5CE
 10
941412.691
 20
7295174.954
 30
0.0
 11
941408.234
 21
7295038.057
 31
0.0
  0
LINE
  8
6
  6
CONTINUOUS
 62
     7
  5
5CF
 10
941331.104
 20
7295177.61
 30
0.0
 11
941326.647
 21
7295040.713
 31
0.0
  0
LINE
  8
6
  6
CONTINUOUS
 62
     7
  5
5D0
 10
941249.517
 20
7295180.266
 30
0.0
 11
941245.06
 21
7295043.369
 31
0.0
  0
LINE
  8
6
  6
CONTINUOUS
 62
     7
  5
5D1
 10
941167.931
 20
7295182.923
 30
0.0
 11
941163.474
 21
7295046.026
 31
0.0
  0
LINE
  8
6
  6
CONTINUOUS
 62
     7
  5
5D2
 10
941086.344
 20
7295185.579
 30
0.0
 11
941081.887
 21
7295048.682
 31
0.0
  0
LINE
  8
6
  6
CONTINUOUS
 62
     7
  5
5D3
 10
940975.053
 20
7295189.202
 30
0.0
 11
940970.596
 21
7295052.305
 31
0.0
  0
LINE
  8
6
  6
CONTINUOUS
 62
     7
  5
5D4
 10
940864.605
 20
7295177.822
 30
0.0
 11
940860.729
 21
7295065.889
 31
0.0
  0
TEXT
  8
11
  6
CONTINUOUS
 62
     7
  5
5D5
 10
941925.595
 20
7295065.912
 30
0.0
 40
8.0
  1
111.97'
 50
88.135017
  7
txt
 72
     1
 11
941926.221218
 21
7295085.143807
 31
0.0
210
0.0
220
0.0
230
1.0
  0
TEXT
  8
11
  6
CONTINUOUS
 62
     7
  5
5D6
 10
941842.187
 20
7295069.022
 30
0.0
 40
8.0
  1
136.97'
 50
88.135261
  7
txt
 72
     1
 11
941842.899237
 21
7295090.898409
 31
0.0
210
0.0
220
0.0
230
1.0
  0
TEXT
  8
11
  6
CONTINUOUS
 62
     7
  5
5D7
 10
940969.572
 20
7295097.434
 30
0.0
 40
8.0
  1
136.97'
 50
88.135261
  7
txt
 72
     1
 11
940970.284237
 21
7295119.310409
 31
0.0
210
0.0
220
0.0
230
1.0
  0
TEXT
  8
11
  6
CONTINUOUS
 62
     7
  5
5D8
 10
940872.526
 20
7295112.706
 30
0.0
 40
8.0
  1
112'
 50
88.016803
  7
txt
 72
     1
 11
940872.899818
 21
7295123.50153
 31
0.0
210
0.0
220
0.0
230
1.0
  0
LINE
  8
6
  6
CONTINUOUS
 62
     7
  5
5D9
 10
940860.729
 20
7295065.889
 30
0.0
 11
940870.37
 21
7295055.57
 31
0.0
  0
TEXT
  8
11
  6
CONTINUOUS
 62
     7
  5
5DA
 10
940869.701
 20
7295059.109
 30
0.0
 40
8.0
  1
14.13'
 50
43.054528
  7
txt
 72
     1
 11
940882.128819
 21
7295070.720261
 31
0.0
210
0.0
220
0.0
230
1.0
  0
TEXT
  8
11
  6
CONTINUOUS
 62
     7
  5
5DB
 10
940903.589
 20
7295057.49
 30
0.0
 40
8.0
  1
100.28'
 50
358.135217
  7
txt
 72
     1
 11
940925.749258
 21
7295056.768504
 31
0.0
210
0.0
220
0.0
230
1.0
  0
TEXT
  8
11
  6
CONTINUOUS
 62
     7
  5
5DC
 10
940904.254
 20
7295180.504
 30
0.0
 40
8.0
  1
95.03'
 50
358.135225
  7
txt
 72
     1
 11
940923.936035
 21
7295187.867432
 31
0.0
210
0.0
220
0.0
230
1.0
 73
     3
  0
TEXT
  8
11
  6
CONTINUOUS
 62
     7
  5
5DD
 10
941022.98
 20
7295176.638
 30
0.0
 40
8.0
  1
111.35'
 50
358.135225
  7
txt
 72
     1
 11
941042.631051
 21
7295184.002441
 31
0.0
210
0.0
220
0.0
230
1.0
 73
     3
  0
TEXT
  8
11
  6
CONTINUOUS
 62
     7
  5
5DE
 10
941109.369
 20
7295173.825
 30
0.0
 40
8.0
  1
81.63'
 50
358.135225
  7
txt
 72
     1
 11
941127.665769
 21
7295181.233533
 31
0.0
210
0.0
220
0.0
230
1.0
 73
     3
  0
TEXT
  8
11
  6
CONTINUOUS
 62
     7
  5
5DF
 10
941190.354
 20
7295171.188
 30
0.0
 40
8.0
  1
81.63'
 50
358.135225
  7
txt
 72
     1
 11
941208.650769
 21
7295178.596533
 31
0.0
210
0.0
220
0.0
230
1.0
 73
     3
  0
TEXT
  8
11
  6
CONTINUOUS
 62
     7
  5
5E0
 10
941275.389
 20
7295168.419
 30
0.0
 40
8.0
  1
81.63'
 50
358.135225
  7
txt
 72
     1
 11
941293.685769
 21
7295175.827533
 31
0.0
210
0.0
220
0.0
230
1.0
 73
     3
  0
TEXT
  8
11
  6
CONTINUOUS
 62
     7
  5
5E1
 10
941354.35
 20
7295165.849
 30
0.0
 40
8.0
  1
81.63'
 50
358.135225
  7
txt
 72
     1
 11
941372.646769
 21
7295173.257533
 31
0.0
210
0.0
220
0.0
230
1.0
 73
     3
  0
TEXT
  8
11
  6
CONTINUOUS
 62
     7
  5
5E2
 10
941437.36
 20
7295163.146
 30
0.0
 40
8.0
  1
81.63'
 50
358.135225
  7
txt
 72
     1
 11
941455.656769
 21
7295170.554533
 31
0.0
210
0.0
220
0.0
230
1.0
 73
     3
  0
TEXT
  8
11
  6
CONTINUOUS
 62
     7
  5
5E3
 10
941523.794
 20
7295160.332
 30
0.0
 40
8.0
  1
97.45'
 50
358.135225
  7
txt
 72
     1
 11
941543.727901
 21
7295167.687232
 31
0.0
210
0.0
220
0.0
230
1.0
 73
     3
  0
TEXT
  8
11
  6
CONTINUOUS
 62
     7
  5
5E4
 10
941617.782
 20
7295157.272
 30
0.0
 40
8.0
  1
92.44'
 50
358.135225
  7
txt
 72
     1
 11
941637.873818
 21
7295164.62209
 31
0.0
210
0.0
220
0.0
230
1.0
 73
     3
  0
TEXT
  8
11
  6
CONTINUOUS
 62
     7
  5
5E5
 10
941707.649
 20
7295154.346
 30
0.0
 40
8.0
  1
81.63'
 50
358.135225
  7
txt
 72
     1
 11
941725.945769
 21
7295161.754533
 31
0.0
210
0.0
220
0.0
230
1.0
 73
     3
  0
TEXT
  8
11
  6
CONTINUOUS
 62
     7
  5
5E6
 10
941791.671
 20
7295151.61
 30
0.0
 40
8.0
  1
81.63'
 50
358.135225
  7
txt
 72
     1
 11
941809.967769
 21
7295159.018533
 31
0.0
210
0.0
220
0.0
230
1.0
 73
     3
  0
TEXT
  8
11
  6
CONTINUOUS
 62
     7
  5
5E7
 10
941871.188
 20
7295149.021
 30
0.0
 40
8.0
  1
69.4'
 50
358.135225
  7
txt
 72
     1
 11
941886.904136
 21
7295156.513554
 31
0.0
210
0.0
220
0.0
230
1.0
 73
     3
  0
TEXT
  8
11
  6
CONTINUOUS
 62
     7
  5
5E8
 10
941863.552
 20
7295026.236
 30
0.0
 40
8.0
  1
74.4'
 50
358.135217
  7
txt
 72
     1
 11
941879.605494
 21
7295025.713329
 31
0.0
210
0.0
220
0.0
230
1.0
  0
TEXT
  8
11
  6
CONTINUOUS
 62
     7
  5
5E9
 10
941896.5
 20
7295048.411
 30
0.0
 40
8.0
  1
14.14'
 50
313.128928
  7
txt
 72
     1
 11
941908.255914
 21
7295035.861063
 31
0.0
210
0.0
220
0.0
230
1.0
  0
TEXT
  8
10
  6
CONTINUOUS
 62
   134
  5
5EA
 10
941873.496
 20
7295085.646
 30
0.0
 40
13.999
  1
31
  7
txt
 72
     4
 11
941882.7
 21
7295092.646
 31
0.0
210
0.0
220
0.0
230
1.0
  0
TEXT
  8
10
  6
CONTINUOUS
 62
   134
  5
5EB
 10
941790.031
 20
7295088.283
 30
0.0
 40
13.999
  1
32
  7
txt
 72
     4
 11
941801.715
 21
7295095.283
 31
0.0
210
0.0
220
0.0
230
1.0
  0
TEXT
  8
10
  6
CONTINUOUS
 62
   134
  5
5EC
 10
941715.12
 20
7295090.723
 30
0.0
 40
13.999
  1
33
  7
txt
 72
     4
 11
941726.804
 21
7295097.723
 31
0.0
210
0.0
220
0.0
230
1.0
  0
TEXT
  8
10
  6
CONTINUOUS
 62
   134
  5
5ED
 10
941623.682
 20
7295093.69
 30
0.0
 40
13.999
  1
34
  7
txt
 72
     4
 11
941635.696
 21
7295100.69
 31
0.0
210
0.0
220
0.0
230
1.0
  0
TEXT
  8
10
  6
CONTINUOUS
 62
   134
  5
5EE
 10
941530.879
 20
7295096.723
 30
0.0
 40
13.999
  1
35
  7
txt
 72
     4
 11
941542.563
 21
7295103.723
 31
0.0
210
0.0
220
0.0
230
1.0
  0
TEXT
  8
10
  6
CONTINUOUS
 62
   134
  5
5EF
 10
941438.076
 20
7295099.756
 30
0.0
 40
13.999
  1
36
  7
txt
 72
     4
 11
941449.43
 21
7295106.756
 31
0.0
210
0.0
220
0.0
230
1.0
  0
TEXT
  8
10
  6
CONTINUOUS
 62
   134
  5
5F0
 10
941358.732
 20
7295102.327
 30
0.0
 40
13.999
  1
37
  7
txt
 72
     4
 11
941370.47
 21
7295109.327
 31
0.0
210
0.0
220
0.0
230
1.0
  0
TEXT
  8
10
  6
CONTINUOUS
 62
   134
  5
5F1
 10
941271.727
 20
7295105.162
 30
0.0
 40
13.999
  1
38
  7
txt
 72
     4
 11
941283.411
 21
7295112.162
 31
0.0
210
0.0
220
0.0
230
1.0
  0
TEXT
  8
10
  6
CONTINUOUS
 62
   134
  5
5F2
 10
941193.097
 20
7295107.733
 30
0.0
 40
13.999
  1
39
  7
txt
 72
     4
 11
941204.451
 21
7295114.733
 31
0.0
210
0.0
220
0.0
230
1.0
  0
TEXT
  8
10
  6
CONTINUOUS
 62
   134
  5
5F3
 10
941109.482
 20
7295110.436
 30
0.0
 40
13.999
  1
40
  7
txt
 72
     4
 11
941121.441
 21
7295117.436
 31
0.0
210
0.0
220
0.0
230
1.0
  0
TEXT
  8
10
  6
CONTINUOUS
 62
   134
  5
5F4
 10
941024.848
 20
7295113.271
 30
0.0
 40
13.999
  1
41
  7
txt
 72
     4
 11
941034.382
 21
7295120.271
 31
0.0
210
0.0
220
0.0
230
1.0
  0
TEXT
  8
10
  6
CONTINUOUS
 62
   134
  5
5F5
 10
940904.94
 20
7295117.095
 30
0.0
 40
13.999
  1
42
  7
txt
 72
     4
 11
940916.954
 21
7295124.095
 31
0.0
210
0.0
220
0.0
230
1.0
  0
SOLID
  8
21
  6
DASHDOT
 62
     7
  5
5F6
 10
941402.367
 20
7295042.25
 30
0.0
 11
941408.364
 21
7295042.055
 31
0.0
 12
941402.237
 22
7295038.252
 32
0.0
 13
941408.234
 23
7295038.057
 33
0.0
  0
SOLID
  8
21
  6
DASHDOT
 62
     7
  5
5F7
 10
941076.02
 20
7295052.875
 30
0.0
 11
941082.017
 21
7295052.68
 31
0.0
 12
941075.89
 22
7295048.877
 32
0.0
 13
941081.887
 23
7295048.682
 33
0.0
  0
SOLID
  8
21
  6
DASHDOT
 62
     7
  5
5F8
 10
941082.017
 20
7295052.68
 30
0.0
 11
941088.014
 21
7295052.485
 31
0.0
 12
941081.887
 22
7295048.682
 32
0.0
 13
941087.884
 23
7295048.487
 33
0.0
  0
SOLID
  8
21
  6
DASHDOT
 62
     7
  5
5F9
 10
941408.364
 20
7295042.055
 30
0.0
 11
941414.361
 21
7295041.86
 31
0.0
 12
941408.234
 22
7295038.057
 32
0.0
 13
941414.231
 23
7295037.862
 33
0.0
  0
SOLID
  8
21
  6
DASHDOT
 62
     7
  5
5FA
 10
941673.743
 20
7295033.415
 30
0.0
 11
941679.74
 21
7295033.22
 31
0.0
 12
941673.613
 22
7295029.417
 32
0.0
 13
941679.61
 23
7295029.222
 33
0.0
  0
SOLID
  8
21
  6
DASHDOT
 62
     7
  5
5FB
 10
941679.74
 20
7295033.22
 30
0.0
 11
941685.737
 21
7295033.025
 31
0.0
 12
941679.61
 22
7295029.222
 32
0.0
 13
941685.607
 23
7295029.027
 33
0.0
  0
SOLID
  8
21
  6
DASHDOT
 62
     7
  5
5FC
 10
942173.138
 20
7295017.155
 30
0.0
 11
942179.135
 21
7295016.96
 31
0.0
 12
942173.008
 22
7295013.157
 32
0.0
 13
942179.005
 23
7295012.962
 33
0.0
  0
SOLID
  8
21
  6
DASHDOT
 62
     7
  5
5FD
 10
942179.135
 20
7295016.96
 30
0.0
 11
942185.132
 21
7295016.765
 31
0.0
 12
942179.005
 22
7295012.962
 32
0.0
 13
942185.002
 23
7295012.767
 33
0.0
  0
SOLID
  8
21
  6
DASHDOT
 62
     7
  5
5FE
 10
942537.945
 20
7295005.278
 30
0.0
 11
942543.942
 21
7295005.083
 31
0.0
 12
942537.815
 22
7295001.28
 32
0.0
 13
942543.812
 23
7295001.085
 33
0.0
  0
SOLID
  8
21
  6
DASHDOT
 62
     7
  5
5FF
 10
942543.942
 20
7295005.083
 30
0.0
 11
942549.939
 21
7295004.888
 31
0.0
 12
942543.812
 22
7295001.085
 32
0.0
 13
942549.809
 23
7295000.89
 33
0.0
  0
POLYLINE
  8
21
  6
DASHDOT
 62
     7
  5
600
 66
     1
 10
0.0
 20
0.0
 30
0.0
  0
VERTEX
  8
21
  6
DASHDOT
 62
     7
  5
601
 10
942712.693
 20
7295117.708
 30
0.0
  0
VERTEX
  8
21
  6
DASHDOT
 62
     7
  5
602
 10
942709.14
 20
7295005.704
 30
0.0
  0
VERTEX
  8
21
  6
DASHDOT
 62
     7
  5
603
 10
942699.466
 20
7294996.017
 30
0.0
  0
VERTEX
  8
21
  6
DASHDOT
 62
     7
  5
604
 10
942691.938
 20
7294996.262
 30
0.0
  0
VERTEX
  8
21
  6
DASHDOT
 62
     7
  5
605
 10
942706.296
 20
7295010.639
 30
0.0
  0
VERTEX
  8
21
  6
DASHDOT
 62
     7
  5
606
 10
942709.978
 20
7295126.724
 30
0.0
  0
VERTEX
  8
21
  6
DASHDOT
 62
     7
  5
607
 10
942709.977863
 20
7295126.723906
 30
0.0
 42
-0.160999
  0
VERTEX
  8
21
  6
DASHDOT
 62
     7
  5
608
 10
942712.693
 20
7295117.708
 30
0.0
  0
SEQEND
  8
21
  6
DASHDOT
 62
     7
  5
609
  0
POLYLINE
  8
21
  6
DASHDOT
 62
     7
  5
60A
 66
     1
 10
0.0
 20
0.0
 30
0.0
 70
     1
  0
VERTEX
  8
21
  6
DASHDOT
 62
     7
  5
60B
 10
941760.657
 20
7295163.626
 30
0.0
  0
VERTEX
  8
21
  6
DASHDOT
 62
     7
  5
60C
 10
941770.651
 20
7295163.3
 30
0.0
  0
VERTEX
  8
21
  6
DASHDOT
 62
     7
  5
60D
 10
941766.194
 20
7295026.403
 30
0.0
  0
VERTEX
  8
21
  6
DASHDOT
 62
     7
  5
60E
 10
941756.2
 20
7295026.729
 30
0.0
  0
SEQEND
  8
21
  6
DASHDOT
 62
     7
  5
60F
  0
POLYLINE
  8
21
  6
DASHDOT
 62
     7
  5
610
 66
     1
 10
0.0
 20
0.0
 30
0.0
 70
     1
  0
VERTEX
  8
21
  6
DASHDOT
 62
     7
  5
611
 10
940975.053
 20
7295189.202
 30
0.0
  0
VERTEX
  8
21
  6
DASHDOT
 62
     7
  5
612
 10
940980.05
 20
7295189.039
 30
0.0
  0
VERTEX
  8
21
  6
DASHDOT
 62
     7
  5
613
 10
940975.593
 20
7295052.142
 30
0.0
  0
VERTEX
  8
21
  6
DASHDOT
 62
     7
  5
614
 10
940970.596
 20
7295052.305
 30
0.0
  0
SEQEND
  8
21
  6
DASHDOT
 62
     7
  5
615
  0
TEXT
  8
22
  6
CONTINUOUS
 62
     3
  5
616
 10
941034.634
 20
7295051.662
 30
0.0
 40
6.0
  1
TPE-LPL
 50
358.135217
  7
txt
 72
     1
 11
941053.379067
 21
7295051.051696
 31
0.0
210
0.0
220
0.0
230
1.0
  0
TEXT
  8
22
  6
CONTINUOUS
 62
     3
  5
617
 10
941362.383
 20
7295041.245
 30
0.0
 40
6.0
  1
TPE-LPL
 50
358.135217
  7
txt
 72
     1
 11
941381.128067
 21
7295040.634696
 31
0.0
210
0.0
220
0.0
230
1.0
  0
TEXT
  8
22
  6
CONTINUOUS
 62
     3
  5
618
 10
941632.421
 20
7295032.453
 30
0.0
 40
6.0
  1
TPE-LPL
 50
358.135217
  7
txt
 72
     1
 11
941651.166067
 21
7295031.842696
 31
0.0
210
0.0
220
0.0
230
1.0
  0
TEXT
  8
22
  6
CONTINUOUS
 62
     3
  5
619
 10
942133.786
 20
7295016.381
 30
0.0
 40
6.0
  1
TPE-LPL
 50
358.135133
  7
txt
 72
     1
 11
942152.531067
 21
7295015.770669
 31
0.0
210
0.0
220
0.0
230
1.0
  0
TEXT
  8
22
  6
CONTINUOUS
 62
     3
  5
61A
 10
942498.485
 20
7295004.761
 30
0.0
 40
6.0
  1
TPE-LPL
 50
358.135133
  7
txt
 72
     1
 11
942517.230067
 21
7295004.150669
 31
0.0
210
0.0
220
0.0
230
1.0
  0
TEXT
  8
22
  6
CONTINUOUS
 62
     3
  5
61B
 10
942551.364
 20
7295002.279
 30
0.0
 40
6.0
  1
TPE-XCEL
 50
358.135133
  7
txt
 72
     1
 11
942573.390328
 21
7295001.561832
 31
0.0
210
0.0
220
0.0
230
1.0
  0
TEXT
  8
22
  6
CONTINUOUS
 62
     3
  5
61C
 10
942185.411
 20
7295014.32
 30
0.0
 40
6.0
  1
TPE-XCEL
 50
358.135133
  7
txt
 72
     1
 11
942207.437328
 21
7295013.602832
 31
0.0
210
0.0
220
0.0
230
1.0
  0
TEXT
  8
22
  6
CONTINUOUS
 62
     3
  5
61D
 10
941688.103
 20
7295030.387
 30
0.0
 40
6.0
  1
TPE-XCEL
 50
358.135217
  7
txt
 72
     1
 11
941710.129329
 21
7295029.669864
 31
0.0
210
0.0
220
0.0
230
1.0
  0
TEXT
  8
22
  6
CONTINUOUS
 62
     3
  5
61E
 10
941091.842
 20
7295049.801
 30
0.0
 40
6.0
  1
TPE-XCEL
 50
358.135217
  7
txt
 72
     1
 11
941113.868329
 21
7295049.083864
 31
0.0
210
0.0
220
0.0
230
1.0
  0
TEXT
  8
19
  6
CONTINUOUS
 62
     1
  5
61F
 10
941962.764
 20
7294819.572
 30
0.0
 40
24.0
  1
N AKRON AVE
 50
88.1878
  7
ROMANC
 72
     4
 11
941955.577482
 21
7294971.897449
 31
0.0
210
0.0
220
0.0
230
1.0
  0
LINE
  8
6
  6
CONTINUOUS
 62
     7
  5
620
 10
942694.225
 20
7294550.486
 30
0.0
 11
942708.07
 21
7294975.726
 31
0.0
  0
TEXT
  8
11
  6
CONTINUOUS
 62
     7
  5
621
 10
940870.069
 20
7295039.676
 30
0.0
 40
8.0
  1
20'
 50
88.1878
  7
ROMANS
210
0.0
220
0.0
230
1.0
  0
TEXT
  8
11
  6
CONTINUOUS
 62
     7
  5
622
 10
942698.451
 20
7294976.087
 30
0.0
 40
8.0
  1
20'
 50
88.1878
  7
ROMANS
210
0.0
220
0.0
230
1.0
  0
TEXT
  8
22
  6
CONTINUOUS
 62
     3
  5
623
 10
940985.393
 20
7295104.09
 30
0.0
 40
6.0
  1
5' UUE
 50
88.135261
  7
txt
 72
     1
 11
940979.829676
 21
7295117.600186
 31
0.0
210
0.0
220
0.0
230
1.0
 73
     3
  0
TEXT
  8
22
  6
CONTINUOUS
 62
     3
  5
624
 10
941776.737
 20
7295077.617
 30
0.0
 40
6.0
  1
10' UUE
 50
88.135261
  7
txt
 72
     1
 11
941771.235958
 21
7295093.040172
 31
0.0
210
0.0
220
0.0
230
1.0
 73
     3
  0
TEXT
  8
22
  6
CONTINUOUS
 62
     3
  5
625
 10
942717.185
 20
7295003.593
 30
0.0
 40
6.0
  1
SALT WATER LINE ESMT
 50
88.135247
  7
txt
 72
     1
 11
942713.064388
 21
7295061.415708
 31
0.0
210
0.0
220
0.0
230
1.0
 73
     3
  0
TEXT
  8
19
  6
CONTINUOUS
 62
     1
  5
626
 10
939908.513
 20
7294658.008
 30
0.0
 40
24.0
  1
KENT ST
 50
358.1878
  7
ROMANC
 72
     4
 11
939996.812488
 21
7294667.220261
 31
0.0
210
0.0
220
0.0
230
1.0
  0
TEXT
  8
19
  6
CONTINUOUS
 62
     1
  5
627
 10
938189.971
 20
7294719.505
 30
0.0
 40
24.0
  1
KENT ST
 50
358.1878
  7
ROMANC
 72
     4
 11
938278.270488
 21
7294728.717261
 31
0.0
210
0.0
220
0.0
230
1.0
  0
ENDSEC
  0
EOF
