  0
SECTION
  2
HEADER
  9
$ACADVER
  1
AC1009
  9
$INSBASE
 10
0.0
 20
0.0
 30
0.0
  9
$EXTMIN
 10
121612.193
 20
94474.21
 30
0.0
  9
$EXTMAX
 10
127047.749
 20
100521.448
 30
0.0
  9
$LIMMIN
 10
0.0
 20
0.0
  9
$LIMMAX
 10
12.0
 20
9.0
  9
$ORTHOMODE
 70
     0
  9
$REGENMODE
 70
     1
  9
$FILLMODE
 70
     1
  9
$QTEXTMODE
 70
     0
  9
$MIRRTEXT
 70
     1
  9
$DRAGMODE
 70
     2
  9
$LTSCALE
 40
1.0
  9
$OSMODE
 70
     0
  9
$ATTMODE
 70
     1
  9
$TEXTSIZE
 40
0.2
  9
$TRACEWID
 40
0.05
  9
$TEXTSTYLE
  7
STANDARD
  9
$CLAYER
  8
0
  9
$CELTYPE
  6
CONTINUOUS
  9
$CECOLOR
 62
   256
  9
$DIMSCALE
 40
1.0
  9
$DIMASZ
 40
0.18
  9
$DIMEXO
 40
0.0625
  9
$DIMDLI
 40
0.38
  9
$DIMRND
 40
0.0
  9
$DIMDLE
 40
0.0
  9
$DIMEXE
 40
0.18
  9
$DIMTP
 40
0.0
  9
$DIMTM
 40
0.0
  9
$DIMTXT
 40
0.18
  9
$DIMCEN
 40
0.09
  9
$DIMTSZ
 40
0.0
  9
$DIMTOL
 70
     0
  9
$DIMLIM
 70
     0
  9
$DIMTIH
 70
     1
  9
$DIMTOH
 70
     1
  9
$DIMSE1
 70
     0
  9
$DIMSE2
 70
     0
  9
$DIMTAD
 70
     0
  9
$DIMZIN
 70
     0
  9
$DIMBLK
  1

  9
$DIMASO
 70
     1
  9
$DIMSHO
 70
     1
  9
$DIMPOST
  1

  9
$DIMAPOST
  1

  9
$DIMALT
 70
     0
  9
$DIMALTD
 70
     2
  9
$DIMALTF
 40
25.4
  9
$DIMLFAC
 40
1.0
  9
$DIMTOFL
 70
     0
  9
$DIMTVP
 40
0.0
  9
$DIMTIX
 70
     0
  9
$DIMSOXD
 70
     0
  9
$DIMSAH
 70
     0
  9
$DIMBLK1
  1

  9
$DIMBLK2
  1

  9
$DIMSTYLE
  2
STANDARD
  9
$DIMCLRD
 70
     0
  9
$DIMCLRE
 70
     0
  9
$DIMCLRT
 70
     0
  9
$DIMTFAC
 40
1.0
  9
$DIMGAP
 40
0.09
  9
$LUNITS
 70
     2
  9
$LUPREC
 70
     4
  9
$AXISMODE
 70
     0
  9
$AXISUNIT
 10
0.0
 20
0.0
  9
$SKETCHINC
 40
0.1
  9
$FILLETRAD
 40
0.0
  9
$AUNITS
 70
     0
  9
$AUPREC
 70
     0
  9
$MENU
  1
acad
  9
$ELEVATION
 40
0.0
  9
$PELEVATION
 40
0.0
  9
$THICKNESS
 40
0.0
  9
$LIMCHECK
 70
     0
  9
$BLIPMODE
 70
     1
  9
$CHAMFERA
 40
0.0
  9
$CHAMFERB
 40
0.0
  9
$SKPOLY
 70
     0
  9
$TDCREATE
 40
2453013.901759259
  9
$TDUPDATE
 40
2453013.901759259
  9
$TDINDWG
 40
0.0000000000
  9
$TDUSRTIMER
 40
0.0000000000
  9
$USRTIMER
 70
     1
  9
$ANGBASE
 50
0.0
  9
$ANGDIR
 70
     0
  9
$PDMODE
 70
     0
  9
$PDSIZE
 40
0.0
  9
$PLINEWID
 40
0.0
  9
$COORDS
 70
     0
  9
$SPLFRAME
 70
     0
  9
$SPLINETYPE
 70
     6
  9
$SPLINESEGS
 70
    10
  9
$ATTDIA
 70
     0
  9
$ATTREQ
 70
     1
  9
$HANDLING
 70
     1
  9
$HANDSEED
  5
2AF
  9
$SURFTAB1
 70
     6
  9
$SURFTAB2
 70
     6
  9
$SURFTYPE
 70
     6
  9
$SURFU
 70
     6
  9
$SURFV
 70
     6
  9
$UCSNAME
  2

  9
$UCSORG
 10
0.0
 20
0.0
 30
0.0
  9
$UCSXDIR
 10
1.0
 20
0.0
 30
0.0
  9
$UCSYDIR
 10
0.0
 20
1.0
 30
0.0
  9
$PUCSNAME
  2

  9
$PUCSORG
 10
0.0
 20
0.0
 30
0.0
  9
$PUCSXDIR
 10
1.0
 20
0.0
 30
0.0
  9
$PUCSYDIR
 10
0.0
 20
1.0
 30
0.0
  9
$USERI1
 70
     0
  9
$USERI2
 70
     0
  9
$USERI3
 70
     0
  9
$USERI4
 70
     0
  9
$USERI5
 70
     0
  9
$USERR1
 40
0.0
  9
$USERR2
 40
0.0
  9
$USERR3
 40
0.0
  9
$USERR4
 40
0.0
  9
$USERR5
 40
0.0
  9
$WORLDVIEW
 70
     1
  9
$SHADEDGE
 70
     3
  9
$SHADEDIF
 70
    70
  9
$TILEMODE
 70
     1
  9
$MAXACTVP
 70
    16
  9
$PINSBASE
 10
0.0
 20
0.0
 30
0.0
  9
$PLIMCHECK
 70
     0
  9
$PEXTMIN
 10
-1.000000E+20
 20
-1.000000E+20
 30
-1.000000E+20
  9
$PEXTMAX
 10
-1.000000E+20
 20
-1.000000E+20
 30
-1.000000E+20
  9
$PLIMMIN
 10
0.0
 20
0.0
  9
$PLIMMAX
 10
12.0
 20
9.0
  9
$UNITMODE
 70
     0
  9
$VISRETAIN
 70
     0
  9
$PLINEGEN
 70
     1
  9
$PSLTSCALE
 70
     0
  9
$TREEDEPTH
 70
  3020
  9
$DWGCODEPAGE
  3
ansi_1252
  0
ENDSEC
  0
SECTION
  2
TABLES
  0
TABLE
  2
VPORT
 70
     1
  0
VPORT
  2
*ACTIVE
 70
     0
 10
0.0
 20
0.0
 11
1.0
 21
1.0
 12
0.0
 22
0.0
 13
0.0
 23
0.0
 14
0.0
 24
0.0
 15
0.0
 25
0.0
 16
0.0
 26
0.0
 36
1.0
 17
123891.634532
 27
97364.464665
 37
0.0
 40
5754.145
 41
1.264368
 42
50.0
 43
0.004
 44
0.0
 50
1.683729
 51
0.0
 71
     0
 72
   100
 73
     1
 74
     0
 75
     0
 76
     0
 77
     0
 78
     0
  0
ENDTAB
  0
TABLE
  2
LTYPE
 70
     7
  0
LTYPE
  2
CONTINUOUS
 70
     0
  3
Solid line
 72
    65
 73
     0
 40
0.0
  0
LTYPE
  2
DOT
 70
    64
  3
. . . . . . . . . . . . . . . . . . . . . . . . . . . . . . . . .
 72
    65
 73
     2
 40
0.25
 49
0.0
 49
-0.25
  0
LTYPE
  2
HIDDEN
 70
    64
  3
__ __ __ __ __ __ __ __ __ __ __ __ __ __ __ __ __ __ __ __ __ 
 72
    65
 73
     2
 40
0.375
 49
0.25
 49
-0.125
  0
LTYPE
  2
DASHED
 70
    64
  3
__ __ __ __ __ __ __ __ __ __ __ __ __ __ __ __ __ __ __ __ __
 72
    65
 73
     2
 40
0.75
 49
0.5
 49
-0.25
  0
LTYPE
  2
DASHDOT
 70
    64
  3
__ . __ . __ . __ . __ . __ . __ . __ . __ . __ . __ . __ . _
 72
    65
 73
     4
 40
1.0
 49
0.5
 49
-0.25
 49
0.0
 49
-0.25
  0
LTYPE
  2
DIVIDE
 70
    64
  3
____ . . ____ . . ____ . . ____ . . ____ . . ____ . . ____ . .
 72
    65
 73
     6
 40
1.25
 49
0.5
 49
-0.25
 49
0.0
 49
-0.25
 49
0.0
 49
-0.25
  0
LTYPE
  2
CENTER
 70
    64
  3
____ _ ____ _ ____ _ ____ _ ____ _ ____ _ ____ _ ____ _ ____ _
 72
    65
 73
     4
 40
2.0
 49
1.25
 49
-0.25
 49
0.25
 49
-0.25
  0
ENDTAB
  0
TABLE
  2
LAYER
 70
    13
  0
LAYER
  2
0
 70
     0
 62
     7
  6
CONTINUOUS
  0
LAYER
  2
CONSTRUCTION_CLASS
 70
     0
 62
     7
  6
CONTINUOUS
  0
LAYER
  2
PATTERN_CLASS
 70
     0
 62
     7
  6
CONTINUOUS
  0
LAYER
  2
1
 70
    64
 62
     7
  6
CONTINUOUS
  0
LAYER
  2
6
 70
    64
 62
     7
  6
CONTINUOUS
  0
LAYER
  2
27
 70
    64
 62
     7
  6
CONTINUOUS
  0
LAYER
  2
10
 70
    64
 62
     7
  6
CONTINUOUS
  0
LAYER
  2
11
 70
    64
 62
     7
  6
CONTINUOUS
  0
LAYER
  2
15
 70
    64
 62
     7
  6
CONTINUOUS
  0
LAYER
  2
19
 70
    64
 62
     7
  6
CONTINUOUS
  0
LAYER
  2
21
 70
    64
 62
     7
  6
CONTINUOUS
  0
LAYER
  2
22
 70
    64
 62
     7
  6
CONTINUOUS
  0
LAYER
  2
13
 70
    64
 62
     7
  6
CONTINUOUS
  0
ENDTAB
  0
TABLE
  2
STYLE
 70
     3
  0
STYLE
  2
STANDARD
 70
     0
 40
0.0
 41
1.0
 50
0.0
 71
     0
 42
0.0
  3
txt
  4

  0
STYLE
  2
ROMANS
 70
     0
 40
0.2
 41
1.0
 50
0.0
 71
     0
 42
0.2
  3
ROMANS
  4

  0
STYLE
  2
txt
 70
     0
 40
0.2
 41
1.0
 50
0.0
 71
     0
 42
0.2
  3
TXT
  4

  0
ENDTAB
  0
TABLE
  2
VIEW
 70
     0
  0
ENDTAB
  0
TABLE
  2
UCS
 70
     0
  0
ENDTAB
  0
TABLE
  2
APPID
 70
     1
  0
APPID
  2
ACAD
 70
     0
  0
ENDTAB
  0
TABLE
  2
DIMSTYLE
 70
     1
  0
DIMSTYLE
  2
STANDARD
 70
     0
  3

  4

  5

  6

  7

 40
1.0
 41
0.18
 42
0.0625
 43
0.38
 44
0.18
 45
0.0
 46
0.0
 47
0.0
 48
0.0
140
0.18
141
0.09
142
0.0
143
25.4
144
1.0
145
0.0
146
1.0
147
0.09
 71
     0
 72
     0
 73
     1
 74
     1
 75
     0
 76
     0
 77
     0
 78
     0
170
     0
171
     2
172
     0
173
     0
174
     0
175
     0
176
     0
177
     0
178
     0
  0
ENDTAB
  0
ENDSEC
  0
SECTION
  2
BLOCKS
  0
ENDSEC
  0
SECTION
  2
ENTITIES
  0
LINE
  8
1
  6
HIDDEN
 62
   253
  5
29
 10
121612.193
 20
95243.81
 30
0.0
 11
121770.111
 21
100521.448
 31
0.0
  0
LINE
  8
1
  6
HIDDEN
 62
   253
  5
2A
 10
127047.749
 20
100363.53
 30
0.0
 11
121770.111
 21
100521.448
 31
0.0
  0
LINE
  8
1
  6
HIDDEN
 62
   253
  5
2B
 10
121770.111
 20
100521.448
 30
0.0
 11
121612.193
 21
95243.81
 31
0.0
  0
LINE
  8
1
  6
HIDDEN
 62
   253
  5
2C
 10
121612.193
 20
95243.81
 30
0.0
 11
126889.831
 21
95085.892
 31
0.0
  0
LINE
  8
1
  6
HIDDEN
 62
   253
  5
2D
 10
126889.831
 20
95085.892
 30
0.0
 11
127047.749
 21
100363.53
 31
0.0
  0
LINE
  8
6
  6
CONTINUOUS
 62
     7
  5
2F
 10
126407.501
 20
94791.172
 30
0.0
 11
126430.076
 21
95545.648
 31
0.0
  0
LINE
  8
6
  6
CONTINUOUS
 62
     7
  5
30
 10
126430.076
 20
95545.648
 30
0.0
 11
126903.164
 21
95531.492
 31
0.0
  0
LINE
  8
6
  6
CONTINUOUS
 62
     7
  5
31
 10
124706.647
 20
97984.485
 30
0.0
 11
124754.143
 21
99571.774
 31
0.0
  0
LINE
  8
6
  6
CONTINUOUS
 62
     7
  5
32
 10
125601.163
 20
99546.43
 30
0.0
 11
125626.885
 21
100406.045
 31
0.0
  0
LINE
  8
6
  6
CONTINUOUS
 62
     7
  5
33
 10
125601.163
 20
99546.43
 30
0.0
 11
124754.143
 21
99571.774
 31
0.0
  0
LINE
  8
6
  6
CONTINUOUS
 62
     7
  5
34
 10
123715.623
 20
97984.125
 30
0.0
 11
122381.165
 21
98024.055
 31
0.0
  0
LINE
  8
6
  6
CONTINUOUS
 62
     7
  5
35
 10
126473.154
 20
97971.645
 30
0.0
 11
124706.647
 21
97984.485
 31
0.0
  0
LINE
  8
6
  6
CONTINUOUS
 62
     7
  5
36
 10
124706.647
 20
97984.485
 30
0.0
 11
123715.623
 21
97984.125
 31
0.0
  0
LINE
  8
6
  6
CONTINUOUS
 62
     7
  5
37
 10
127047.749
 20
100363.53
 30
0.0
 11
126545.174
 21
100378.568
 31
0.0
  0
LINE
  8
6
  6
CONTINUOUS
 62
     7
  5
38
 10
126545.174
 20
100378.568
 30
0.0
 11
125626.885
 21
100406.045
 31
0.0
  0
LINE
  8
6
  6
CONTINUOUS
 62
     7
  5
39
 10
123741.518
 20
98849.538
 30
0.0
 11
123765.329
 21
99645.282
 31
0.0
  0
LINE
  8
6
  6
CONTINUOUS
 62
     7
  5
3A
 10
123740.023
 20
98799.56
 30
0.0
 11
123741.518
 21
98849.538
 31
0.0
  0
LINE
  8
6
  6
CONTINUOUS
 62
     7
  5
3B
 10
123715.623
 20
97984.125
 30
0.0
 11
123716.213
 21
98003.826
 31
0.0
  0
LINE
  8
6
  6
CONTINUOUS
 62
     7
  5
3C
 10
123716.213
 20
98003.826
 30
0.0
 11
123740.023
 21
98799.56
 31
0.0
  0
LINE
  8
6
  6
CONTINUOUS
 62
     7
  5
3D
 10
123788.242
 20
100411.039
 30
0.0
 11
123789.737
 21
100461.016
 31
0.0
  0
LINE
  8
6
  6
CONTINUOUS
 62
     7
  5
3E
 10
123177.002
 20
99662.885
 30
0.0
 11
123199.915
 21
100428.643
 31
0.0
  0
LINE
  8
6
  6
CONTINUOUS
 62
     7
  5
3F
 10
123382.449
 20
98860.282
 30
0.0
 11
123406.259
 21
99656.026
 31
0.0
  0
LINE
  8
6
  6
CONTINUOUS
 62
     7
  5
40
 10
123108.991
 20
98868.464
 30
0.0
 11
123132.802
 21
99664.208
 31
0.0
  0
LINE
  8
6
  6
CONTINUOUS
 62
     7
  5
41
 10
122892.829
 20
99671.389
 30
0.0
 11
122915.742
 21
100437.146
 31
0.0
  0
LINE
  8
6
  6
CONTINUOUS
 62
     7
  5
42
 10
122608.666
 20
99679.891
 30
0.0
 11
122631.579
 21
100445.649
 31
0.0
  0
LINE
  8
6
  6
CONTINUOUS
 62
     7
  5
43
 10
122206.217
 20
99691.933
 30
0.0
 11
122229.13
 21
100457.691
 31
0.0
  0
LINE
  8
6
  6
CONTINUOUS
 62
     7
  5
44
 10
121784.322
 20
99722.839
 30
0.0
 11
121805.528
 21
100431.539
 31
0.0
  0
LINE
  8
6
  6
CONTINUOUS
 62
     7
  5
45
 10
122726.143
 20
98879.92
 30
0.0
 11
122749.953
 21
99675.664
 31
0.0
  0
LINE
  8
6
  6
CONTINUOUS
 62
     7
  5
46
 10
123152.875
 20
98020.682
 30
0.0
 11
123176.685
 21
98816.416
 31
0.0
  0
LINE
  8
6
  6
CONTINUOUS
 62
     7
  5
47
 10
122869.322
 20
98029.167
 30
0.0
 11
122893.132
 21
98824.901
 31
0.0
  0
LINE
  8
6
  6
CONTINUOUS
 62
     7
  5
48
 10
122585.769
 20
98037.651
 30
0.0
 11
122609.579
 21
98833.385
 31
0.0
  0
LINE
  8
6
  6
CONTINUOUS
 62
     7
  5
49
 10
121713.883
 20
98642.29
 30
0.0
 11
123680.789
 21
96819.957
 31
0.0
  0
LINE
  8
27
  6
CONTINUOUS
 62
    32
  5
4B
 10
121710.906
 20
98542.806
 30
0.0
 11
124143.234
 21
96289.261
 31
0.0
  0
LINE
  8
6
  6
CONTINUOUS
 62
     7
  5
4C
 10
121707.929
 20
98443.321
 30
0.0
 11
123578.705
 21
96710.052
 31
0.0
  0
LINE
  8
6
  6
CONTINUOUS
 62
     7
  5
4D
 10
123595.72
 20
96728.37
 30
0.0
 11
124107.714
 21
96254.007
 31
0.0
  0
LINE
  8
6
  6
CONTINUOUS
 62
     7
  5
4E
 10
123680.789
 20
96819.957
 30
0.0
 11
123663.775
 21
96801.64
 31
0.0
  0
LINE
  8
6
  6
CONTINUOUS
 62
     7
  5
4F
 10
123595.72
 20
96728.37
 30
0.0
 11
123578.705
 21
96710.052
 31
0.0
  0
ARC
  8
27
  6
CONTINUOUS
 62
    32
  5
50
 10
133255.963223
 20
107086.470523
 30
0.0
 40
14129.629384
 50
229.835825
 51
237.863939
210
0.0
220
0.0
230
1.0
  0
LINE
  8
6
  6
CONTINUOUS
 62
     7
  5
51
 10
124777.956
 20
95674.413
 30
0.0
 11
124703.066
 21
95593.786
 31
0.0
  0
ARC
  8
6
  6
CONTINUOUS
 62
     7
  5
52
 10
138871.537373
 20
113789.93737
 30
0.0
 40
22923.126811
 50
229.905344
 51
234.504925
210
0.0
220
0.0
230
1.0
  0
LINE
  8
6
  6
CONTINUOUS
 62
     7
  5
53
 10
123763.066
 20
95229.474
 30
0.0
 11
123789.051
 21
96097.885
 31
0.0
  0
LINE
  8
6
  6
CONTINUOUS
 62
     7
  5
54
 10
123263.29
 20
95244.428
 30
0.0
 11
123303.416
 21
96585.44
 31
0.0
  0
LINE
  8
6
  6
CONTINUOUS
 62
     7
  5
55
 10
122865.268
 20
95256.338
 30
0.0
 11
122916.656
 21
96973.73
 31
0.0
  0
LINE
  8
6
  6
CONTINUOUS
 62
     7
  5
56
 10
121675.157
 20
95341.971
 30
0.0
 11
121723.639
 21
95290.498
 31
0.0
  0
LINE
  8
6
  6
CONTINUOUS
 62
     7
  5
57
 10
123789.051
 20
96097.885
 30
0.0
 11
124341.334
 21
95522.311
 31
0.0
  0
LINE
  8
6
  6
CONTINUOUS
 62
     7
  5
58
 10
124341.334
 20
95522.311
 30
0.0
 11
124737.63
 21
95200.313
 31
0.0
  0
LINE
  8
6
  6
CONTINUOUS
 62
     7
  5
59
 10
123663.775
 20
96801.64
 30
0.0
 11
124177.26
 21
96325.894
 31
0.0
  0
LINE
  8
6
  6
CONTINUOUS
 62
     7
  5
5A
 10
124245.316
 20
96399.163
 30
0.0
 11
125934.174
 21
95114.487
 31
0.0
  0
LINE
  8
6
  6
CONTINUOUS
 62
     7
  5
5B
 10
124245.316
 20
96399.163
 30
0.0
 11
124177.26
 21
96325.894
 31
0.0
  0
LINE
  8
6
  6
CONTINUOUS
 62
     7
  5
5C
 10
124107.845
 20
96254.17
 30
0.0
 11
124075.723
 21
96214.348
 31
0.0
  0
LINE
  8
6
  6
CONTINUOUS
 62
     7
  5
5D
 10
122544.44
 20
96832.628
 30
0.0
 11
121720.498
 21
96857.283
 31
0.0
  0
LINE
  8
6
  6
CONTINUOUS
 62
     7
  5
5E
 10
122515.867
 20
95877.746
 30
0.0
 11
122365.935
 21
95882.232
 31
0.0
  0
LINE
  8
6
  6
CONTINUOUS
 62
     7
  5
5F
 10
122366.084
 20
95887.23
 30
0.0
 11
122124.122
 21
95894.47
 31
0.0
  0
LINE
  8
6
  6
CONTINUOUS
 62
     7
  5
60
 10
122087.291
 20
95574.318
 30
0.0
 11
121682.472
 21
95586.431
 31
0.0
  0
LINE
  8
6
  6
CONTINUOUS
 62
     7
  5
61
 10
121675.157
 20
95341.971
 30
0.0
 11
121682.472
 21
95586.431
 31
0.0
  0
LINE
  8
6
  6
CONTINUOUS
 62
     7
  5
62
 10
121682.472
 20
95586.431
 30
0.0
 11
121688.02
 21
95771.848
 31
0.0
  0
LINE
  8
6
  6
CONTINUOUS
 62
     7
  5
63
 10
122916.656
 20
96973.73
 30
0.0
 11
123303.416
 21
96585.44
 31
0.0
  0
LINE
  8
6
  6
CONTINUOUS
 62
     7
  5
64
 10
123303.416
 20
96585.44
 30
0.0
 11
123789.051
 21
96097.885
 31
0.0
  0
ARC
  8
6
  6
CONTINUOUS
 62
     7
  5
65
 10
122068.685826
 20
95872.007911
 30
0.0
 40
22.0
 50
268.2861
 51
358.2861
210
0.0
220
0.0
230
1.0
  0
LINE
  8
6
  6
CONTINUOUS
 62
     7
  5
66
 10
122095.76
 20
96041.274
 30
0.0
 11
121696.439
 21
96053.222
 31
0.0
  0
LINE
  8
6
  6
CONTINUOUS
 62
     7
  5
67
 10
122101.742
 20
96241.184
 30
0.0
 11
121702.421
 21
96253.133
 31
0.0
  0
LINE
  8
6
  6
CONTINUOUS
 62
     7
  5
68
 10
121726.743
 20
99072.08
 30
0.0
 11
121926.465
 21
98897.56
 31
0.0
  0
LINE
  8
6
  6
CONTINUOUS
 62
     7
  5
69
 10
121717.852
 20
98774.934
 30
0.0
 11
121938.353
 21
98570.639
 31
0.0
  0
LINE
  8
6
  6
CONTINUOUS
 62
     7
  5
6A
 10
121967.513
 20
98480.516
 30
0.0
 11
121935.093
 21
98437.339
 31
0.0
  0
LINE
  8
6
  6
CONTINUOUS
 62
     7
  5
6B
 10
121806.56
 20
99164.348
 30
0.0
 11
121802.446
 21
99195.267
 31
0.0
  0
TEXT
  8
10
  6
CONTINUOUS
 62
   134
  5
6E
 10
121954.79
 20
100032.687
 30
0.0
 40
27.998
  1
A
 50
358.2861
  7
ROMANS
 11
121955.627385
 21
100060.672475
 31
0.0
210
0.0
220
0.0
230
1.0
 73
     3
  0
TEXT
  8
10
  6
CONTINUOUS
 62
   134
  5
6F
 10
122378.975
 20
100017.705
 30
0.0
 40
27.998
  1
A-11
 50
358.2861
  7
ROMANS
 11
122379.812385
 21
100045.690475
 31
0.0
210
0.0
220
0.0
230
1.0
 73
     3
  0
TEXT
  8
10
  6
CONTINUOUS
 62
   134
  5
70
 10
122734.807
 20
100004.769
 30
0.0
 40
27.998
  1
A-8
 50
358.2861
  7
ROMANS
 11
122735.644385
 21
100032.754475
 31
0.0
210
0.0
220
0.0
230
1.0
 73
     3
  0
TEXT
  8
10
  6
CONTINUOUS
 62
   134
  5
71
 10
123423.179
 20
99988.749
 30
0.0
 40
27.998
  1
A-10
 50
358.2861
  7
ROMANS
 11
123424.016385
 21
100016.734475
 31
0.0
210
0.0
220
0.0
230
1.0
 73
     3
  0
TEXT
  8
10
  6
CONTINUOUS
 62
   134
  5
72
 10
122996.431
 20
99996.941
 30
0.0
 40
27.998
  1
A-8-A
 50
358.2861
  7
ROMANS
 11
122997.268385
 21
100024.926475
 31
0.0
210
0.0
220
0.0
230
1.0
 73
     3
  0
TEXT
  8
10
  6
CONTINUOUS
 62
   134
  5
73
 10
122397.869
 20
100097.256
 30
0.0
 40
27.998
  1
TR 
 50
358.2861
  7
ROMANS
 11
122398.706385
 21
100125.241475
 31
0.0
210
0.0
220
0.0
230
1.0
 73
     3
  0
TEXT
  8
10
  6
CONTINUOUS
 62
   134
  5
74
 10
122746.7
 20
100086.818
 30
0.0
 40
27.998
  1
TR 
 50
358.2861
  7
ROMANS
 11
122747.537385
 21
100114.803475
 31
0.0
210
0.0
220
0.0
230
1.0
 73
     3
  0
TEXT
  8
10
  6
CONTINUOUS
 62
   134
  5
75
 10
123027.178
 20
100078.425
 30
0.0
 40
27.998
  1
TR 
 50
358.2861
  7
ROMANS
 11
123028.015385
 21
100106.410475
 31
0.0
210
0.0
220
0.0
230
1.0
 73
     3
  0
TEXT
  8
10
  6
CONTINUOUS
 62
   134
  5
76
 10
123451.432
 20
100065.731
 30
0.0
 40
27.998
  1
TR 
 50
358.2861
  7
ROMANS
 11
123452.269385
 21
100093.716475
 31
0.0
210
0.0
220
0.0
230
1.0
 73
     3
  0
TEXT
  8
10
  6
CONTINUOUS
 62
   134
  5
77
 10
121942.975
 20
100110.867
 30
0.0
 40
27.998
  1
TR 
 50
358.2861
  7
ROMANS
 11
121943.812385
 21
100138.852475
 31
0.0
210
0.0
220
0.0
230
1.0
 73
     3
  0
TEXT
  8
10
  6
CONTINUOUS
 62
   134
  5
78
 10
122449.173
 20
99367.811
 30
0.0
 40
27.998
  1
TR 
 50
358.2861
  7
ROMANS
 11
122450.010385
 21
99395.796475
 31
0.0
210
0.0
220
0.0
230
1.0
 73
     3
  0
TEXT
  8
10
  6
CONTINUOUS
 62
   134
  5
79
 10
122911.138
 20
99353.988
 30
0.0
 40
27.998
  1
TR 
 50
358.2861
  7
ROMANS
 11
122911.975385
 21
99381.973475
 31
0.0
210
0.0
220
0.0
230
1.0
 73
     3
  0
TEXT
  8
10
  6
CONTINUOUS
 62
   134
  5
7A
 10
123231.686
 20
99344.396
 30
0.0
 40
27.998
  1
TR 
 50
358.2861
  7
ROMANS
 11
123232.523385
 21
99372.381475
 31
0.0
210
0.0
220
0.0
230
1.0
 73
     3
  0
TEXT
  8
10
  6
CONTINUOUS
 62
   134
  5
7B
 10
123542.806
 20
99335.087
 30
0.0
 40
27.998
  1
TR 
 50
358.2861
  7
ROMANS
 11
123543.643385
 21
99363.072475
 31
0.0
210
0.0
220
0.0
230
1.0
 73
     3
  0
LINE
  8
6
  6
CONTINUOUS
 62
     7
  5
7C
 10
122189.928
 20
99481.907
 30
0.0
 11
121798.7
 21
99493.613
 31
0.0
  0
LINE
  8
6
  6
CONTINUOUS
 62
     7
  5
7D
 10
122186.419
 20
99364.639
 30
0.0
 11
121820.251
 21
99375.596
 31
0.0
  0
LINE
  8
6
  6
CONTINUOUS
 62
     7
  5
7E
 10
122608.666
 20
99679.891
 30
0.0
 11
122206.217
 21
99691.933
 31
0.0
  0
LINE
  8
6
  6
CONTINUOUS
 62
     7
  5
7F
 10
122749.953
 20
99675.664
 30
0.0
 11
122608.666
 21
99679.891
 31
0.0
  0
LINE
  8
6
  6
CONTINUOUS
 62
     7
  5
80
 10
122892.829
 20
99671.389
 30
0.0
 11
122749.953
 21
99675.664
 31
0.0
  0
LINE
  8
6
  6
CONTINUOUS
 62
     7
  5
81
 10
123132.802
 20
99664.208
 30
0.0
 11
122892.829
 21
99671.389
 31
0.0
  0
LINE
  8
6
  6
CONTINUOUS
 62
     7
  5
82
 10
123765.329
 20
99645.282
 30
0.0
 11
123406.259
 21
99656.026
 31
0.0
  0
LINE
  8
6
  6
CONTINUOUS
 62
     7
  5
83
 10
122206.217
 20
99691.933
 30
0.0
 11
122196.221
 21
99692.233
 31
0.0
  0
LINE
  8
6
  6
CONTINUOUS
 62
     7
  5
84
 10
122196.221
 20
99692.233
 30
0.0
 11
121785.014
 21
99704.537
 31
0.0
  0
LINE
  8
6
  6
CONTINUOUS
 62
     7
  5
85
 10
123406.259
 20
99656.026
 30
0.0
 11
123177.002
 21
99662.885
 31
0.0
  0
LINE
  8
6
  6
CONTINUOUS
 62
     7
  5
86
 10
123177.002
 20
99662.885
 30
0.0
 11
123132.802
 21
99664.208
 31
0.0
  0
LINE
  8
6
  6
CONTINUOUS
 62
     7
  5
87
 10
122189.928
 20
99481.907
 30
0.0
 11
122196.221
 21
99692.233
 31
0.0
  0
LINE
  8
6
  6
CONTINUOUS
 62
     7
  5
88
 10
122173.844
 20
98944.386
 30
0.0
 11
122186.419
 21
99364.639
 31
0.0
  0
LINE
  8
6
  6
CONTINUOUS
 62
     7
  5
89
 10
122186.419
 20
99364.639
 30
0.0
 11
122189.928
 21
99481.907
 31
0.0
  0
LINE
  8
6
  6
CONTINUOUS
 62
     7
  5
8A
 10
122005.736
 20
98531.135
 30
0.0
 11
122012.568
 21
98541.164
 31
0.0
  0
POLYLINE
  8
6
  6
CONTINUOUS
 62
     7
  5
8B
 66
     1
 10
0.0
 20
0.0
 30
0.0
  0
VERTEX
  8
6
  6
CONTINUOUS
 62
     7
  5
8C
 10
121735.693
 20
99371.182
 30
0.0
  0
VERTEX
  8
6
  6
CONTINUOUS
 62
     7
  5
8D
 10
121776.722
 20
99263.362
 30
0.0
  0
VERTEX
  8
6
  6
CONTINUOUS
 62
     7
  5
8E
 10
121784.835
 20
99241.395
 30
0.0
  0
VERTEX
  8
6
  6
CONTINUOUS
 62
     7
  5
8F
 10
121790.81
 20
99225.434
 30
0.0
  0
VERTEX
  8
6
  6
CONTINUOUS
 62
     7
  5
90
 10
121798.062
 20
99206.406
 30
0.0
  0
VERTEX
  8
6
  6
CONTINUOUS
 62
     7
  5
91
 10
121805.05
 20
99188.578
 30
0.0
  0
VERTEX
  8
6
  6
CONTINUOUS
 62
     7
  5
92
 10
121813.5
 20
99168.101
 30
0.0
  0
VERTEX
  8
6
  6
CONTINUOUS
 62
     7
  5
93
 10
121822.246
 20
99148.969
 30
0.0
  0
VERTEX
  8
6
  6
CONTINUOUS
 62
     7
  5
94
 10
121836.337
 20
99121.052
 30
0.0
  0
VERTEX
  8
6
  6
CONTINUOUS
 62
     7
  5
95
 10
121850.011
 20
99094.691
 30
0.0
  0
VERTEX
  8
6
  6
CONTINUOUS
 62
     7
  5
96
 10
121861.194
 20
99073.057
 30
0.0
  0
VERTEX
  8
6
  6
CONTINUOUS
 62
     7
  5
97
 10
121870.001
 20
99055.353
 30
0.0
  0
VERTEX
  8
6
  6
CONTINUOUS
 62
     7
  5
98
 10
121877.21
 20
99039.886
 30
0.0
  0
VERTEX
  8
6
  6
CONTINUOUS
 62
     7
  5
99
 10
121884.384
 20
99021.439
 30
0.0
  0
VERTEX
  8
6
  6
CONTINUOUS
 62
     7
  5
9A
 10
121891.937
 20
99003.602
 30
0.0
  0
VERTEX
  8
6
  6
CONTINUOUS
 62
     7
  5
9B
 10
121897.04
 20
98989.209
 30
0.0
  0
VERTEX
  8
6
  6
CONTINUOUS
 62
     7
  5
9C
 10
121902.414
 20
98972.937
 30
0.0
  0
VERTEX
  8
6
  6
CONTINUOUS
 62
     7
  5
9D
 10
121905.9
 20
98961.86
 30
0.0
  0
VERTEX
  8
6
  6
CONTINUOUS
 62
     7
  5
9E
 10
121908.399
 20
98953.768
 30
0.0
  0
VERTEX
  8
6
  6
CONTINUOUS
 62
     7
  5
9F
 10
121914.236
 20
98934.777
 30
0.0
  0
VERTEX
  8
6
  6
CONTINUOUS
 62
     7
  5
A0
 10
121920.007
 20
98916.491
 30
0.0
  0
VERTEX
  8
6
  6
CONTINUOUS
 62
     7
  5
A1
 10
121927.424
 20
98894.55
 30
0.0
  0
VERTEX
  8
6
  6
CONTINUOUS
 62
     7
  5
A2
 10
121934.528
 20
98874.602
 30
0.0
  0
VERTEX
  8
6
  6
CONTINUOUS
 62
     7
  5
A3
 10
121942.6
 20
98851.617
 30
0.0
  0
VERTEX
  8
6
  6
CONTINUOUS
 62
     7
  5
A4
 10
121949.002
 20
98831.527
 30
0.0
  0
VERTEX
  8
6
  6
CONTINUOUS
 62
     7
  5
A5
 10
121954.465
 20
98811.445
 30
0.0
  0
VERTEX
  8
6
  6
CONTINUOUS
 62
     7
  5
A6
 10
121958.448
 20
98793.377
 30
0.0
  0
VERTEX
  8
6
  6
CONTINUOUS
 62
     7
  5
A7
 10
121962.159
 20
98770.603
 30
0.0
  0
VERTEX
  8
6
  6
CONTINUOUS
 62
     7
  5
A8
 10
121964.205
 20
98751.611
 30
0.0
  0
VERTEX
  8
6
  6
CONTINUOUS
 62
     7
  5
A9
 10
121965.272
 20
98735.186
 30
0.0
  0
VERTEX
  8
6
  6
CONTINUOUS
 62
     7
  5
AA
 10
121965.775
 20
98715.518
 30
0.0
  0
VERTEX
  8
6
  6
CONTINUOUS
 62
     7
  5
AB
 10
121965.672
 20
98700.569
 30
0.0
  0
VERTEX
  8
6
  6
CONTINUOUS
 62
     7
  5
AC
 10
121965.085
 20
98683.35
 30
0.0
  0
VERTEX
  8
6
  6
CONTINUOUS
 62
     7
  5
AD
 10
121964.07
 20
98667.245
 30
0.0
  0
VERTEX
  8
6
  6
CONTINUOUS
 62
     7
  5
AE
 10
121962.098
 20
98647.813
 30
0.0
  0
VERTEX
  8
6
  6
CONTINUOUS
 62
     7
  5
AF
 10
121959.616
 20
98632.082
 30
0.0
  0
VERTEX
  8
6
  6
CONTINUOUS
 62
     7
  5
B0
 10
121955.899
 20
98615.818
 30
0.0
  0
VERTEX
  8
6
  6
CONTINUOUS
 62
     7
  5
B1
 10
121953.468
 20
98607.532
 30
0.0
  0
VERTEX
  8
6
  6
CONTINUOUS
 62
     7
  5
B2
 10
121948.632
 20
98594.163
 30
0.0
  0
VERTEX
  8
6
  6
CONTINUOUS
 62
     7
  5
B3
 10
121944.407
 20
98584.526
 30
0.0
  0
VERTEX
  8
6
  6
CONTINUOUS
 62
     7
  5
B4
 10
121938.172
 20
98572.246
 30
0.0
  0
VERTEX
  8
6
  6
CONTINUOUS
 62
     7
  5
B5
 10
121934.008
 20
98564.868
 30
0.0
  0
VERTEX
  8
6
  6
CONTINUOUS
 62
     7
  5
B6
 10
121928.145
 20
98555.321
 30
0.0
  0
VERTEX
  8
6
  6
CONTINUOUS
 62
     7
  5
B7
 10
121924.071
 20
98549.206
 30
0.0
  0
VERTEX
  8
6
  6
CONTINUOUS
 62
     7
  5
B8
 10
121921.24
 20
98544.949
 30
0.0
  0
VERTEX
  8
6
  6
CONTINUOUS
 62
     7
  5
B9
 10
121912.034
 20
98531.995
 30
0.0
  0
VERTEX
  8
6
  6
CONTINUOUS
 62
     7
  5
BA
 10
121907.199
 20
98525.445
 30
0.0
  0
VERTEX
  8
6
  6
CONTINUOUS
 62
     7
  5
BB
 10
121879.493
 20
98488.853
 30
0.0
  0
SEQEND
  8
6
  6
CONTINUOUS
 62
     7
  5
BC
  0
TEXT
  8
11
  6
CONTINUOUS
 62
     7
  5
BE
 10
121765.339
 20
97914.425
 30
0.0
 40
8.0
  1
169.1'
 50
81.2861
  7
ROMANS
 72
     4
 11
121764.617134
 21
97936.117759
 31
0.0
210
0.0
220
0.0
230
1.0
  0
TEXT
  8
11
  6
CONTINUOUS
 62
     7
  5
BF
 10
121795.309
 20
97992.713
 30
0.0
 40
8.0
  1
53.6'
 50
21.2861
  7
ROMANS
 72
     4
 11
121810.008362
 21
98002.732796
 31
0.0
210
0.0
220
0.0
230
1.0
  0
TEXT
  8
10
  6
CONTINUOUS
 62
   134
  5
C0
 10
122287.792
 20
98552.263
 30
0.0
 40
27.998
  1
TR 
 50
358.2861
  7
ROMANS
 11
122288.629385
 21
98580.248475
 31
0.0
210
0.0
220
0.0
230
1.0
 73
     3
  0
TEXT
  8
10
  6
CONTINUOUS
 62
   134
  5
C1
 10
122721.954
 20
98539.272
 30
0.0
 40
27.998
  1
TR 
 50
358.2861
  7
ROMANS
 11
122722.791385
 21
98567.257475
 31
0.0
210
0.0
220
0.0
230
1.0
 73
     3
  0
TEXT
  8
10
  6
CONTINUOUS
 62
   134
  5
C2
 10
123014.541
 20
98530.517
 30
0.0
 40
27.998
  1
TR 
 50
358.2861
  7
ROMANS
 11
123015.378385
 21
98558.502475
 31
0.0
210
0.0
220
0.0
230
1.0
 73
     3
  0
TEXT
  8
10
  6
CONTINUOUS
 62
   134
  5
C3
 10
123425.106
 20
98518.232
 30
0.0
 40
27.998
  1
TR 
 50
358.2861
  7
ROMANS
 11
123425.943385
 21
98546.217475
 31
0.0
210
0.0
220
0.0
230
1.0
 73
     3
  0
TEXT
  8
10
  6
CONTINUOUS
 62
   134
  5
C4
 10
122437.06
 20
99262.878
 30
0.0
 40
27.998
  1
A-3
 50
358.2861
  7
ROMANS
 11
122437.897385
 21
99290.863475
 31
0.0
210
0.0
220
0.0
230
1.0
 73
     3
  0
TEXT
  8
10
  6
CONTINUOUS
 62
   134
  5
C5
 10
122899.537
 20
99249.04
 30
0.0
 40
27.998
  1
A-7
 50
358.2861
  7
ROMANS
 11
122900.374385
 21
99277.025475
 31
0.0
210
0.0
220
0.0
230
1.0
 73
     3
  0
TEXT
  8
10
  6
CONTINUOUS
 62
   134
  5
C6
 10
123215.719
 20
99239.579
 30
0.0
 40
27.998
  1
A-6
 50
358.2861
  7
ROMANS
 11
123216.556385
 21
99267.564475
 31
0.0
210
0.0
220
0.0
230
1.0
 73
     3
  0
TEXT
  8
10
  6
CONTINUOUS
 62
   134
  5
C7
 10
123527.183
 20
99230.259
 30
0.0
 40
27.998
  1
A-2
 50
358.2861
  7
ROMANS
 11
123528.020385
 21
99258.244475
 31
0.0
210
0.0
220
0.0
230
1.0
 73
     3
  0
TEXT
  8
10
  6
CONTINUOUS
 62
   134
  5
C8
 10
122271.099
 20
98452.051
 30
0.0
 40
27.998
  1
A-13
 50
358.2861
  7
ROMANS
 11
122271.936385
 21
98480.036475
 31
0.0
210
0.0
220
0.0
230
1.0
 73
     3
  0
TEXT
  8
10
  6
CONTINUOUS
 62
   134
  5
C9
 10
122705.259
 20
98439.06
 30
0.0
 40
27.998
  1
A-5
 50
358.2861
  7
ROMANS
 11
122706.096385
 21
98467.045475
 31
0.0
210
0.0
220
0.0
230
1.0
 73
     3
  0
TEXT
  8
10
  6
CONTINUOUS
 62
   134
  5
CA
 10
122997.846
 20
98430.305
 30
0.0
 40
27.998
  1
A-4
 50
358.2861
  7
ROMANS
 11
122998.683385
 21
98458.290475
 31
0.0
210
0.0
220
0.0
230
1.0
 73
     3
  0
TEXT
  8
10
  6
CONTINUOUS
 62
   134
  5
CB
 10
123408.411
 20
98418.02
 30
0.0
 40
27.998
  1
A-9
 50
358.2861
  7
ROMANS
 11
123409.248385
 21
98446.005475
 31
0.0
210
0.0
220
0.0
230
1.0
 73
     3
  0
TEXT
  8
10
  6
CONTINUOUS
 62
   134
  5
CC
 10
122014.043
 20
99174.708
 30
0.0
 40
27.998
  1
A-1
 50
358.2861
  7
ROMANS
 11
122014.880385
 21
99202.693475
 31
0.0
210
0.0
220
0.0
230
1.0
 73
     3
  0
TEXT
  8
10
  6
CONTINUOUS
 62
   134
  5
CD
 10
121940.943
 20
99415.217
 30
0.0
 40
27.998
  1
A-1-A
 50
358.2861
  7
ROMANS
 11
121941.780385
 21
99443.202475
 31
0.0
210
0.0
220
0.0
230
1.0
 73
     3
  0
TEXT
  8
10
  6
CONTINUOUS
 62
   134
  5
CE
 10
121926.586
 20
99566.889
 30
0.0
 40
27.998
  1
A-1-B
 50
358.2861
  7
ROMANS
 11
121927.423385
 21
99594.874475
 31
0.0
210
0.0
220
0.0
230
1.0
 73
     3
  0
TEXT
  8
11
  6
CONTINUOUS
 62
     7
  5
CF
 10
122382.508
 20
99693.913
 30
0.0
 40
8.0
  1
402.83'
 50
358.2861
  7
ROMANS
 72
     4
 11
122407.949302
 21
99697.153532
 31
0.0
210
0.0
220
0.0
230
1.0
  0
TEXT
  8
11
  6
CONTINUOUS
 62
     7
  5
D0
 10
122727.005
 20
99683.604
 30
0.0
 40
8.0
  1
284.29'
 50
358.2861
  7
ROMANS
 72
     4
 11
122752.446302
 21
99686.844532
 31
0.0
210
0.0
220
0.0
230
1.0
  0
TEXT
  8
11
  6
CONTINUOUS
 62
     7
  5
D1
 10
123004.648
 20
99674.15
 30
0.0
 40
8.0
  1
284.3'
 50
358.2861
  7
ROMANS
 72
     4
 11
123026.091091
 21
99677.510167
 31
0.0
210
0.0
220
0.0
230
1.0
  0
TEXT
  8
11
  6
CONTINUOUS
 62
     7
  5
D2
 10
123463.362
 20
99667.3
 30
0.0
 40
8.0
  1
458.58'
 50
358.2861
  7
ROMANS
 72
     4
 11
123488.803302
 21
99670.540532
 31
0.0
210
0.0
220
0.0
230
1.0
  0
TEXT
  8
11
  6
CONTINUOUS
 62
     7
  5
D3
 10
123556.375
 20
99618.685
 30
0.0
 40
8.0
  1
359.23'
 50
358.2861
  7
ROMANS
 72
     4
 11
123581.816302
 21
99621.925532
 31
0.0
210
0.0
220
0.0
230
1.0
  0
TEXT
  8
11
  6
CONTINUOUS
 62
     7
  5
D4
 10
123240.706
 20
99645.317
 30
0.0
 40
8.0
  1
273.58'
 50
358.2861
  7
ROMANS
 72
     4
 11
123266.147302
 21
99648.557532
 31
0.0
210
0.0
220
0.0
230
1.0
  0
TEXT
  8
11
  6
CONTINUOUS
 62
     7
  5
D5
 10
122905.544
 20
99651.909
 30
0.0
 40
8.0
  1
383.02'
 50
358.2861
  7
ROMANS
 72
     4
 11
122930.985302
 21
99655.149532
 31
0.0
210
0.0
220
0.0
230
1.0
  0
TEXT
  8
11
  6
CONTINUOUS
 62
     7
  5
D6
 10
122447.788
 20
99665.606
 30
0.0
 40
8.0
  1
553.98'
 50
358.2861
  7
ROMANS
 72
     4
 11
122473.229302
 21
99668.846532
 31
0.0
210
0.0
220
0.0
230
1.0
  0
TEXT
  8
11
  6
CONTINUOUS
 62
     7
  5
D7
 10
121968.158
 20
99491.669
 30
0.0
 40
8.0
  1
384.38'
 50
358.2861
  7
ROMANS
 72
     4
 11
121993.599302
 21
99494.909532
 31
0.0
210
0.0
220
0.0
230
1.0
  0
TEXT
  8
11
  6
CONTINUOUS
 62
     7
  5
D8
 10
121980.354
 20
99355.894
 30
0.0
 40
8.0
  1
355.95'
 50
358.2861
  7
ROMANS
 72
     4
 11
122005.795302
 21
99359.134532
 31
0.0
210
0.0
220
0.0
230
1.0
  0
TEXT
  8
11
  6
CONTINUOUS
 62
     7
  5
D9
 10
122457.938
 20
98899.844
 30
0.0
 40
8.0
  1
447.25'
 50
358.2861
  7
ROMANS
 72
     4
 11
122483.379302
 21
98903.084532
 31
0.0
210
0.0
220
0.0
230
1.0
  0
TEXT
  8
11
  6
CONTINUOUS
 62
     7
  5
DA
 10
122698.846
 20
98072.22
 30
0.0
 40
8.0
  1
283.68'
 50
358.2861
  7
ROMANS
 72
     4
 11
122724.287302
 21
98075.460532
 31
0.0
210
0.0
220
0.0
230
1.0
  0
TEXT
  8
11
  6
CONTINUOUS
 62
     7
  5
DB
 10
122976.234
 20
98068.517
 30
0.0
 40
8.0
  1
283.68'
 50
358.2861
  7
ROMANS
 72
     4
 11
123001.675302
 21
98071.757532
 31
0.0
210
0.0
220
0.0
230
1.0
  0
TEXT
  8
11
  6
CONTINUOUS
 62
     7
  5
DC
 10
122391.905
 20
100422.347
 30
0.0
 40
8.0
  1
402.63'
 50
358.2861
  7
ROMANS
 72
     4
 11
122417.346302
 21
100425.587532
 31
0.0
210
0.0
220
0.0
230
1.0
  0
TEXT
  8
11
  6
CONTINUOUS
 62
     7
  5
DD
 10
123032.956
 20
100403.166
 30
0.0
 40
8.0
  1
284.3'
 50
358.2861
  7
ROMANS
 72
     4
 11
123054.399091
 21
100406.526167
 31
0.0
210
0.0
220
0.0
230
1.0
  0
TEXT
  8
11
  6
CONTINUOUS
 62
     7
  5
DE
 10
123458.295
 20
100385.856
 30
0.0
 40
8.0
  1
568.59'
 50
358.2861
  7
ROMANS
 72
     4
 11
123483.736302
 21
100389.096532
 31
0.0
210
0.0
220
0.0
230
1.0
  0
LINE
  8
6
  6
CONTINUOUS
 62
     7
  5
DF
 10
122229.13
 20
100457.691
 30
0.0
 11
121845.481
 21
100469.17
 31
0.0
  0
LINE
  8
6
  6
CONTINUOUS
 62
     7
  5
E0
 10
122631.579
 20
100445.649
 30
0.0
 11
122229.13
 21
100457.691
 31
0.0
  0
LINE
  8
6
  6
CONTINUOUS
 62
     7
  5
E1
 10
122915.742
 20
100437.146
 30
0.0
 11
122631.579
 21
100445.649
 31
0.0
  0
LINE
  8
6
  6
CONTINUOUS
 62
     7
  5
E2
 10
123788.242
 20
100411.039
 30
0.0
 11
123199.915
 21
100428.643
 31
0.0
  0
LINE
  8
6
  6
CONTINUOUS
 62
     7
  5
E3
 10
123199.915
 20
100428.643
 30
0.0
 11
122915.742
 21
100437.146
 31
0.0
  0
LINE
  8
6
  6
CONTINUOUS
 62
     7
  5
E4
 10
123765.329
 20
99645.282
 30
0.0
 11
123788.242
 21
100411.039
 31
0.0
  0
LINE
  8
6
  6
CONTINUOUS
 62
     7
  5
E5
 10
122726.143
 20
98879.92
 30
0.0
 11
122279.093
 21
98893.297
 31
0.0
  0
LINE
  8
6
  6
CONTINUOUS
 62
     7
  5
E6
 10
123108.991
 20
98868.464
 30
0.0
 11
122726.143
 21
98879.92
 31
0.0
  0
LINE
  8
6
  6
CONTINUOUS
 62
     7
  5
E7
 10
123382.449
 20
98860.282
 30
0.0
 11
123108.991
 21
98868.464
 31
0.0
  0
LINE
  8
6
  6
CONTINUOUS
 62
     7
  5
E8
 10
122585.769
 20
98037.651
 30
0.0
 11
122359.171
 21
98044.432
 31
0.0
  0
LINE
  8
6
  6
CONTINUOUS
 62
     7
  5
E9
 10
122869.322
 20
98029.167
 30
0.0
 11
122585.769
 21
98037.651
 31
0.0
  0
LINE
  8
6
  6
CONTINUOUS
 62
     7
  5
EA
 10
123716.213
 20
98003.826
 30
0.0
 11
123152.875
 21
98020.682
 31
0.0
  0
LINE
  8
6
  6
CONTINUOUS
 62
     7
  5
EB
 10
123152.875
 20
98020.682
 30
0.0
 11
122869.322
 21
98029.167
 31
0.0
  0
LINE
  8
6
  6
CONTINUOUS
 62
     7
  5
EC
 10
121784.322
 20
99722.839
 30
0.0
 11
121785.014
 21
99704.537
 31
0.0
  0
POLYLINE
  8
6
  6
CONTINUOUS
 62
     7
  5
ED
 66
     1
 10
0.0
 20
0.0
 30
0.0
  0
VERTEX
  8
6
  6
CONTINUOUS
 62
     7
  5
EE
 10
121784.874
 20
99704.541
 30
0.0
  0
VERTEX
  8
6
  6
CONTINUOUS
 62
     7
  5
EF
 10
121787.274
 20
99646.842
 30
0.0
  0
VERTEX
  8
6
  6
CONTINUOUS
 62
     7
  5
F0
 10
121788.765
 20
99618.395
 30
0.0
  0
VERTEX
  8
6
  6
CONTINUOUS
 62
     7
  5
F1
 10
121790.359
 20
99595.11
 30
0.0
  0
VERTEX
  8
6
  6
CONTINUOUS
 62
     7
  5
F2
 10
121791.596
 20
99575.902
 30
0.0
  0
VERTEX
  8
6
  6
CONTINUOUS
 62
     7
  5
F3
 10
121792.777
 20
99557.501
 30
0.0
  0
VERTEX
  8
6
  6
CONTINUOUS
 62
     7
  5
F4
 10
121794.412
 20
99535.843
 30
0.0
  0
VERTEX
  8
6
  6
CONTINUOUS
 62
     7
  5
F5
 10
121796.233
 20
99517.026
 30
0.0
  0
VERTEX
  8
6
  6
CONTINUOUS
 62
     7
  5
F6
 10
121799.136
 20
99493.6
 30
0.0
  0
SEQEND
  8
6
  6
CONTINUOUS
 62
     7
  5
F7
  0
POLYLINE
  8
6
  6
CONTINUOUS
 62
     7
  5
F8
 66
     1
 10
0.0
 20
0.0
 30
0.0
  0
VERTEX
  8
6
  6
CONTINUOUS
 62
     7
  5
F9
 10
121799.063
 20
99493.602
 30
0.0
  0
VERTEX
  8
6
  6
CONTINUOUS
 62
     7
  5
FA
 10
121803.39
 20
99467.378
 30
0.0
  0
VERTEX
  8
6
  6
CONTINUOUS
 62
     7
  5
FB
 10
121806.948
 20
99447.476
 30
0.0
  0
VERTEX
  8
6
  6
CONTINUOUS
 62
     7
  5
FC
 10
121810.791
 20
99426.708
 30
0.0
  0
VERTEX
  8
6
  6
CONTINUOUS
 62
     7
  5
FD
 10
121814.319
 20
99407.648
 30
0.0
  0
VERTEX
  8
6
  6
CONTINUOUS
 62
     7
  5
FE
 10
121820.128
 20
99375.599
 30
0.0
  0
SEQEND
  8
6
  6
CONTINUOUS
 62
     7
  5
FF
  0
TEXT
  8
11
  6
CONTINUOUS
 62
     7
  5
100
 10
121802.572
 20
99581.04
 30
0.0
 40
8.0
  1
200.29'
 50
93.2861
  7
ROMANS
 72
     4
 11
121797.126443
 21
99606.102059
 31
0.0
210
0.0
220
0.0
230
1.0
  0
TEXT
  8
11
  6
CONTINUOUS
 62
     7
  5
101
 10
122189.065
 20
99568.717
 30
0.0
 40
8.0
  1
210.42'
 50
88.2861
  7
ROMANS
 72
     4
 11
122185.824468
 21
99594.158302
 31
0.0
210
0.0
220
0.0
230
1.0
  0
TEXT
  8
11
  6
CONTINUOUS
 62
     7
  5
102
 10
122182.74
 20
99394.749
 30
0.0
 40
8.0
  1
117.32'
 50
88.2861
  7
ROMANS
 72
     4
 11
122179.499468
 21
99420.190302
 31
0.0
210
0.0
220
0.0
230
1.0
  0
TEXT
  8
11
  6
CONTINUOUS
 62
     7
  5
103
 10
121957.127
 20
99684.636
 30
0.0
 40
8.0
  1
411.19'
 50
358.2861
  7
ROMANS
 72
     4
 11
121982.568302
 21
99687.876532
 31
0.0
210
0.0
220
0.0
230
1.0
  0
TEXT
  8
11
  6
CONTINUOUS
 62
     7
  5
104
 10
121957.75
 20
99705.477
 30
0.0
 40
8.0
  1
421.39'
 50
358.2861
  7
ROMANS
 72
     4
 11
121983.191302
 21
99708.717532
 31
0.0
210
0.0
220
0.0
230
1.0
  0
TEXT
  8
15
  6
CONTINUOUS
 62
    30
  5
107
 10
122913.862
 20
98714.863
 30
0.0
 40
50.0
  1
GARDENS
 50
358.2861
  7
txt
 72
     4
 11
123080.081659
 21
98734.900544
 31
0.0
210
0.0
220
0.0
230
1.0
  0
TEXT
  8
15
  6
CONTINUOUS
 62
    30
  5
108
 10
122121.7
 20
99841.57
 30
0.0
 40
50.0
  1
NORTHWEST
 50
358.2861
  7
txt
 72
     4
 11
122344.586297
 21
99859.911958
 31
0.0
210
0.0
220
0.0
230
1.0
  0
TEXT
  8
19
  6
CONTINUOUS
 62
     1
  5
10A
 10
123630.64
 20
96419.006
 30
0.0
 40
48.0
  1
84
 50
316.336806
  7
txt
 72
     4
 11
123677.012383
 21
96407.924715
 31
0.0
210
0.0
220
0.0
230
1.0
  0
LINE
  8
6
  6
CONTINUOUS
 62
     7
  5
10B
 10
122497.603
 20
95267.339
 30
0.0
 11
122512.544
 21
95766.686
 31
0.0
  0
LINE
  8
6
  6
CONTINUOUS
 62
     7
  5
10C
 10
122512.544
 20
95766.686
 30
0.0
 11
122515.867
 21
95877.746
 31
0.0
  0
LINE
  8
6
  6
CONTINUOUS
 62
     7
  5
10D
 10
122515.867
 20
95877.746
 30
0.0
 11
122544.44
 21
96832.628
 31
0.0
  0
LINE
  8
6
  6
CONTINUOUS
 62
     7
  5
10E
 10
122544.44
 20
96832.628
 30
0.0
 11
122558.212
 21
97292.918
 31
0.0
  0
LINE
  8
6
  6
CONTINUOUS
 62
     7
  5
10F
 10
121723.639
 20
95290.498
 30
0.0
 11
122347.67
 21
95271.825
 31
0.0
  0
LINE
  8
6
  6
CONTINUOUS
 62
     7
  5
110
 10
122347.67
 20
95271.825
 30
0.0
 11
122497.603
 21
95267.339
 31
0.0
  0
LINE
  8
6
  6
CONTINUOUS
 62
     7
  5
111
 10
122497.603
 20
95267.339
 30
0.0
 11
122865.268
 21
95256.338
 31
0.0
  0
LINE
  8
6
  6
CONTINUOUS
 62
     7
  5
112
 10
122865.268
 20
95256.338
 30
0.0
 11
123263.29
 21
95244.428
 31
0.0
  0
LINE
  8
6
  6
CONTINUOUS
 62
     7
  5
113
 10
123263.29
 20
95244.428
 30
0.0
 11
123763.066
 21
95229.474
 31
0.0
  0
LINE
  8
6
  6
CONTINUOUS
 62
     7
  5
114
 10
123763.066
 20
95229.474
 30
0.0
 11
124737.63
 21
95200.313
 31
0.0
  0
LINE
  8
6
  6
CONTINUOUS
 62
     7
  5
115
 10
121690.951
 20
95869.804
 30
0.0
 11
121696.439
 21
96053.222
 31
0.0
  0
LINE
  8
6
  6
CONTINUOUS
 62
     7
  5
116
 10
121696.439
 20
96053.222
 30
0.0
 11
121702.421
 21
96253.133
 31
0.0
  0
LINE
  8
6
  6
CONTINUOUS
 62
     7
  5
117
 10
122090.676
 20
95871.35
 30
0.0
 11
122095.76
 21
96041.274
 31
0.0
  0
LINE
  8
6
  6
CONTINUOUS
 62
     7
  5
118
 10
122095.76
 20
96041.274
 30
0.0
 11
122101.742
 21
96241.184
 31
0.0
  0
LINE
  8
6
  6
CONTINUOUS
 62
     7
  5
119
 10
122362.611
 20
95771.172
 30
0.0
 11
122120.65
 21
95778.412
 31
0.0
  0
LINE
  8
6
  6
CONTINUOUS
 62
     7
  5
11A
 10
122120.5
 20
95773.414
 30
0.0
 11
122093.272
 21
95774.229
 31
0.0
  0
LINE
  8
6
  6
CONTINUOUS
 62
     7
  5
11B
 10
122093.272
 20
95774.229
 30
0.0
 11
121702.947
 21
95785.908
 31
0.0
  0
LINE
  8
6
  6
CONTINUOUS
 62
     7
  5
11C
 10
121702.421
 20
96253.133
 30
0.0
 11
121720.498
 21
96857.283
 31
0.0
  0
LINE
  8
6
  6
CONTINUOUS
 62
     7
  5
11D
 10
121720.498
 20
96857.283
 30
0.0
 11
121734.25
 21
97316.858
 31
0.0
  0
LINE
  8
6
  6
CONTINUOUS
 62
     7
  5
11E
 10
126871.529
 20
94474.21
 30
0.0
 11
126903.164
 21
95531.492
 31
0.0
  0
LINE
  8
6
  6
CONTINUOUS
 62
     7
  5
11F
 10
126903.164
 20
95531.492
 30
0.0
 11
127047.749
 21
100363.53
 31
0.0
  0
TEXT
  8
10
  6
CONTINUOUS
 62
   134
  5
120
 10
124101.316
 20
99551.856
 30
0.0
 40
27.998
  1
W/PT OF NE/PT
 50
358.2861
  7
ROMANS
 11
124102.153385
 21
99579.841475
 31
0.0
210
0.0
220
0.0
230
1.0
 73
     3
  0
TEXT
  8
10
  6
CONTINUOUS
 62
   134
  5
121
 10
125458.76
 20
98874.889
 30
0.0
 40
27.998
  1
E/PT OF NE/PT
 50
358.2861
  7
ROMANS
 11
125459.597385
 21
98902.874475
 31
0.0
210
0.0
220
0.0
230
1.0
 73
     3
  0
TEXT
  8
10
  6
CONTINUOUS
 62
   134
  5
122
 10
124944.787
 20
97150.61
 30
0.0
 40
27.998
  1
S/2 N. OF R.R
 50
358.2861
  7
ROMANS
 11
124945.624385
 21
97178.595475
 31
0.0
210
0.0
220
0.0
230
1.0
 73
     3
  0
TEXT
  8
10
  6
CONTINUOUS
 62
   134
  5
123
 10
121964.049
 20
97508.999
 30
0.0
 40
27.998
  1
TR  C-6
 50
358.2861
  7
ROMANS
 11
121964.886385
 21
97536.984475
 31
0.0
210
0.0
220
0.0
230
1.0
 73
     3
  0
TEXT
  8
10
  6
CONTINUOUS
 62
   134
  5
124
 10
121950.089
 20
97042.456
 30
0.0
 40
27.998
  1
TR  C-9
 50
358.2861
  7
ROMANS
 11
121950.926385
 21
97070.441475
 31
0.0
210
0.0
220
0.0
230
1.0
 73
     3
  0
TEXT
  8
10
  6
CONTINUOUS
 62
   134
  5
125
 10
122071.738
 20
96535.23
 30
0.0
 40
27.998
  1
TR  C
 50
358.2861
  7
ROMANS
 11
122072.575385
 21
96563.215475
 31
0.0
210
0.0
220
0.0
230
1.0
 73
     3
  0
TEXT
  8
10
  6
CONTINUOUS
 62
   134
  5
126
 10
122634.948
 20
96435.973
 30
0.0
 40
27.998
  1
TR  C-4
 50
358.2861
  7
ROMANS
 11
122635.785385
 21
96463.958475
 31
0.0
210
0.0
220
0.0
230
1.0
 73
     3
  0
TEXT
  8
10
  6
CONTINUOUS
 62
   134
  5
127
 10
123018.813
 20
96177.272
 30
0.0
 40
27.998
  1
TR  C-3
 50
358.2861
  7
ROMANS
 11
123019.650385
 21
96205.257475
 31
0.0
210
0.0
220
0.0
230
1.0
 73
     3
  0
TEXT
  8
10
  6
CONTINUOUS
 62
   134
  5
128
 10
123449.544
 20
95908.013
 30
0.0
 40
27.998
  1
TR  C-2
 50
358.2861
  7
ROMANS
 11
123450.381385
 21
95935.998475
 31
0.0
210
0.0
220
0.0
230
1.0
 73
     3
  0
TEXT
  8
10
  6
CONTINUOUS
 62
   134
  5
129
 10
123980.697
 20
95525.876
 30
0.0
 40
27.998
  1
TR  C-1
 50
358.2861
  7
ROMANS
 11
123981.534385
 21
95553.861475
 31
0.0
210
0.0
220
0.0
230
1.0
 73
     3
  0
TEXT
  8
10
  6
CONTINUOUS
 62
   134
  5
12A
 10
121808.549
 20
95938.803
 30
0.0
 40
27.998
  1
TR  C-5
 50
358.2861
  7
ROMANS
 11
121809.386385
 21
95966.788475
 31
0.0
210
0.0
220
0.0
230
1.0
 73
     3
  0
TEXT
  8
10
  6
CONTINUOUS
 62
   134
  5
12B
 10
121818.738
 20
96121.62
 30
0.0
 40
27.998
  1
TR  C-7
 50
358.2861
  7
ROMANS
 11
121819.575385
 21
96149.605475
 31
0.0
210
0.0
220
0.0
230
1.0
 73
     3
  0
TEXT
  8
10
  6
CONTINUOUS
 62
   134
  5
12C
 10
121809.354
 20
95650.362
 30
0.0
 40
27.998
  1
TR  C-8
 50
358.2861
  7
ROMANS
 11
121810.191385
 21
95678.347475
 31
0.0
210
0.0
220
0.0
230
1.0
 73
     3
  0
TEXT
  8
10
  6
CONTINUOUS
 62
   134
  5
12D
 10
122170.273
 20
95570.892
 30
0.0
 40
27.998
  1
TR  C-11
 50
358.2861
  7
ROMANS
 11
122171.110385
 21
95598.877475
 31
0.0
210
0.0
220
0.0
230
1.0
 73
     3
  0
TEXT
  8
10
  6
CONTINUOUS
 62
   134
  5
12E
 10
122175.325
 20
95820.124
 30
0.0
 40
20.411
  1
TR  C-10
 50
358.2861
  7
ROMANS
 11
122175.935467
 21
95840.525869
 31
0.0
210
0.0
220
0.0
230
1.0
 73
     3
  0
TEXT
  8
10
  6
CONTINUOUS
 62
   134
  5
12F
 10
126627.736
 20
95373.422
 30
0.0
 40
27.998
  1
TR  
 50
358.2861
  7
ROMANS
 11
126628.573385
 21
95401.407475
 31
0.0
210
0.0
220
0.0
230
1.0
 73
     3
  0
TEXT
  8
10
  6
CONTINUOUS
 62
   134
  5
130
 10
126626.809
 20
95342.438
 30
0.0
 40
27.998
  1
 
 50
358.2861
  7
ROMANS
 11
126627.646385
 21
95370.423475
 31
0.0
210
0.0
220
0.0
230
1.0
 73
     3
  0
TEXT
  8
10
  6
CONTINUOUS
 62
   134
  5
131
 10
126625.882
 20
95311.454
 30
0.0
 40
27.998
  1
B-1
 50
358.2861
  7
ROMANS
 11
126626.719385
 21
95339.439475
 31
0.0
210
0.0
220
0.0
230
1.0
 73
     3
  0
TEXT
  8
10
  6
CONTINUOUS
 62
   134
  5
132
 10
126711.712
 20
99756.682
 30
0.0
 40
27.998
  1
TR  B
 50
358.2861
  7
ROMANS
 11
126712.549385
 21
99784.667475
 31
0.0
210
0.0
220
0.0
230
1.0
 73
     3
  0
LINE
  8
6
  6
CONTINUOUS
 62
     7
  5
133
 10
126903.547
 20
98398.964
 30
0.0
 11
126486.314
 21
98411.448
 31
0.0
  0
LINE
  8
6
  6
CONTINUOUS
 62
     7
  5
134
 10
126903.547
 20
98398.964
 30
0.0
 11
126909.789
 21
98607.58
 31
0.0
  0
LINE
  8
6
  6
CONTINUOUS
 62
     7
  5
135
 10
126909.789
 20
98607.58
 30
0.0
 11
126492.556
 21
98620.065
 31
0.0
  0
LINE
  8
6
  6
CONTINUOUS
 62
     7
  5
136
 10
126486.314
 20
98411.448
 30
0.0
 11
126492.556
 21
98620.065
 31
0.0
  0
LINE
  8
6
  6
CONTINUOUS
 62
     7
  5
137
 10
126492.556
 20
98620.065
 30
0.0
 11
126545.174
 21
100378.568
 31
0.0
  0
TEXT
  8
10
  6
CONTINUOUS
 62
   134
  5
138
 10
126600.666
 20
98489.595
 30
0.0
 40
27.998
  1
TR  B-2
 50
358.2861
  7
ROMANS
 11
126601.503385
 21
98517.580475
 31
0.0
210
0.0
220
0.0
230
1.0
 73
     3
  0
TEXT
  8
10
  6
CONTINUOUS
 62
   134
  5
139
 10
121818.088
 20
99034.914
 30
0.0
 40
13.999
  1
H
 50
358.2861
  7
ROMANS
 11
121818.506692
 21
99048.906737
 31
0.0
210
0.0
220
0.0
230
1.0
 73
     3
  0
TEXT
  8
10
  6
CONTINUOUS
 62
   134
  5
13A
 10
121818.112
 20
98799.144
 30
0.0
 40
13.999
  1
H-23
 50
358.2861
  7
ROMANS
 11
121818.530692
 21
98813.136737
 31
0.0
210
0.0
220
0.0
230
1.0
 73
     3
  0
TEXT
  8
10
  6
CONTINUOUS
 62
   134
  5
13B
 10
121777.556
 20
98626.391
 30
0.0
 40
13.999
  1
H-11
 50
358.2861
  7
ROMANS
 11
121777.974692
 21
98640.383737
 31
0.0
210
0.0
220
0.0
230
1.0
 73
     3
  0
TEXT
  8
10
  6
CONTINUOUS
 62
   134
  5
13C
 10
121765.704
 20
99193.855
 30
0.0
 40
13.999
  1
H-7
 50
88.2861
  7
ROMANS
 11
121751.711263
 21
99194.273692
 31
0.0
210
0.0
220
0.0
230
1.0
 73
     3
  0
LINE
  8
6
  6
CONTINUOUS
 62
     7
  5
13D
 10
121734.276
 20
99323.839
 30
0.0
 11
121751.842
 21
99328.744
 31
0.0
  0
TEXT
  8
11
  6
CONTINUOUS
 62
     7
  5
13E
 10
126765.247
 20
100332.998
 30
0.0
 40
8.0
  1
502.8'
 50
358.2861
  7
ROMANS
 72
     4
 11
126786.690091
 21
100336.358167
 31
0.0
210
0.0
220
0.0
230
1.0
  0
TEXT
  8
11
  6
CONTINUOUS
 62
     7
  5
13F
 10
126669.368
 20
98390.197
 30
0.0
 40
8.0
  1
417.2'
 50
358.2861
  7
ROMANS
 72
     4
 11
126690.811091
 21
98393.557167
 31
0.0
210
0.0
220
0.0
230
1.0
  0
TEXT
  8
11
  6
CONTINUOUS
 62
     7
  5
140
 10
126672.278
 20
98620.157
 30
0.0
 40
8.0
  1
417.42'
 50
358.2861
  7
ROMANS
 72
     4
 11
126697.719302
 21
98623.397532
 31
0.0
210
0.0
220
0.0
230
1.0
  0
TEXT
  8
11
  6
CONTINUOUS
 62
     7
  5
141
 10
126899.365
 20
98479.903
 30
0.0
 40
8.0
  1
208.71'
 50
88.2861
  7
ROMANS
 72
     4
 11
126896.124468
 21
98505.344302
 31
0.0
210
0.0
220
0.0
230
1.0
  0
LINE
  8
6
  6
CONTINUOUS
 62
     7
  5
142
 10
123788.242
 20
100411.04
 30
0.0
 11
123199.915
 21
100428.644
 31
0.0
  0
LINE
  8
6
  6
CONTINUOUS
 62
     7
  5
143
 10
123788.241
 20
100411.039
 30
0.0
 11
123199.914
 21
100428.643
 31
0.0
  0
LINE
  8
6
  6
CONTINUOUS
 62
     7
  5
144
 10
123788.241
 20
100411.04
 30
0.0
 11
123199.914
 21
100428.644
 31
0.0
  0
LINE
  8
6
  6
CONTINUOUS
 62
     7
  5
145
 10
122362.611
 20
95771.172
 30
0.0
 11
122365.935
 21
95882.232
 31
0.0
  0
LINE
  8
6
  6
CONTINUOUS
 62
     7
  5
146
 10
122365.935
 20
95882.232
 30
0.0
 11
122366.084
 21
95887.23
 31
0.0
  0
LINE
  8
6
  6
CONTINUOUS
 62
     7
  5
147
 10
122120.5
 20
95773.414
 30
0.0
 11
122120.65
 21
95778.412
 31
0.0
  0
LINE
  8
6
  6
CONTINUOUS
 62
     7
  5
148
 10
122120.65
 20
95778.412
 30
0.0
 11
122124.122
 21
95894.47
 31
0.0
  0
LINE
  8
6
  6
CONTINUOUS
 62
     7
  5
149
 10
121841.663
 20
98017.187
 30
0.0
 11
122371.065
 21
97512.087
 31
0.0
  0
TEXT
  8
11
  6
CONTINUOUS
 62
     7
  5
14A
 10
122740.28
 20
97123.884
 30
0.0
 40
8.0
  1
507.77'
 50
314.2861
  7
ROMANS
 72
     4
 11
122760.832004
 21
97108.542031
 31
0.0
210
0.0
220
0.0
230
1.0
  0
TEXT
  8
11
  6
CONTINUOUS
 62
     7
  5
14B
 10
123113.049
 20
96748.945
 30
0.0
 40
8.0
  1
540.69'
 50
314.2861
  7
ROMANS
 72
     4
 11
123133.601004
 21
96733.603031
 31
0.0
210
0.0
220
0.0
230
1.0
  0
TEXT
  8
11
  6
CONTINUOUS
 62
     7
  5
14C
 10
121978.434
 20
97858.798
 30
0.0
 40
8.0
  1
730'
 50
314.2861
  7
ROMANS
 72
     4
 11
121990.607104
 21
97852.046377
 31
0.0
210
0.0
220
0.0
230
1.0
  0
TEXT
  8
11
  6
CONTINUOUS
 62
     7
  5
14D
 10
122432.783
 20
97424.673
 30
0.0
 40
8.0
  1
262
 50
314.2861
  7
ROMANS
 72
     4
 11
122442.861379
 21
97420.068963
 31
0.0
210
0.0
220
0.0
230
1.0
  0
TEXT
  8
11
  6
CONTINUOUS
 62
     7
  5
14E
 10
123656.863
 20
96202.333
 30
0.0
 40
8.0
  1
690.22'
 50
314.2861
  7
ROMANS
 72
     4
 11
123677.415004
 21
96186.991031
 31
0.0
210
0.0
220
0.0
230
1.0
  0
TEXT
  8
11
  6
CONTINUOUS
 62
     7
  5
14F
 10
124066.619
 20
95780.266
 30
0.0
 40
8.0
  1
796.83'
 50
314.2861
  7
ROMANS
 72
     4
 11
124087.171004
 21
95764.924031
 31
0.0
210
0.0
220
0.0
230
1.0
  0
TEXT
  8
11
  6
CONTINUOUS
 62
     7
  5
150
 10
124518.122
 20
95358.283
 30
0.0
 40
8.0
  1
510.62'
 50
321.2861
  7
ROMANS
 72
     4
 11
124540.390528
 21
95345.560047
 31
0.0
210
0.0
220
0.0
230
1.0
  0
TEXT
  8
11
  6
CONTINUOUS
 62
     7
  5
151
 10
121879.569
 20
96257.418
 30
0.0
 40
8.0
  1
400'
 50
358.3861
  7
ROMANS
 72
     4
 11
121893.010367
 21
96261.040873
 31
0.0
210
0.0
220
0.0
230
1.0
  0
TEXT
  8
11
  6
CONTINUOUS
 62
     7
  5
152
 10
121867.905
 20
95863.11
 30
0.0
 40
8.0
  1
355'
 50
358.7861
  7
ROMANS
 72
     4
 11
121881.319748
 21
95866.826643
 31
0.0
210
0.0
220
0.0
230
1.0
  0
TEXT
  8
11
  6
CONTINUOUS
 62
     7
  5
153
 10
121865.43
 20
95784.416
 30
0.0
 40
8.0
  1
380'
 50
358.4861
  7
ROMANS
 72
     4
 11
121878.865024
 21
95788.062327
 31
0.0
210
0.0
220
0.0
230
1.0
  0
TEXT
  8
11
  6
CONTINUOUS
 62
     7
  5
154
 10
121859.786
 20
95591.707
 30
0.0
 40
8.0
  1
405'
 50
358.2861
  7
ROMANS
 72
     4
 11
121873.23367
 21
95595.306407
 31
0.0
210
0.0
220
0.0
230
1.0
  0
TEXT
  8
11
  6
CONTINUOUS
 62
     7
  5
155
 10
122424.404
 20
95890.477
 30
0.0
 40
8.0
  1
150'
 50
358.3861
  7
ROMANS
 72
     4
 11
122437.845367
 21
95894.099873
 31
0.0
210
0.0
220
0.0
230
1.0
  0
LINE
  8
6
  6
CONTINUOUS
 62
     7
  5
156
 10
122087.291
 20
95574.318
 30
0.0
 11
122093.272
 21
95774.229
 31
0.0
  0
TEXT
  8
11
  6
CONTINUOUS
 62
     7
  5
157
 10
122209.412
 20
95896.782
 30
0.0
 40
8.0
  1
242.07'
 50
357.7861
  7
ROMANS
 72
     4
 11
122234.881611
 21
95899.800356
 31
0.0
210
0.0
220
0.0
230
1.0
  0
ARC
  8
6
  6
CONTINUOUS
 62
     7
  5
158
 10
121702.513396
 20
95771.414664
 30
0.0
 40
14.5
 50
88.2861
 51
178.2861
210
0.0
220
0.0
230
1.0
  0
ARC
  8
6
  6
CONTINUOUS
 62
     7
  5
159
 10
121699.447136
 20
95869.550274
 30
0.0
 40
8.5
 50
178.2861
 51
268.2861
210
0.0
220
0.0
230
1.0
  0
LINE
  8
6
  6
CONTINUOUS
 62
     7
  5
15A
 10
122068.028
 20
95850.018
 30
0.0
 11
121713.187
 21
95860.635
 31
0.0
  0
LINE
  8
6
  6
CONTINUOUS
 62
     7
  5
15B
 10
121713.187
 20
95860.635
 30
0.0
 11
121699.193
 21
95861.054
 31
0.0
  0
TEXT
  8
11
  6
CONTINUOUS
 62
     7
  5
15C
 10
121713.442
 20
96144.568
 30
0.0
 40
8.0
  1
200'
 50
88.2861
  7
ROMANS
 72
     4
 11
121709.842563
 21
96158.01467
 31
0.0
210
0.0
220
0.0
230
1.0
  0
TEXT
  8
11
  6
CONTINUOUS
 62
     7
  5
15D
 10
121707.414
 20
95943.131
 30
0.0
 40
8.0
  1
185'
 50
88.2861
  7
ROMANS
 72
     4
 11
121703.814563
 21
95956.57767
 31
0.0
210
0.0
220
0.0
230
1.0
  0
TEXT
  8
11
  6
CONTINUOUS
 62
     7
  5
15E
 10
121699.159
 20
95667.25
 30
0.0
 40
8.0
  1
185'
 50
88.2861
  7
ROMANS
 72
     4
 11
121695.559563
 21
95680.69667
 31
0.0
210
0.0
220
0.0
230
1.0
  0
TEXT
  8
11
  6
CONTINUOUS
 62
     7
  5
15F
 10
121692.303
 20
95438.122
 30
0.0
 40
8.0
  1
380'
 50
88.2861
  7
ROMANS
 72
     4
 11
121688.703593
 21
95451.56967
 31
0.0
210
0.0
220
0.0
230
1.0
  0
TEXT
  8
11
  6
CONTINUOUS
 62
     7
  5
160
 10
121741.018
 20
97066.157
 30
0.0
 40
8.0
  1
480'
 50
88.2861
  7
ROMANS
 72
     4
 11
121737.418563
 21
97079.60367
 31
0.0
210
0.0
220
0.0
230
1.0
  0
TEXT
  8
11
  6
CONTINUOUS
 62
     7
  5
161
 10
121756.479
 20
97582.885
 30
0.0
 40
8.0
  1
435'
 50
88.2861
  7
ROMANS
 72
     4
 11
121752.879563
 21
97596.33167
 31
0.0
210
0.0
220
0.0
230
1.0
  0
TEXT
  8
11
  6
CONTINUOUS
 62
     7
  5
162
 10
122083.546
 20
96133.493
 30
0.0
 40
8.0
  1
200'
 50
88.2861
  7
ROMANS
 72
     4
 11
122079.946563
 21
96146.93967
 31
0.0
210
0.0
220
0.0
230
1.0
  0
TEXT
  8
11
  6
CONTINUOUS
 62
     7
  5
163
 10
122077.388
 20
95927.678
 30
0.0
 40
8.0
  1
170'
 50
88.2861
  7
ROMANS
 72
     4
 11
122073.788563
 21
95941.12467
 31
0.0
210
0.0
220
0.0
230
1.0
  0
TEXT
  8
11
  6
CONTINUOUS
 62
     7
  5
164
 10
122069.133
 20
95651.798
 30
0.0
 40
8.0
  1
200'
 50
88.2861
  7
ROMANS
 72
     4
 11
122065.533563
 21
95665.24467
 31
0.0
210
0.0
220
0.0
230
1.0
  0
TEXT
  8
11
  6
CONTINUOUS
 62
     7
  5
165
 10
121722.579
 20
96449.947
 30
0.0
 40
8.0
  1
604.02'
 50
88.2861
  7
ROMANS
 72
     4
 11
121719.338468
 21
96475.388302
 31
0.0
210
0.0
220
0.0
230
1.0
  0
TEXT
  8
11
  6
CONTINUOUS
 62
     7
  5
166
 10
121873.542
 20
96055.981
 30
0.0
 40
8.0
  1
400'
 50
358.3861
  7
ROMANS
 72
     4
 11
121886.983367
 21
96059.603873
 31
0.0
210
0.0
220
0.0
230
1.0
  0
TEXT
  8
11
  6
CONTINUOUS
 62
     7
  5
167
 10
122374.341
 20
95803.488
 30
0.0
 40
8.0
  1
111.1'
 50
88.3861
  7
ROMANS
 72
     4
 11
122370.943412
 21
95824.925194
 31
0.0
210
0.0
220
0.0
230
1.0
  0
TEXT
  8
11
  6
CONTINUOUS
 62
     7
  5
168
 10
122071.441
 20
95286.999
 30
0.0
 40
8.0
  1
774.31'
 50
358.7861
  7
ROMANS
 72
     4
 11
122096.853054
 21
95290.461424
 31
0.0
210
0.0
220
0.0
230
1.0
  0
TEXT
  8
11
  6
CONTINUOUS
 62
     7
  5
169
 10
122653.764
 20
95269.574
 30
0.0
 40
8.0
  1
367.83'
 50
358.7861
  7
ROMANS
 72
     4
 11
122679.176054
 21
95273.036424
 31
0.0
210
0.0
220
0.0
230
1.0
  0
TEXT
  8
11
  6
CONTINUOUS
 62
     7
  5
16A
 10
123064.004
 20
95257.334
 30
0.0
 40
8.0
  1
398.2'
 50
358.7861
  7
ROMANS
 72
     4
 11
123085.416952
 21
95260.881163
 31
0.0
210
0.0
220
0.0
230
1.0
  0
TEXT
  8
11
  6
CONTINUOUS
 62
     7
  5
16B
 10
123498.525
 20
95244.401
 30
0.0
 40
8.0
  1
500'
 50
358.7861
  7
ROMANS
 72
     4
 11
123511.939748
 21
95248.117643
 31
0.0
210
0.0
220
0.0
230
1.0
  0
TEXT
  8
11
  6
CONTINUOUS
 62
     7
  5
16C
 10
124094.39
 20
95226.572
 30
0.0
 40
8.0
  1
975'
 50
358.7861
  7
ROMANS
 72
     4
 11
124107.804748
 21
95230.288643
 31
0.0
210
0.0
220
0.0
230
1.0
  0
TEXT
  8
11
  6
CONTINUOUS
 62
     7
  5
16D
 10
123566.696
 20
96758.648
 30
0.0
 40
8.0
  1
75'
 50
46.1861
  7
ROMANS
 72
     4
 11
123570.271037
 21
96768.151894
 31
0.0
210
0.0
220
0.0
230
1.0
  0
TEXT
  8
11
  6
CONTINUOUS
 62
     7
  5
16E
 10
123625.765
 20
96816.621
 30
0.0
 40
8.0
  1
75'
 50
46.1861
  7
ROMANS
 72
     4
 11
123629.340037
 21
96826.124894
 31
0.0
210
0.0
220
0.0
230
1.0
  0
TEXT
  8
11
  6
CONTINUOUS
 62
     7
  5
16F
 10
124083.892
 20
96298.123
 30
0.0
 40
8.0
  1
50'
 50
46.1861
  7
ROMANS
 72
     4
 11
124087.467037
 21
96307.626894
 31
0.0
210
0.0
220
0.0
230
1.0
  0
TEXT
  8
11
  6
CONTINUOUS
 62
     7
  5
170
 10
123687.011
 20
96739.701
 30
0.0
 40
8.0
  1
50'
 50
46.1861
  7
ROMANS
 72
     4
 11
123690.586037
 21
96749.204894
 31
0.0
210
0.0
220
0.0
230
1.0
  0
ARC
  8
6
  6
CONTINUOUS
 62
     7
  5
171
 10
133282.862361
 20
107462.433028
 30
0.0
 40
14535.84699
 50
230.6979
 51
231.103108
210
0.0
220
0.0
230
1.0
  0
ARC
  8
6
  6
CONTINUOUS
 62
     7
  5
172
 10
133282.862361
 20
107462.433028
 30
0.0
 40
14535.84699
 50
231.103108
 51
234.190031
210
0.0
220
0.0
230
1.0
  0
TEXT
  8
11
  6
CONTINUOUS
 62
     7
  5
173
 10
124222.768
 20
96345.806
 30
0.0
 40
8.0
  1
100'
 50
46.1861
  7
ROMANS
 72
     4
 11
124229.11231
 21
96358.196263
 31
0.0
210
0.0
220
0.0
230
1.0
  0
TEXT
  8
11
  6
CONTINUOUS
 62
     7
  5
174
 10
124470.681
 20
95884.163
 30
0.0
 40
8.0
  1
782.77'
 50
322.6861
  7
ROMANS
 72
     4
 11
124493.25373
 21
95871.987913
 31
0.0
210
0.0
220
0.0
230
1.0
  0
TEXT
  8
11
  6
CONTINUOUS
 62
     7
  5
175
 10
124111.81
 20
96165.176
 30
0.0
 40
8.0
  1
102.8'
 50
321.3861
  7
ROMANS
 72
     4
 11
124130.975224
 21
96154.988209
 31
0.0
210
0.0
220
0.0
230
1.0
  0
TEXT
  8
11
  6
CONTINUOUS
 62
     7
  5
176
 10
124759.433
 20
95623.572
 30
0.0
 40
8.0
  1
100'
 50
46.1861
  7
ROMANS
 72
     4
 11
124765.77731
 21
95635.962263
 31
0.0
210
0.0
220
0.0
230
1.0
  0
LINE
  8
6
  6
CONTINUOUS
 62
     7
  5
177
 10
124703.066
 20
95593.786
 30
0.0
 11
125387.461
 21
95132.438
 31
0.0
  0
TEXT
  8
11
  6
CONTINUOUS
 62
     7
  5
178
 10
125147.121
 20
99570.956
 30
0.0
 40
8.0
  1
847.4'
 50
358.2861
  7
ROMANS
 72
     4
 11
125168.564091
 21
99574.316167
 31
0.0
210
0.0
220
0.0
230
1.0
  0
TEXT
  8
11
  6
CONTINUOUS
 62
     7
  5
179
 10
126052.278
 20
100357.413
 30
0.0
 40
8.0
  1
918.7'
 50
358.2861
  7
ROMANS
 72
     4
 11
126073.721091
 21
100360.773167
 31
0.0
210
0.0
220
0.0
230
1.0
  0
TEXT
  8
11
  6
CONTINUOUS
 62
     7
  5
17A
 10
125635.244
 20
99948.6
 30
0.0
 40
8.0
  1
860'
 50
88.2861
  7
ROMANS
 72
     4
 11
125631.644563
 21
99962.04667
 31
0.0
210
0.0
220
0.0
230
1.0
  0
TEXT
  8
11
  6
CONTINUOUS
 62
     7
  5
17B
 10
124759.926
 20
98733.656
 30
0.0
 40
8.0
  1
1558'
 50
88.2861
  7
ROMANS
 72
     4
 11
124756.446198
 21
98751.100881
 31
0.0
210
0.0
220
0.0
230
1.0
  0
TEXT
  8
11
  6
CONTINUOUS
 62
     7
  5
17C
 10
126483.117
 20
99137.409
 30
0.0
 40
8.0
  1
2418'
 50
88.2861
  7
ROMANS
 72
     4
 11
126479.637198
 21
99154.853881
 31
0.0
210
0.0
220
0.0
230
1.0
  0
TEXT
  8
11
  6
CONTINUOUS
 62
     7
  5
17D
 10
123736.261
 20
99220.022
 30
0.0
 40
8.0
  1
766.1'
 50
88.2861
  7
ROMANS
 72
     4
 11
123732.900833
 21
99241.465091
 31
0.0
210
0.0
220
0.0
230
1.0
  0
TEXT
  8
11
  6
CONTINUOUS
 62
     7
  5
17E
 10
123760.315
 20
100023.934
 30
0.0
 40
8.0
  1
766.1'
 50
88.2861
  7
ROMANS
 72
     4
 11
123756.954833
 21
100045.377091
 31
0.0
210
0.0
220
0.0
230
1.0
  0
TEXT
  8
11
  6
CONTINUOUS
 62
     7
  5
17F
 10
123711.679
 20
98398.509
 30
0.0
 40
8.0
  1
796.09'
 50
88.2861
  7
ROMANS
 72
     4
 11
123708.438468
 21
98423.950302
 31
0.0
210
0.0
220
0.0
230
1.0
  0
LINE
  8
6
  6
CONTINUOUS
 62
     7
  5
180
 10
123741.518
 20
98849.538
 30
0.0
 11
123382.449
 21
98860.282
 31
0.0
  0
LINE
  8
6
  6
CONTINUOUS
 62
     7
  5
181
 10
122609.579
 20
98833.385
 30
0.0
 11
122277.14
 21
98843.333
 31
0.0
  0
LINE
  8
6
  6
CONTINUOUS
 62
     7
  5
182
 10
122893.132
 20
98824.901
 30
0.0
 11
122609.579
 21
98833.385
 31
0.0
  0
LINE
  8
6
  6
CONTINUOUS
 62
     7
  5
183
 10
123740.023
 20
98799.56
 30
0.0
 11
123176.685
 21
98816.416
 31
0.0
  0
LINE
  8
6
  6
CONTINUOUS
 62
     7
  5
184
 10
123176.685
 20
98816.416
 30
0.0
 11
122893.132
 21
98824.901
 31
0.0
  0
TEXT
  8
11
  6
CONTINUOUS
 62
     7
  5
185
 10
123401.985
 20
98050.032
 30
0.0
 40
8.0
  1
563.59'
 50
358.2861
  7
ROMANS
 72
     4
 11
123427.426302
 21
98053.272532
 31
0.0
210
0.0
220
0.0
230
1.0
  0
TEXT
  8
11
  6
CONTINUOUS
 62
     7
  5
186
 10
122084.631
 20
97311.759
 30
0.0
 40
8.0
  1
824.31'
 50
359.2861
  7
ROMANS
 72
     4
 11
122110.011872
 21
97315.443051
 31
0.0
210
0.0
220
0.0
230
1.0
  0
TEXT
  8
11
  6
CONTINUOUS
 62
     7
  5
187
 10
122070.974
 20
96855.345
 30
0.0
 40
8.0
  1
824.31'
 50
359.2861
  7
ROMANS
 72
     4
 11
122096.354872
 21
96859.029051
 31
0.0
210
0.0
220
0.0
230
1.0
  0
TEXT
  8
11
  6
CONTINUOUS
 62
     7
  5
188
 10
122196.337
 20
99261.004
 30
0.0
 40
-8.0
  1
755.38'
 50
268.2861
  7
ROMANS
 72
     4
 11
122193.096468
 21
99286.445302
 31
0.0
210
0.0
220
0.0
230
1.0
  0
TEXT
  8
11
  6
CONTINUOUS
 62
     7
  5
189
 10
122741.122
 20
100411.898
 30
0.0
 40
8.0
  1
284.28'
 50
358.2861
  7
ROMANS
 72
     4
 11
122766.563302
 21
100415.138532
 31
0.0
210
0.0
220
0.0
230
1.0
  0
POLYLINE
  8
6
  6
CONTINUOUS
 62
     7
  5
18A
 66
     1
 10
0.0
 20
0.0
 30
0.0
  0
VERTEX
  8
6
  6
CONTINUOUS
 62
     7
  5
18B
 10
122277.14
 20
98843.333
 30
0.0
  0
VERTEX
  8
6
  6
CONTINUOUS
 62
     7
  5
18C
 10
122259.851
 20
98846.393
 30
0.0
  0
VERTEX
  8
6
  6
CONTINUOUS
 62
     7
  5
18D
 10
122249.194
 20
98848.532
 30
0.0
  0
VERTEX
  8
6
  6
CONTINUOUS
 62
     7
  5
18E
 10
122239.856
 20
98850.65
 30
0.0
  0
VERTEX
  8
6
  6
CONTINUOUS
 62
     7
  5
18F
 10
122229.128
 20
98853.453
 30
0.0
  0
VERTEX
  8
6
  6
CONTINUOUS
 62
     7
  5
190
 10
122218.851
 20
98856.641
 30
0.0
  0
VERTEX
  8
6
  6
CONTINUOUS
 62
     7
  5
191
 10
122203.681
 20
98862.616
 30
0.0
  0
VERTEX
  8
6
  6
CONTINUOUS
 62
     7
  5
192
 10
122189.058
 20
98870.123
 30
0.0
  0
VERTEX
  8
6
  6
CONTINUOUS
 62
     7
  5
193
 10
122178.024
 20
98877.184
 30
0.0
  0
VERTEX
  8
6
  6
CONTINUOUS
 62
     7
  5
194
 10
122169.117
 20
98883.898
 30
0.0
  0
VERTEX
  8
6
  6
CONTINUOUS
 62
     7
  5
195
 10
122160.421
 20
98891.142
 30
0.0
  0
VERTEX
  8
6
  6
CONTINUOUS
 62
     7
  5
196
 10
122151.331
 20
98899.279
 30
0.0
  0
VERTEX
  8
6
  6
CONTINUOUS
 62
     7
  5
197
 10
122140.256
 20
98909.89
 30
0.0
  0
VERTEX
  8
6
  6
CONTINUOUS
 62
     7
  5
198
 10
122131.373
 20
98919.135
 30
0.0
  0
VERTEX
  8
6
  6
CONTINUOUS
 62
     7
  5
199
 10
122123.308
 20
98928.049
 30
0.0
  0
VERTEX
  8
6
  6
CONTINUOUS
 62
     7
  5
19A
 10
122113.991
 20
98938.641
 30
0.0
  0
VERTEX
  8
6
  6
CONTINUOUS
 62
     7
  5
19B
 10
122105.879
 20
98948.086
 30
0.0
  0
VERTEX
  8
6
  6
CONTINUOUS
 62
     7
  5
19C
 10
122097.289
 20
98957.733
 30
0.0
  0
VERTEX
  8
6
  6
CONTINUOUS
 62
     7
  5
19D
 10
122089.892
 20
98963.894
 30
0.0
  0
VERTEX
  8
6
  6
CONTINUOUS
 62
     7
  5
19E
 10
122082.808
 20
98968.071
 30
0.0
  0
VERTEX
  8
6
  6
CONTINUOUS
 62
     7
  5
19F
 10
122075.729
 20
98969.621
 30
0.0
  0
VERTEX
  8
6
  6
CONTINUOUS
 62
     7
  5
1A0
 10
122068.57
 20
98970.466
 30
0.0
  0
VERTEX
  8
6
  6
CONTINUOUS
 62
     7
  5
1A1
 10
122061.948
 20
98970.294
 30
0.0
  0
VERTEX
  8
6
  6
CONTINUOUS
 62
     7
  5
1A2
 10
122052.368
 20
98968.531
 30
0.0
  0
VERTEX
  8
6
  6
CONTINUOUS
 62
     7
  5
1A3
 10
122044.778
 20
98965.874
 30
0.0
  0
VERTEX
  8
6
  6
CONTINUOUS
 62
     7
  5
1A4
 10
122038.598
 20
98962.899
 30
0.0
  0
VERTEX
  8
6
  6
CONTINUOUS
 62
     7
  5
1A5
 10
122032.64
 20
98959.458
 30
0.0
  0
VERTEX
  8
6
  6
CONTINUOUS
 62
     7
  5
1A6
 10
122023.211
 20
98953.233
 30
0.0
  0
VERTEX
  8
6
  6
CONTINUOUS
 62
     7
  5
1A7
 10
122014.96
 20
98947.336
 30
0.0
  0
VERTEX
  8
6
  6
CONTINUOUS
 62
     7
  5
1A8
 10
122004.25
 20
98939.407
 30
0.0
  0
VERTEX
  8
6
  6
CONTINUOUS
 62
     7
  5
1A9
 10
121997.106
 20
98934.059
 30
0.0
  0
SEQEND
  8
6
  6
CONTINUOUS
 62
     7
  5
1AA
  0
POLYLINE
  8
6
  6
CONTINUOUS
 62
     7
  5
1AB
 66
     1
 10
0.0
 20
0.0
 30
0.0
  0
VERTEX
  8
6
  6
CONTINUOUS
 62
     7
  5
1AC
 10
121982.844
 20
98979.926
 30
0.0
  0
VERTEX
  8
6
  6
CONTINUOUS
 62
     7
  5
1AD
 10
121996.411
 20
98990.524
 30
0.0
  0
VERTEX
  8
6
  6
CONTINUOUS
 62
     7
  5
1AE
 10
122005.904
 20
98997.493
 30
0.0
  0
VERTEX
  8
6
  6
CONTINUOUS
 62
     7
  5
1AF
 10
122021.592
 20
99007.618
 30
0.0
  0
VERTEX
  8
6
  6
CONTINUOUS
 62
     7
  5
1B0
 10
122032.977
 20
99013.543
 30
0.0
  0
VERTEX
  8
6
  6
CONTINUOUS
 62
     7
  5
1B1
 10
122046.732
 20
99018.297
 30
0.0
  0
VERTEX
  8
6
  6
CONTINUOUS
 62
     7
  5
1B2
 10
122062.542
 20
99020.202
 30
0.0
  0
VERTEX
  8
6
  6
CONTINUOUS
 62
     7
  5
1B3
 10
122077.214
 20
99019.304
 30
0.0
  0
VERTEX
  8
6
  6
CONTINUOUS
 62
     7
  5
1B4
 10
122087.616
 20
99017.331
 30
0.0
  0
VERTEX
  8
6
  6
CONTINUOUS
 62
     7
  5
1B5
 10
122104.196
 20
99011.514
 30
0.0
  0
VERTEX
  8
6
  6
CONTINUOUS
 62
     7
  5
1B6
 10
122117.858
 20
99003.684
 30
0.0
  0
VERTEX
  8
6
  6
CONTINUOUS
 62
     7
  5
1B7
 10
122126.105
 20
98997.541
 30
0.0
  0
VERTEX
  8
6
  6
CONTINUOUS
 62
     7
  5
1B8
 10
122138.683
 20
98986.184
 30
0.0
  0
VERTEX
  8
6
  6
CONTINUOUS
 62
     7
  5
1B9
 10
122148.295
 20
98975.833
 30
0.0
  0
VERTEX
  8
6
  6
CONTINUOUS
 62
     7
  5
1BA
 10
122156.885
 20
98965.407
 30
0.0
  0
VERTEX
  8
6
  6
CONTINUOUS
 62
     7
  5
1BB
 10
122163.99
 20
98956.415
 30
0.0
  0
VERTEX
  8
6
  6
CONTINUOUS
 62
     7
  5
1BC
 10
122170.362
 20
98948.503
 30
0.0
  0
VERTEX
  8
6
  6
CONTINUOUS
 62
     7
  5
1BD
 10
122178.908
 20
98938.786
 30
0.0
  0
VERTEX
  8
6
  6
CONTINUOUS
 62
     7
  5
1BE
 10
122193.923
 20
98925.665
 30
0.0
  0
VERTEX
  8
6
  6
CONTINUOUS
 62
     7
  5
1BF
 10
122207.3
 20
98917.084
 30
0.0
  0
VERTEX
  8
6
  6
CONTINUOUS
 62
     7
  5
1C0
 10
122220.186
 20
98910.063
 30
0.0
  0
VERTEX
  8
6
  6
CONTINUOUS
 62
     7
  5
1C1
 10
122236.084
 20
98902.879
 30
0.0
  0
VERTEX
  8
6
  6
CONTINUOUS
 62
     7
  5
1C2
 10
122249.619
 20
98898.473
 30
0.0
  0
VERTEX
  8
6
  6
CONTINUOUS
 62
     7
  5
1C3
 10
122262.095
 20
98895.642
 30
0.0
  0
VERTEX
  8
6
  6
CONTINUOUS
 62
     7
  5
1C4
 10
122272.488
 20
98894.026
 30
0.0
  0
VERTEX
  8
6
  6
CONTINUOUS
 62
     7
  5
1C5
 10
122280.658
 20
98893.25
 30
0.0
  0
SEQEND
  8
6
  6
CONTINUOUS
 62
     7
  5
1C6
  0
POLYLINE
  8
6
  6
CONTINUOUS
 62
     7
  5
1C7
 66
     1
 10
0.0
 20
0.0
 30
0.0
  0
VERTEX
  8
6
  6
CONTINUOUS
 62
     7
  5
1C8
 10
121997.106
 20
98934.059
 30
0.0
  0
VERTEX
  8
6
  6
CONTINUOUS
 62
     7
  5
1C9
 10
122000.407
 20
98923.321
 30
0.0
  0
VERTEX
  8
6
  6
CONTINUOUS
 62
     7
  5
1CA
 10
122006.178
 20
98905.034
 30
0.0
  0
VERTEX
  8
6
  6
CONTINUOUS
 62
     7
  5
1CB
 10
122013.595
 20
98883.094
 30
0.0
  0
VERTEX
  8
6
  6
CONTINUOUS
 62
     7
  5
1CC
 10
122020.698
 20
98863.145
 30
0.0
  0
VERTEX
  8
6
  6
CONTINUOUS
 62
     7
  5
1CD
 10
122028.771
 20
98840.161
 30
0.0
  0
VERTEX
  8
6
  6
CONTINUOUS
 62
     7
  5
1CE
 10
122035.173
 20
98820.071
 30
0.0
  0
VERTEX
  8
6
  6
CONTINUOUS
 62
     7
  5
1CF
 10
122040.635
 20
98799.989
 30
0.0
  0
VERTEX
  8
6
  6
CONTINUOUS
 62
     7
  5
1D0
 10
122044.619
 20
98781.921
 30
0.0
  0
VERTEX
  8
6
  6
CONTINUOUS
 62
     7
  5
1D1
 10
122048.33
 20
98759.146
 30
0.0
  0
VERTEX
  8
6
  6
CONTINUOUS
 62
     7
  5
1D2
 10
122050.376
 20
98740.155
 30
0.0
  0
VERTEX
  8
6
  6
CONTINUOUS
 62
     7
  5
1D3
 10
122051.443
 20
98723.729
 30
0.0
  0
VERTEX
  8
6
  6
CONTINUOUS
 62
     7
  5
1D4
 10
122051.945
 20
98704.062
 30
0.0
  0
VERTEX
  8
6
  6
CONTINUOUS
 62
     7
  5
1D5
 10
122051.843
 20
98689.113
 30
0.0
  0
VERTEX
  8
6
  6
CONTINUOUS
 62
     7
  5
1D6
 10
122051.256
 20
98671.894
 30
0.0
  0
VERTEX
  8
6
  6
CONTINUOUS
 62
     7
  5
1D7
 10
122050.241
 20
98655.789
 30
0.0
  0
VERTEX
  8
6
  6
CONTINUOUS
 62
     7
  5
1D8
 10
122048.269
 20
98636.356
 30
0.0
  0
VERTEX
  8
6
  6
CONTINUOUS
 62
     7
  5
1D9
 10
122045.787
 20
98620.625
 30
0.0
  0
VERTEX
  8
6
  6
CONTINUOUS
 62
     7
  5
1DA
 10
122042.07
 20
98604.361
 30
0.0
  0
VERTEX
  8
6
  6
CONTINUOUS
 62
     7
  5
1DB
 10
122039.639
 20
98596.075
 30
0.0
  0
VERTEX
  8
6
  6
CONTINUOUS
 62
     7
  5
1DC
 10
122034.803
 20
98582.707
 30
0.0
  0
VERTEX
  8
6
  6
CONTINUOUS
 62
     7
  5
1DD
 10
122030.578
 20
98573.07
 30
0.0
  0
VERTEX
  8
6
  6
CONTINUOUS
 62
     7
  5
1DE
 10
122024.343
 20
98560.79
 30
0.0
  0
VERTEX
  8
6
  6
CONTINUOUS
 62
     7
  5
1DF
 10
122020.179
 20
98553.411
 30
0.0
  0
VERTEX
  8
6
  6
CONTINUOUS
 62
     7
  5
1E0
 10
122014.316
 20
98543.864
 30
0.0
  0
VERTEX
  8
6
  6
CONTINUOUS
 62
     7
  5
1E1
 10
122010.242
 20
98537.749
 30
0.0
  0
VERTEX
  8
6
  6
CONTINUOUS
 62
     7
  5
1E2
 10
122007.411
 20
98533.492
 30
0.0
  0
VERTEX
  8
6
  6
CONTINUOUS
 62
     7
  5
1E3
 10
121998.205
 20
98520.539
 30
0.0
  0
VERTEX
  8
6
  6
CONTINUOUS
 62
     7
  5
1E4
 10
121993.369
 20
98513.988
 30
0.0
  0
VERTEX
  8
6
  6
CONTINUOUS
 62
     7
  5
1E5
 10
121984.364
 20
98502.094
 30
0.0
  0
VERTEX
  8
6
  6
CONTINUOUS
 62
     7
  5
1E6
 10
121979.099
 20
98495.276
 30
0.0
  0
VERTEX
  8
6
  6
CONTINUOUS
 62
     7
  5
1E7
 10
121968.346
 20
98481.567
 30
0.0
  0
VERTEX
  8
6
  6
CONTINUOUS
 62
     7
  5
1E8
 10
121957.327
 20
98466.95
 30
0.0
  0
VERTEX
  8
6
  6
CONTINUOUS
 62
     7
  5
1E9
 10
121949.774
 20
98456.892
 30
0.0
  0
VERTEX
  8
6
  6
CONTINUOUS
 62
     7
  5
1EA
 10
121941.458
 20
98445.817
 30
0.0
  0
VERTEX
  8
6
  6
CONTINUOUS
 62
     7
  5
1EB
 10
121934.554
 20
98437.84
 30
0.0
  0
SEQEND
  8
6
  6
CONTINUOUS
 62
     7
  5
1EC
  0
POLYLINE
  8
6
  6
CONTINUOUS
 62
     7
  5
1ED
 66
     1
 10
0.0
 20
0.0
 30
0.0
  0
VERTEX
  8
6
  6
CONTINUOUS
 62
     7
  5
1EE
 10
121821.049
 20
99375.572
 30
0.0
  0
VERTEX
  8
6
  6
CONTINUOUS
 62
     7
  5
1EF
 10
121826.661
 20
99352.444
 30
0.0
  0
VERTEX
  8
6
  6
CONTINUOUS
 62
     7
  5
1F0
 10
121834.394
 20
99330.756
 30
0.0
  0
VERTEX
  8
6
  6
CONTINUOUS
 62
     7
  5
1F1
 10
121840.863
 20
99312.691
 30
0.0
  0
VERTEX
  8
6
  6
CONTINUOUS
 62
     7
  5
1F2
 10
121848.734
 20
99290.826
 30
0.0
  0
VERTEX
  8
6
  6
CONTINUOUS
 62
     7
  5
1F3
 10
121854.772
 20
99274.155
 30
0.0
  0
VERTEX
  8
6
  6
CONTINUOUS
 62
     7
  5
1F4
 10
121862.893
 20
99251.906
 30
0.0
  0
VERTEX
  8
6
  6
CONTINUOUS
 62
     7
  5
1F5
 10
121871.006
 20
99229.938
 30
0.0
  0
VERTEX
  8
6
  6
CONTINUOUS
 62
     7
  5
1F6
 10
121876.981
 20
99213.978
 30
0.0
  0
VERTEX
  8
6
  6
CONTINUOUS
 62
     7
  5
1F7
 10
121884.233
 20
99194.949
 30
0.0
  0
VERTEX
  8
6
  6
CONTINUOUS
 62
     7
  5
1F8
 10
121891.072
 20
99182.454
 30
0.0
  0
VERTEX
  8
6
  6
CONTINUOUS
 62
     7
  5
1F9
 10
121900.309
 20
99159.449
 30
0.0
  0
VERTEX
  8
6
  6
CONTINUOUS
 62
     7
  5
1FA
 10
121910.368
 20
99140.835
 30
0.0
  0
VERTEX
  8
6
  6
CONTINUOUS
 62
     7
  5
1FB
 10
121924.73
 20
99108.359
 30
0.0
  0
VERTEX
  8
6
  6
CONTINUOUS
 62
     7
  5
1FC
 10
121941.449
 20
99075.813
 30
0.0
  0
VERTEX
  8
6
  6
CONTINUOUS
 62
     7
  5
1FD
 10
121947.365
 20
99061.6
 30
0.0
  0
VERTEX
  8
6
  6
CONTINUOUS
 62
     7
  5
1FE
 10
121956.172
 20
99043.897
 30
0.0
  0
VERTEX
  8
6
  6
CONTINUOUS
 62
     7
  5
1FF
 10
121963.381
 20
99028.43
 30
0.0
  0
VERTEX
  8
6
  6
CONTINUOUS
 62
     7
  5
200
 10
121970.308
 20
99012.269
 30
0.0
  0
VERTEX
  8
6
  6
CONTINUOUS
 62
     7
  5
201
 10
121982.844
 20
98979.926
 30
0.0
  0
SEQEND
  8
6
  6
CONTINUOUS
 62
     7
  5
202
  0
LINE
  8
6
  6
CONTINUOUS
 62
     7
  5
203
 10
126378.579
 20
94810.928
 30
0.0
 11
126473.154
 21
97971.645
 31
0.0
  0
LINE
  8
6
  6
CONTINUOUS
 62
     7
  5
204
 10
126473.154
 20
97971.645
 30
0.0
 11
126486.314
 21
98411.448
 31
0.0
  0
LINE
  8
6
  6
CONTINUOUS
 62
     7
  5
205
 10
122371.065
 20
97512.087
 30
0.0
 11
122494.303
 21
97394.505
 31
0.0
  0
LINE
  8
6
  6
CONTINUOUS
 62
     7
  5
206
 10
122600.478
 20
97291.158
 30
0.0
 11
122916.656
 21
96973.73
 31
0.0
  0
LINE
  8
6
  6
CONTINUOUS
 62
     7
  5
207
 10
121737.241
 20
97416.806
 30
0.0
 11
121750.258
 21
97851.837
 31
0.0
  0
POLYLINE
  8
21
  6
DASHDOT
 62
     7
  5
209
 66
     1
 10
0.0
 20
0.0
 30
0.0
 70
     1
  0
VERTEX
  8
21
  6
DASHDOT
 62
     7
  5
20A
 10
121733.661
 20
97297.198
 30
0.0
  0
VERTEX
  8
21
  6
DASHDOT
 62
     7
  5
20B
 10
121734.259
 20
97317.19
 30
0.0
  0
VERTEX
  8
21
  6
DASHDOT
 62
     7
  5
20C
 10
122586.089
 20
97292.097
 30
0.0
  0
VERTEX
  8
21
  6
DASHDOT
 62
     7
  5
20D
 10
122585.495
 20
97272.106
 30
0.0
  0
VERTEX
  8
21
  6
DASHDOT
 62
     7
  5
20E
 10
121733.665
 20
97297.198
 30
0.0
  0
VERTEX
  8
21
  6
DASHDOT
 62
     7
  5
20F
 10
121733.661
 20
97297.198
 30
0.0
  0
SEQEND
  8
21
  6
DASHDOT
 62
     7
  5
210
  0
TEXT
  8
11
  6
CONTINUOUS
 62
     7
  5
211
 10
121743.512
 20
97358.117
 30
0.0
 40
8.0
  1
100'
 50
88.298233
  7
txt
 72
     1
 11
121743.872998
 21
97370.267639
 31
0.0
210
0.0
220
0.0
230
1.0
  0
TEXT
  8
11
  6
CONTINUOUS
 62
     7
  5
212
 10
122107.601
 20
97395.893
 30
0.0
 40
8.0
  1
788.95'
 50
358.312764
  7
txt
 72
     1
 11
122131.321362
 21
97403.197755
 31
0.0
210
0.0
220
0.0
230
1.0
 73
     3
  0
TEXT
  8
11
  6
CONTINUOUS
 62
     7
  5
213
 10
122518.444
 20
97386.889
 30
0.0
 40
8.0
  1
40.87'
 50
314.922181
  7
txt
 72
     1
 11
122538.119876
 21
97378.48871
 31
0.0
210
0.0
220
0.0
230
1.0
 73
     3
  0
TEXT
  8
11
  6
CONTINUOUS
 62
     7
  5
214
 10
122500.711
 20
97390.51
 30
0.0
 40
8.0
  1
R=5588.58'
 50
314.922181
  7
txt
 72
     1
 11
122531.03979
 21
97371.427818
 31
0.0
210
0.0
220
0.0
230
1.0
 73
     3
  0
TEXT
  8
11
  6
CONTINUOUS
 62
     7
  5
215
 10
122550.879
 20
97354.282
 30
0.0
 40
8.0
  1
46.26'
 50
314.732664
  7
txt
 72
     1
 11
122570.260946
 21
97346.085205
 31
0.0
210
0.0
220
0.0
230
1.0
 73
     3
  0
TEXT
  8
11
  6
CONTINUOUS
 62
     7
  5
216
 10
122596.673
 20
97325.479
 30
0.0
 40
8.0
  1
59.41'
 50
314.732061
  7
txt
 72
     1
 11
122609.507357
 21
97312.524041
 31
0.0
210
0.0
220
0.0
230
1.0
  0
TEXT
  8
22
  6
CONTINUOUS
 62
     3
  5
218
 10
122145.204
 20
97277.037
 30
0.0
 40
6.0
  1
852.2'
 50
358.312747
  7
ROMANS
 72
     1
 11
122161.197063
 21
97276.565898
 31
0.0
210
0.0
220
0.0
230
1.0
  0
TEXT
  8
22
  6
CONTINUOUS
 62
     3
  5
219
 10
122014.687
 20
97295.947
 30
0.0
 40
6.0
  1
DRAINAGE EASEMENT
 50
358.312747
  7
ROMANS
 72
     1
 11
122064.841985
 21
97300.472206
 31
0.0
210
0.0
220
0.0
230
1.0
 73
     3
  0
TEXT
  8
22
  6
CONTINUOUS
 62
     3
  5
21A
 10
121741.783
 20
97301.158
 30
0.0
 40
6.0
  1
20'
 50
88.286108
  7
ROMANS
 72
     1
 11
121735.995044
 21
97308.33432
 31
0.0
210
0.0
220
0.0
230
1.0
 73
     3
  0
TEXT
  8
19
  6
CONTINUOUS
 62
     1
  5
21B
 10
124266.7
 20
95783.327
 30
0.0
 40
48.0
  1
CLOVIS RD
 50
316.336806
  7
txt
 72
     4
 11
124428.175
 21
95662.392641
 31
0.0
210
0.0
220
0.0
230
1.0
  0
LINE
  8
6
  6
CONTINUOUS
 62
     7
  5
21C
 10
122525.849
 20
97393.576
 30
0.0
 11
121737.241
 21
97416.806
 31
0.0
  0
LINE
  8
6
  6
CONTINUOUS
 62
     7
  5
21D
 10
121734.25
 20
97316.858
 30
0.0
 11
122586.07
 21
97291.767
 31
0.0
  0
ARC
  8
6
  6
CONTINUOUS
 62
     7
  5
21E
 10
122555.686533
 20
96257.496549
 30
0.0
 40
1035.0
 50
85.931606
 51
88.317136
210
0.0
220
0.0
230
1.0
  0
LINE
  8
6
  6
CONTINUOUS
 62
     7
  5
21F
 10
122587.305
 20
97332.093
 30
0.0
 11
122629.117
 21
97289.888
 31
0.0
  0
LINE
  8
6
  6
CONTINUOUS
 62
     7
  5
220
 10
122587.26
 20
97331.77
 30
0.0
 11
122554.703
 21
97364.633
 31
0.0
  0
ARC
  8
6
  6
CONTINUOUS
 62
     7
  5
221
 10
118582.449396
 20
93433.547593
 30
0.0
 40
5588.57999
 50
44.701553
 51
45.120561
210
0.0
220
0.0
230
1.0
  0
LINE
  8
6
  6
CONTINUOUS
 62
     7
  5
222
 10
122587.305
 20
97332.093
 30
0.0
 11
122629.117
 21
97289.888
 31
0.0
  0
TEXT
  8
19
  6
CONTINUOUS
 62
     1
  5
223
 10
121782.639
 20
99896.825
 30
0.0
 40
19.999
  1
FRANKFORD AVE
 50
88.2861
  7
txt
 72
     4
 11
121776.385236
 21
100022.174119
 31
0.0
210
0.0
220
0.0
230
1.0
  0
TEXT
  8
19
  6
CONTINUOUS
 62
     1
  5
224
 10
121678.766
 20
96161.215
 30
0.0
 40
19.999
  1
FRANKFORD AVE
 50
88.2861
  7
txt
 72
     4
 11
121672.512236
 21
96286.564119
 31
0.0
210
0.0
220
0.0
230
1.0
  0
POLYLINE
  8
21
  6
DASHDOT
 62
     7
  5
225
 66
     1
 10
0.0
 20
0.0
 30
0.0
  0
VERTEX
  8
21
  6
DASHDOT
 62
     7
  5
226
 10
124091.181
 20
96233.791
 30
0.0
  0
VERTEX
  8
21
  6
DASHDOT
 62
     7
  5
227
 10
123988.615
 20
96329.111
 30
0.0
  0
VERTEX
  8
21
  6
DASHDOT
 62
     7
  5
228
 10
123916.436
 20
96383.853
 30
0.0
  0
VERTEX
  8
21
  6
DASHDOT
 62
     7
  5
229
 10
123916.436321
 20
96383.85313
 30
0.0
 42
-0.024984
  0
VERTEX
  8
21
  6
DASHDOT
 62
     7
  5
22A
 10
123824.995064
 20
96460.692967
 30
0.0
  0
VERTEX
  8
21
  6
DASHDOT
 62
     7
  5
22B
 10
123824.995
 20
96460.692
 30
0.0
  0
VERTEX
  8
21
  6
DASHDOT
 62
     7
  5
22C
 10
123822.175
 20
96463.315
 30
0.0
  0
VERTEX
  8
21
  6
DASHDOT
 62
     7
  5
22D
 10
123672.538
 20
96615.797
 30
0.0
  0
VERTEX
  8
21
  6
DASHDOT
 62
     7
  5
22E
 10
123672.538756
 20
96615.797954
 30
0.0
 42
0.011709
  0
VERTEX
  8
21
  6
DASHDOT
 62
     7
  5
22F
 10
123478.467655
 20
96804.445416
 30
0.0
  0
VERTEX
  8
21
  6
DASHDOT
 62
     7
  5
230
 10
123478.471
 20
96804.443
 30
0.0
  0
VERTEX
  8
21
  6
DASHDOT
 62
     7
  5
231
 10
123578.769
 20
96710.095
 30
0.0
  0
VERTEX
  8
21
  6
DASHDOT
 62
     7
  5
232
 10
123595.77
 20
96728.425
 30
0.0
  0
VERTEX
  8
21
  6
DASHDOT
 62
     7
  5
233
 10
124108.919
 20
96252.936
 30
0.0
  0
VERTEX
  8
21
  6
DASHDOT
 62
     7
  5
234
 10
124091.181
 20
96233.791
 30
0.0
  0
SEQEND
  8
21
  6
DASHDOT
 62
     7
  5
235
  0
TEXT
  8
13
  6
CONTINUOUS
 62
    14
  5
237
 10
123788.505
 20
96533.14
 30
0.0
 40
8.0
  1
V6648 P043
 50
315.604989
  7
txt
 72
     4
 11
123819.185935
 21
96508.698299
 31
0.0
210
0.0
220
0.0
230
1.0
  0
TEXT
  8
13
  6
CONTINUOUS
 62
    14
  5
238
 10
123779.842
 20
96524.426
 30
0.0
 40
8.0
  1
V6648 P045
 50
315.604989
  7
txt
 72
     4
 11
123810.522935
 21
96499.984299
 31
0.0
210
0.0
220
0.0
230
1.0
  0
TEXT
  8
13
  6
CONTINUOUS
 62
    14
  5
239
 10
123772.686
 20
96515.789
 30
0.0
 40
8.0
  1
V6648 P058
 50
315.604989
  7
txt
 72
     4
 11
123803.231888
 21
96491.479524
 31
0.0
210
0.0
220
0.0
230
1.0
  0
POLYLINE
  8
6
  6
CONTINUOUS
 62
     7
  5
23A
 66
     1
 10
0.0
 20
0.0
 30
0.0
  0
VERTEX
  8
6
  6
CONTINUOUS
 62
     7
  5
23B
 10
123482.147608
 20
96801.026046
 30
0.0
 42
-0.011709
  0
VERTEX
  8
6
  6
CONTINUOUS
 62
     7
  5
23C
 10
123676.218708
 20
96612.378584
 30
0.0
  0
VERTEX
  8
6
  6
CONTINUOUS
 62
     7
  5
23D
 10
123676.218
 20
96612.379
 30
0.0
  0
VERTEX
  8
6
  6
CONTINUOUS
 62
     7
  5
23E
 10
123825.854
 20
96459.896
 30
0.0
  0
VERTEX
  8
6
  6
CONTINUOUS
 62
     7
  5
23F
 10
123828.675017
 20
96457.273597
 30
0.0
 42
0.024984
  0
VERTEX
  8
6
  6
CONTINUOUS
 62
     7
  5
240
 10
123920.116274
 20
96380.433761
 30
0.0
  0
VERTEX
  8
6
  6
CONTINUOUS
 62
     7
  5
241
 10
123920.115
 20
96380.434
 30
0.0
  0
VERTEX
  8
6
  6
CONTINUOUS
 62
     7
  5
242
 10
123992.295
 20
96325.692
 30
0.0
  0
VERTEX
  8
6
  6
CONTINUOUS
 62
     7
  5
243
 10
124094.861
 20
96230.373
 30
0.0
  0
SEQEND
  8
6
  6
CONTINUOUS
 62
     7
  5
244
  0
POLYLINE
  8
21
  6
DASHDOT
 62
     7
  5
245
 66
     1
 10
0.0
 20
0.0
 30
0.0
  0
VERTEX
  8
21
  6
DASHDOT
 62
     7
  5
246
 10
122525.836
 20
97393.589
 30
0.0
  0
VERTEX
  8
21
  6
DASHDOT
 62
     7
  5
247
 10
121737.228
 20
97416.817
 30
0.0
  0
VERTEX
  8
21
  6
DASHDOT
 62
     7
  5
248
 10
121737.222
 20
97416.823
 30
0.0
  0
VERTEX
  8
21
  6
DASHDOT
 62
     7
  5
249
 10
121734.678
 20
97331.802
 30
0.0
  0
VERTEX
  8
21
  6
DASHDOT
 62
     7
  5
24A
 10
121734.677779
 20
97331.801278
 30
0.0
 42
0.411648
  0
VERTEX
  8
21
  6
DASHDOT
 62
     7
  5
24B
 10
121749.161886
 20
97316.430357
 30
0.0
  0
VERTEX
  8
21
  6
DASHDOT
 62
     7
  5
24C
 10
121749.162
 20
97316.431
 30
0.0
  0
VERTEX
  8
21
  6
DASHDOT
 62
     7
  5
24D
 10
122586.059
 20
97291.779
 30
0.0
  0
VERTEX
  8
21
  6
DASHDOT
 62
     7
  5
24E
 10
122587.249
 20
97331.781
 30
0.0
  0
VERTEX
  8
21
  6
DASHDOT
 62
     7
  5
24F
 10
122554.69
 20
97364.645
 30
0.0
  0
VERTEX
  8
21
  6
DASHDOT
 62
     7
  5
250
 10
122554.690877
 20
97364.644489
 30
0.0
 42
0.001828
  0
VERTEX
  8
21
  6
DASHDOT
 62
     7
  5
251
 10
122525.836592
 20
97393.588496
 30
0.0
  0
SEQEND
  8
21
  6
DASHDOT
 62
     7
  5
252
  0
TEXT
  8
13
  6
CONTINUOUS
 62
    14
  5
253
 10
121744.163
 20
97324.416
 30
0.0
 40
8.0
  1
V6485 P009
 50
358.312747
  7
ROMANS
 72
     1
 11
121782.715931
 21
97331.283831
 31
0.0
210
0.0
220
0.0
230
1.0
 73
     3
  0
TEXT
  8
13
  6
CONTINUOUS
 62
    14
  5
254
 10
122200.449
 20
97347.575
 30
0.0
 40
8.0
  1
V6483 P195
 50
358.312747
  7
ROMANS
 72
     1
 11
122239.011926
 21
97354.442536
 31
0.0
210
0.0
220
0.0
230
1.0
 73
     3
  0
TEXT
  8
13
  6
CONTINUOUS
 62
    14
  5
255
 10
122219.364
 20
97289.136
 30
0.0
 40
8.0
  1
V6471 P001
 50
358.312747
  7
ROMANS
 72
     1
 11
122256.917364
 21
97296.033274
 31
0.0
210
0.0
220
0.0
230
1.0
 73
     3
  0
TEXT
  8
13
  6
CONTINUOUS
 62
    14
  5
256
 10
122587.995
 20
97282.153
 30
0.0
 40
8.0
  1
V6552 P027
 50
358.312747
  7
ROMANS
 72
     1
 11
122626.546931
 21
97289.02086
 31
0.0
210
0.0
220
0.0
230
1.0
 73
     3
  0
POLYLINE
  8
21
  6
DASHDOT
 62
     7
  5
257
 66
     1
 10
0.0
 20
0.0
 30
0.0
 70
     1
  0
VERTEX
  8
21
  6
DASHDOT
 62
     7
  5
258
 10
122586.057
 20
97291.781
 30
0.0
  0
VERTEX
  8
21
  6
DASHDOT
 62
     7
  5
259
 10
122587.246
 20
97331.784
 30
0.0
  0
VERTEX
  8
21
  6
DASHDOT
 62
     7
  5
25A
 10
122629.058
 20
97289.579
 30
0.0
  0
VERTEX
  8
21
  6
DASHDOT
 62
     7
  5
25B
 10
122586.057
 20
97291.781
 30
0.0
  0
SEQEND
  8
21
  6
DASHDOT
 62
     7
  5
25C
  0
TEXT
  8
13
  6
CONTINUOUS
 62
    14
  5
25D
 10
121746.643
 20
97356.51
 30
0.0
 40
8.0
  1
V6648 P050
 50
358.312747
  7
ROMANS
 72
     1
 11
121785.512793
 21
97363.368497
 31
0.0
210
0.0
220
0.0
230
1.0
 73
     3
  0
TEXT
  8
13
  6
CONTINUOUS
 62
    14
  5
25E
 10
121746.02
 20
97345.5
 30
0.0
 40
8.0
  1
V6648 P052
 50
358.312747
  7
ROMANS
 72
     1
 11
121784.571931
 21
97352.36786
 31
0.0
210
0.0
220
0.0
230
1.0
 73
     3
  0
TEXT
  8
13
  6
CONTINUOUS
 62
    14
  5
25F
 10
121745.207
 20
97334.802
 30
0.0
 40
8.0
  1
V6648 P056
 50
358.312747
  7
ROMANS
 72
     1
 11
121783.94585
 21
97341.664354
 31
0.0
210
0.0
220
0.0
230
1.0
 73
     3
  0
TEXT
  8
13
  6
CONTINUOUS
 62
    14
  5
260
 10
122662.871
 20
97333.667
 30
0.0
 40
8.0
  1
V6970 P234
 50
358.2861
  7
txt
 72
     4
 11
122701.806262
 21
97336.503765
 31
0.0
210
0.0
220
0.0
230
1.0
  0
TEXT
  8
13
  6
CONTINUOUS
 62
    14
  5
261
 10
122662.53
 20
97321.768
 30
0.0
 40
8.0
  1
v6970 P239
 50
358.2861
  7
txt
 72
     4
 11
122700.299784
 21
97324.639638
 31
0.0
210
0.0
220
0.0
230
1.0
  0
TEXT
  8
13
  6
CONTINUOUS
 62
    14
  5
262
 10
122663.439
 20
97307.401
 30
0.0
 40
8.0
  1
V7016 P188
 50
0.5947
  7
txt
 72
     4
 11
122699.235552
 21
97311.772778
 31
0.0
210
0.0
220
0.0
230
1.0
  0
POLYLINE
  8
21
  6
DASHDOT
 62
     7
  5
263
 66
     1
 10
0.0
 20
0.0
 30
0.0
  0
VERTEX
  8
21
  6
DASHDOT
 62
     7
  5
264
 10
122629.867
 20
97289.275
 30
0.0
  0
VERTEX
  8
21
  6
DASHDOT
 62
     7
  5
265
 10
122555.496
 20
97364.344
 30
0.0
  0
VERTEX
  8
21
  6
DASHDOT
 62
     7
  5
266
 10
122555.497037
 20
97364.343282
 30
0.0
 42
0.001828
  0
VERTEX
  8
21
  6
DASHDOT
 62
     7
  5
267
 10
122526.642747
 20
97393.287284
 30
0.0
  0
VERTEX
  8
21
  6
DASHDOT
 62
     7
  5
268
 10
122526.643
 20
97393.288
 30
0.0
  0
VERTEX
  8
21
  6
DASHDOT
 62
     7
  5
269
 10
122590.255
 20
97391.414
 30
0.0
  0
VERTEX
  8
21
  6
DASHDOT
 62
     7
  5
26A
 10
122590.255091
 20
97391.413803
 30
0.0
 42
-0.034011
  0
VERTEX
  8
21
  6
DASHDOT
 62
     7
  5
26B
 10
122743.753074
 20
97376.407766
 30
0.0
  0
VERTEX
  8
21
  6
DASHDOT
 62
     7
  5
26C
 10
122743.754
 20
97376.408
 30
0.0
  0
VERTEX
  8
21
  6
DASHDOT
 62
     7
  5
26D
 10
122898.778
 20
97233.788
 30
0.0
  0
VERTEX
  8
21
  6
DASHDOT
 62
     7
  5
26E
 10
122898.779147
 20
97233.788226
 30
0.0
 42
0.066617
  0
VERTEX
  8
21
  6
DASHDOT
 62
     7
  5
26F
 10
122629.86727
 20
97289.274868
 30
0.0
  0
SEQEND
  8
21
  6
DASHDOT
 62
     7
  5
270
  0
ARC
  8
27
  6
CONTINUOUS
 62
    32
  5
271
 10
133255.963223
 20
107086.470523
 30
0.0
 40
14112.394873
 50
229.835825
 51
237.863939
210
0.0
220
0.0
230
1.0
  0
LINE
  8
27
  6
CONTINUOUS
 62
    32
  5
272
 10
121722.008
 20
98554.789
 30
0.0
 11
124154.336
 21
96301.244
 31
0.0
  0
POLYLINE
  8
6
  6
CONTINUOUS
 62
     7
  5
273
 66
     1
 10
0.0
 20
0.0
 30
0.0
  0
VERTEX
  8
6
  6
CONTINUOUS
 62
     7
  5
274
 10
121728.778
 20
99140.085
 30
0.0
  0
VERTEX
  8
6
  6
CONTINUOUS
 62
     7
  5
275
 10
121751.555364
 20
99125.673719
 30
0.0
  0
VERTEX
  8
6
  6
CONTINUOUS
 62
     7
  5
276
 10
121761.816785
 20
99120.859996
 30
0.0
  0
VERTEX
  8
6
  6
CONTINUOUS
 62
     7
  5
277
 10
121767.1385
 20
99119.217647
 30
0.0
  0
VERTEX
  8
6
  6
CONTINUOUS
 62
     7
  5
278
 10
121775.656833
 20
99118.411417
 30
0.0
  0
VERTEX
  8
6
  6
CONTINUOUS
 62
     7
  5
279
 10
121786.630775
 20
99120.458717
 30
0.0
  0
VERTEX
  8
6
  6
CONTINUOUS
 62
     7
  5
27A
 10
121791.553414
 20
99122.764818
 30
0.0
  0
VERTEX
  8
6
  6
CONTINUOUS
 62
     7
  5
27B
 10
121798.147667
 20
99127.935583
 30
0.0
  0
VERTEX
  8
6
  6
CONTINUOUS
 62
     7
  5
27C
 10
121803.018024
 20
99134.540734
 30
0.0
  0
VERTEX
  8
6
  6
CONTINUOUS
 62
     7
  5
27D
 10
121804.892371
 20
99138.873786
 30
0.0
  0
VERTEX
  8
6
  6
CONTINUOUS
 62
     7
  5
27E
 10
121806.717765
 20
99147.097503
 30
0.0
  0
VERTEX
  8
6
  6
CONTINUOUS
 62
     7
  5
27F
 10
121806.56
 20
99164.348
 30
0.0
  0
SEQEND
  8
6
  6
CONTINUOUS
 62
     7
  5
280
  0
POLYLINE
  8
6
  6
CONTINUOUS
 62
     7
  5
281
 66
     1
 10
0.0
 20
0.0
 30
0.0
  0
VERTEX
  8
6
  6
CONTINUOUS
 62
     7
  5
282
 10
121750.258
 20
97851.837
 30
0.0
  0
VERTEX
  8
6
  6
CONTINUOUS
 62
     7
  5
283
 10
121750.294654
 20
97871.080026
 30
0.0
  0
VERTEX
  8
6
  6
CONTINUOUS
 62
     7
  5
284
 10
121750.414305
 20
97882.012201
 30
0.0
  0
VERTEX
  8
6
  6
CONTINUOUS
 62
     7
  5
285
 10
121750.850315
 20
97899.864691
 30
0.0
  0
VERTEX
  8
6
  6
CONTINUOUS
 62
     7
  5
286
 10
121751.152537
 20
97907.0249
 30
0.0
  0
VERTEX
  8
6
  6
CONTINUOUS
 62
     7
  5
287
 10
121751.890075
 20
97918.412979
 30
0.0
  0
VERTEX
  8
6
  6
CONTINUOUS
 62
     7
  5
288
 10
121752.757946
 20
97926.690916
 30
0.0
  0
VERTEX
  8
6
  6
CONTINUOUS
 62
     7
  5
289
 10
121753.38101
 20
97930.955549
 30
0.0
  0
VERTEX
  8
6
  6
CONTINUOUS
 62
     7
  5
28A
 10
121754.6585
 20
97937.754667
 30
0.0
  0
VERTEX
  8
6
  6
CONTINUOUS
 62
     7
  5
28B
 10
121757.445866
 20
97951.039839
 30
0.0
  0
VERTEX
  8
6
  6
CONTINUOUS
 62
     7
  5
28C
 10
121758.928611
 20
97957.547012
 30
0.0
  0
VERTEX
  8
6
  6
CONTINUOUS
 62
     7
  5
28D
 10
121761.5135
 20
97967.864833
 30
0.0
  0
VERTEX
  8
6
  6
CONTINUOUS
 62
     7
  5
28E
 10
121762.744159
 20
97972.271292
 30
0.0
  0
VERTEX
  8
6
  6
CONTINUOUS
 62
     7
  5
28F
 10
121763.468941
 20
97974.540176
 30
0.0
  0
VERTEX
  8
6
  6
CONTINUOUS
 62
     7
  5
290
 10
121764.77004
 20
97978.004405
 30
0.0
  0
VERTEX
  8
6
  6
CONTINUOUS
 62
     7
  5
291
 10
121766.4101
 20
97981.519141
 30
0.0
  0
VERTEX
  8
6
  6
CONTINUOUS
 62
     7
  5
292
 10
121767.386156
 20
97983.287512
 30
0.0
  0
VERTEX
  8
6
  6
CONTINUOUS
 62
     7
  5
293
 10
121769.708153
 20
97986.830386
 30
0.0
  0
VERTEX
  8
6
  6
CONTINUOUS
 62
     7
  5
294
 10
121771.077227
 20
97988.598539
 30
0.0
  0
VERTEX
  8
6
  6
CONTINUOUS
 62
     7
  5
295
 10
121773.423463
 20
97991.237735
 30
0.0
  0
VERTEX
  8
6
  6
CONTINUOUS
 62
     7
  5
296
 10
121775.831715
 20
97993.562893
 30
0.0
  0
VERTEX
  8
6
  6
CONTINUOUS
 62
     7
  5
297
 10
121777.158734
 20
97994.715665
 30
0.0
  0
VERTEX
  8
6
  6
CONTINUOUS
 62
     7
  5
298
 10
121779.312519
 20
97996.429916
 30
0.0
  0
VERTEX
  8
6
  6
CONTINUOUS
 62
     7
  5
299
 10
121782.933412
 20
97998.961472
 30
0.0
  0
VERTEX
  8
6
  6
CONTINUOUS
 62
     7
  5
29A
 10
121787.057265
 20
98001.435717
 30
0.0
  0
VERTEX
  8
6
  6
CONTINUOUS
 62
     7
  5
29B
 10
121789.32
 20
98002.648
 30
0.0
  0
SEQEND
  8
6
  6
CONTINUOUS
 62
     7
  5
29C
  0
POLYLINE
  8
6
  6
CONTINUOUS
 62
     7
  5
29D
 66
     1
 10
0.0
 20
0.0
 30
0.0
  0
VERTEX
  8
6
  6
CONTINUOUS
 62
     7
  5
29E
 10
121789.32
 20
98002.648
 30
0.0
  0
VERTEX
  8
6
  6
CONTINUOUS
 62
     7
  5
29F
 10
121793.482576
 20
98004.811305
 30
0.0
  0
VERTEX
  8
6
  6
CONTINUOUS
 62
     7
  5
2A0
 10
121796.01032
 20
98006.057928
 30
0.0
  0
VERTEX
  8
6
  6
CONTINUOUS
 62
     7
  5
2A1
 10
121800.543546
 20
98008.136222
 30
0.0
  0
VERTEX
  8
6
  6
CONTINUOUS
 62
     7
  5
2A2
 10
121806.275307
 20
98010.397733
 30
0.0
  0
VERTEX
  8
6
  6
CONTINUOUS
 62
     7
  5
2A3
 10
121809.56921
 20
98011.475917
 30
0.0
  0
VERTEX
  8
6
  6
CONTINUOUS
 62
     7
  5
2A4
 10
121815.46175
 20
98013.037
 30
0.0
  0
VERTEX
  8
6
  6
CONTINUOUS
 62
     7
  5
2A5
 10
121821.29792
 20
98014.331262
 30
0.0
  0
VERTEX
  8
6
  6
CONTINUOUS
 62
     7
  5
2A6
 10
121824.550536
 20
98014.942857
 30
0.0
  0
VERTEX
  8
6
  6
CONTINUOUS
 62
     7
  5
2A7
 10
121830.258694
 20
98015.838519
 30
0.0
  0
VERTEX
  8
6
  6
CONTINUOUS
 62
     7
  5
2A8
 10
121841.663
 20
98017.187
 30
0.0
  0
SEQEND
  8
6
  6
CONTINUOUS
 62
     7
  5
2A9
  0
LINE
  8
6
  6
CONTINUOUS
 62
     7
  5
2AA
 10
121805.528
 20
100431.539
 30
0.0
 11
121845.481
 21
100469.17
 31
0.0
  0
TEXT
  8
22
  6
CONTINUOUS
 62
     3
  5
2AB
 10
122583.613
 20
97276.06
 30
0.0
 40
6.0
  1
20'
 50
88.298233
  7
ROMANS
 72
     1
 11
122583.820879
 21
97283.056913
 31
0.0
210
0.0
220
0.0
230
1.0
  0
ENDSEC
  0
EOF
