  0
SECTION
  2
HEADER
  9
$ACADVER
  1
AC1009
  9
$INSBASE
 10
0.0
 20
0.0
 30
0.0
  9
$EXTMIN
 10
116340.713
 20
95242.047
 30
0.0
  9
$EXTMAX
 10
121818.04
 20
100677.603
 30
0.0
  9
$LIMMIN
 10
0.0
 20
0.0
  9
$LIMMAX
 10
12.0
 20
9.0
  9
$ORTHOMODE
 70
     0
  9
$REGENMODE
 70
     1
  9
$FILLMODE
 70
     1
  9
$QTEXTMODE
 70
     0
  9
$MIRRTEXT
 70
     1
  9
$DRAGMODE
 70
     2
  9
$LTSCALE
 40
1.0
  9
$OSMODE
 70
     0
  9
$ATTMODE
 70
     1
  9
$TEXTSIZE
 40
0.2
  9
$TRACEWID
 40
0.05
  9
$TEXTSTYLE
  7
STANDARD
  9
$CLAYER
  8
0
  9
$CELTYPE
  6
CONTINUOUS
  9
$CECOLOR
 62
   256
  9
$DIMSCALE
 40
1.0
  9
$DIMASZ
 40
0.18
  9
$DIMEXO
 40
0.0625
  9
$DIMDLI
 40
0.38
  9
$DIMRND
 40
0.0
  9
$DIMDLE
 40
0.0
  9
$DIMEXE
 40
0.18
  9
$DIMTP
 40
0.0
  9
$DIMTM
 40
0.0
  9
$DIMTXT
 40
0.18
  9
$DIMCEN
 40
0.09
  9
$DIMTSZ
 40
0.0
  9
$DIMTOL
 70
     0
  9
$DIMLIM
 70
     0
  9
$DIMTIH
 70
     1
  9
$DIMTOH
 70
     1
  9
$DIMSE1
 70
     0
  9
$DIMSE2
 70
     0
  9
$DIMTAD
 70
     0
  9
$DIMZIN
 70
     0
  9
$DIMBLK
  1

  9
$DIMASO
 70
     1
  9
$DIMSHO
 70
     1
  9
$DIMPOST
  1

  9
$DIMAPOST
  1

  9
$DIMALT
 70
     0
  9
$DIMALTD
 70
     2
  9
$DIMALTF
 40
25.4
  9
$DIMLFAC
 40
1.0
  9
$DIMTOFL
 70
     0
  9
$DIMTVP
 40
0.0
  9
$DIMTIX
 70
     0
  9
$DIMSOXD
 70
     0
  9
$DIMSAH
 70
     0
  9
$DIMBLK1
  1

  9
$DIMBLK2
  1

  9
$DIMSTYLE
  2
STANDARD
  9
$DIMCLRD
 70
     0
  9
$DIMCLRE
 70
     0
  9
$DIMCLRT
 70
     0
  9
$DIMTFAC
 40
1.0
  9
$DIMGAP
 40
0.09
  9
$LUNITS
 70
     2
  9
$LUPREC
 70
     4
  9
$AXISMODE
 70
     0
  9
$AXISUNIT
 10
0.0
 20
0.0
  9
$SKETCHINC
 40
0.1
  9
$FILLETRAD
 40
0.0
  9
$AUNITS
 70
     0
  9
$AUPREC
 70
     0
  9
$MENU
  1
acad
  9
$ELEVATION
 40
0.0
  9
$PELEVATION
 40
0.0
  9
$THICKNESS
 40
0.0
  9
$LIMCHECK
 70
     0
  9
$BLIPMODE
 70
     1
  9
$CHAMFERA
 40
0.0
  9
$CHAMFERB
 40
0.0
  9
$SKPOLY
 70
     0
  9
$TDCREATE
 40
2453013.901724537
  9
$TDUPDATE
 40
2453013.901724537
  9
$TDINDWG
 40
0.0000000000
  9
$TDUSRTIMER
 40
0.0000000000
  9
$USRTIMER
 70
     1
  9
$ANGBASE
 50
0.0
  9
$ANGDIR
 70
     0
  9
$PDMODE
 70
     0
  9
$PDSIZE
 40
0.0
  9
$PLINEWID
 40
0.0
  9
$COORDS
 70
     0
  9
$SPLFRAME
 70
     0
  9
$SPLINETYPE
 70
     6
  9
$SPLINESEGS
 70
    10
  9
$ATTDIA
 70
     0
  9
$ATTREQ
 70
     1
  9
$HANDLING
 70
     1
  9
$HANDSEED
  5
179
  9
$SURFTAB1
 70
     6
  9
$SURFTAB2
 70
     6
  9
$SURFTYPE
 70
     6
  9
$SURFU
 70
     6
  9
$SURFV
 70
     6
  9
$UCSNAME
  2

  9
$UCSORG
 10
0.0
 20
0.0
 30
0.0
  9
$UCSXDIR
 10
1.0
 20
0.0
 30
0.0
  9
$UCSYDIR
 10
0.0
 20
1.0
 30
0.0
  9
$PUCSNAME
  2

  9
$PUCSORG
 10
0.0
 20
0.0
 30
0.0
  9
$PUCSXDIR
 10
1.0
 20
0.0
 30
0.0
  9
$PUCSYDIR
 10
0.0
 20
1.0
 30
0.0
  9
$USERI1
 70
     0
  9
$USERI2
 70
     0
  9
$USERI3
 70
     0
  9
$USERI4
 70
     0
  9
$USERI5
 70
     0
  9
$USERR1
 40
0.0
  9
$USERR2
 40
0.0
  9
$USERR3
 40
0.0
  9
$USERR4
 40
0.0
  9
$USERR5
 40
0.0
  9
$WORLDVIEW
 70
     1
  9
$SHADEDGE
 70
     3
  9
$SHADEDIF
 70
    70
  9
$TILEMODE
 70
     1
  9
$MAXACTVP
 70
    16
  9
$PINSBASE
 10
0.0
 20
0.0
 30
0.0
  9
$PLIMCHECK
 70
     0
  9
$PEXTMIN
 10
-1.000000E+20
 20
-1.000000E+20
 30
-1.000000E+20
  9
$PEXTMAX
 10
-1.000000E+20
 20
-1.000000E+20
 30
-1.000000E+20
  9
$PLIMMIN
 10
0.0
 20
0.0
  9
$PLIMMAX
 10
12.0
 20
9.0
  9
$UNITMODE
 70
     0
  9
$VISRETAIN
 70
     0
  9
$PLINEGEN
 70
     1
  9
$PSLTSCALE
 70
     0
  9
$TREEDEPTH
 70
  3020
  9
$DWGCODEPAGE
  3
ansi_1252
  0
ENDSEC
  0
SECTION
  2
TABLES
  0
TABLE
  2
VPORT
 70
     1
  0
VPORT
  2
*ACTIVE
 70
     0
 10
0.0
 20
0.0
 11
1.0
 21
1.0
 12
0.0
 22
0.0
 13
0.0
 23
0.0
 14
0.0
 24
0.0
 15
0.0
 25
0.0
 16
0.0
 26
0.0
 36
1.0
 17
118706.484527
 27
97767.731739
 37
0.0
 40
5328.018
 41
1.260745
 42
50.0
 43
0.004
 44
0.0
 50
1.713899
 51
0.0
 71
     0
 72
   100
 73
     1
 74
     0
 75
     0
 76
     0
 77
     0
 78
     0
  0
ENDTAB
  0
TABLE
  2
LTYPE
 70
     7
  0
LTYPE
  2
CONTINUOUS
 70
     0
  3
Solid line
 72
    65
 73
     0
 40
0.0
  0
LTYPE
  2
DOT
 70
    64
  3
. . . . . . . . . . . . . . . . . . . . . . . . . . . . . . . . .
 72
    65
 73
     2
 40
0.25
 49
0.0
 49
-0.25
  0
LTYPE
  2
HIDDEN
 70
    64
  3
__ __ __ __ __ __ __ __ __ __ __ __ __ __ __ __ __ __ __ __ __ 
 72
    65
 73
     2
 40
0.375
 49
0.25
 49
-0.125
  0
LTYPE
  2
DASHED
 70
    64
  3
__ __ __ __ __ __ __ __ __ __ __ __ __ __ __ __ __ __ __ __ __
 72
    65
 73
     2
 40
0.75
 49
0.5
 49
-0.25
  0
LTYPE
  2
DASHDOT
 70
    64
  3
__ . __ . __ . __ . __ . __ . __ . __ . __ . __ . __ . __ . _
 72
    65
 73
     4
 40
1.0
 49
0.5
 49
-0.25
 49
0.0
 49
-0.25
  0
LTYPE
  2
DIVIDE
 70
    64
  3
____ . . ____ . . ____ . . ____ . . ____ . . ____ . . ____ . .
 72
    65
 73
     6
 40
1.25
 49
0.5
 49
-0.25
 49
0.0
 49
-0.25
 49
0.0
 49
-0.25
  0
LTYPE
  2
CENTER
 70
    64
  3
____ _ ____ _ ____ _ ____ _ ____ _ ____ _ ____ _ ____ _ ____ _
 72
    65
 73
     4
 40
2.0
 49
1.25
 49
-0.25
 49
0.25
 49
-0.25
  0
ENDTAB
  0
TABLE
  2
LAYER
 70
    15
  0
LAYER
  2
0
 70
     0
 62
     7
  6
CONTINUOUS
  0
LAYER
  2
CONSTRUCTION_CLASS
 70
     0
 62
     7
  6
CONTINUOUS
  0
LAYER
  2
PATTERN_CLASS
 70
     0
 62
     7
  6
CONTINUOUS
  0
LAYER
  2
6
 70
    64
 62
     7
  6
CONTINUOUS
  0
LAYER
  2
7
 70
    64
 62
     7
  6
CONTINUOUS
  0
LAYER
  2
27
 70
    64
 62
     7
  6
CONTINUOUS
  0
LAYER
  2
1
 70
    64
 62
     7
  6
CONTINUOUS
  0
LAYER
  2
11
 70
    64
 62
     7
  6
CONTINUOUS
  0
LAYER
  2
10
 70
    64
 62
     7
  6
CONTINUOUS
  0
LAYER
  2
22
 70
    64
 62
     7
  6
CONTINUOUS
  0
LAYER
  2
21
 70
    64
 62
     7
  6
CONTINUOUS
  0
LAYER
  2
28
 70
    64
 62
     7
  6
CONTINUOUS
  0
LAYER
  2
13
 70
    64
 62
     7
  6
CONTINUOUS
  0
LAYER
  2
19
 70
    64
 62
     7
  6
CONTINUOUS
  0
LAYER
  2
15
 70
    64
 62
     7
  6
CONTINUOUS
  0
ENDTAB
  0
TABLE
  2
STYLE
 70
     4
  0
STYLE
  2
STANDARD
 70
     0
 40
0.0
 41
1.0
 50
0.0
 71
     0
 42
0.0
  3
txt
  4

  0
STYLE
  2
ROMANS
 70
     0
 40
0.2
 41
1.0
 50
0.0
 71
     0
 42
0.2
  3
ROMANS
  4

  0
STYLE
  2
txt
 70
     0
 40
0.2
 41
1.0
 50
0.0
 71
     0
 42
0.2
  3
TXT
  4

  0
STYLE
  2
ROMANC
 70
     0
 40
0.2
 41
1.0
 50
0.0
 71
     0
 42
0.2
  3
ROMANC
  4

  0
ENDTAB
  0
TABLE
  2
VIEW
 70
     0
  0
ENDTAB
  0
TABLE
  2
UCS
 70
     1
  0
UCS
  2
RO
 70
     0
 10
116461.89199999976
 20
98053.776999999769
 30
0.0
 11
0.9995526344169444
 21
-0.0299087116095979
 31
0.0
 12
0.0299087116095979
 22
0.9995526344169444
 32
0.0
  0
ENDTAB
  0
TABLE
  2
APPID
 70
     1
  0
APPID
  2
ACAD
 70
     0
  0
ENDTAB
  0
TABLE
  2
DIMSTYLE
 70
     1
  0
DIMSTYLE
  2
STANDARD
 70
     0
  3

  4

  5

  6

  7

 40
1.0
 41
0.18
 42
0.0625
 43
0.38
 44
0.18
 45
0.0
 46
0.0
 47
0.0
 48
0.0
140
0.18
141
0.09
142
0.0
143
25.4
144
1.0
145
0.0
146
1.0
147
0.09
 71
     0
 72
     0
 73
     1
 74
     1
 75
     0
 76
     0
 77
     0
 78
     0
170
     0
171
     2
172
     0
173
     0
174
     0
175
     0
176
     0
177
     0
178
     0
  0
ENDTAB
  0
ENDSEC
  0
SECTION
  2
BLOCKS
  0
ENDSEC
  0
SECTION
  2
ENTITIES
  0
LINE
  8
6
  6
CONTINUOUS
 62
     7
  5
29
 10
116538.907
 20
100627.625
 30
0.0
 11
118827.882
 21
100559.134
 31
0.0
  0
LINE
  8
6
  6
CONTINUOUS
 62
     7
  5
2A
 10
118827.882
 20
100559.134
 30
0.0
 11
119175.483
 21
100473.7
 31
0.0
  0
LINE
  8
6
  6
CONTINUOUS
 62
     7
  5
2B
 10
119074.268
 20
100601.784
 30
0.0
 11
121746.857
 21
98140.75
 31
0.0
  0
LINE
  8
6
  6
CONTINUOUS
 62
     7
  5
2C
 10
119175.483
 20
100473.7
 30
0.0
 11
119214.635
 21
100472.528
 31
0.0
  0
LINE
  8
6
  6
CONTINUOUS
 62
     7
  5
2D
 10
120340.713
 20
95281.527
 30
0.0
 11
120461.678
 21
99324.198
 31
0.0
  0
LINE
  8
6
  6
CONTINUOUS
 62
     7
  5
2E
 10
120340.713
 20
95281.527
 30
0.0
 11
119021.303
 21
95321.006
 31
0.0
  0
LINE
  8
6
  6
CONTINUOUS
 62
     7
  5
2F
 10
121506.905
 20
97887.813
 30
0.0
 11
120419.672
 21
97920.345
 31
0.0
  0
LINE
  8
6
  6
CONTINUOUS
 62
     7
  5
30
 10
121019.403
 20
97902.4
 30
0.0
 11
121045.85
 21
98786.267
 31
0.0
  0
LINE
  8
6
  6
CONTINUOUS
 62
     7
  5
31
 10
121094.133
 20
97725.086
 30
0.0
 11
121104.601
 21
98074.929
 31
0.0
  0
LINE
  8
6
  6
CONTINUOUS
 62
     7
  5
32
 10
121461.782
 20
98064.242
 30
0.0
 11
121024.637
 21
98077.322
 31
0.0
  0
LINE
  8
6
  6
CONTINUOUS
 62
     7
  5
33
 10
121552.028
 20
97711.385
 30
0.0
 11
121094.133
 21
97725.086
 31
0.0
  0
LINE
  8
6
  6
CONTINUOUS
 62
     7
  5
34
 10
121552.028
 20
97711.385
 30
0.0
 11
121461.782
 21
98064.242
 31
0.0
  0
LINE
  8
6
  6
CONTINUOUS
 62
     7
  5
35
 10
121610.144
 20
95243.542
 30
0.0
 11
121698.176
 21
98185.578
 31
0.0
  0
LINE
  8
6
  6
CONTINUOUS
 62
     7
  5
36
 10
120822.105
 20
100499.463
 30
0.0
 11
120814.628
 21
100249.575
 31
0.0
  0
LINE
  8
6
  6
CONTINUOUS
 62
     7
  5
37
 10
119998.762
 20
100273.987
 30
0.0
 11
120814.628
 21
100249.575
 31
0.0
  0
LINE
  8
6
  6
CONTINUOUS
 62
     7
  5
38
 10
120054.555
 20
100222.295
 30
0.0
 11
121132.989
 21
100190.026
 31
0.0
  0
LINE
  8
6
  6
CONTINUOUS
 62
     7
  5
39
 10
121141.962
 20
100489.892
 30
0.0
 11
121136.428
 21
100304.975
 31
0.0
  0
LINE
  8
7
  6
CONTINUOUS
 62
     7
  5
3B
 10
121216.928
 20
100487.649
 30
0.0
 11
121211.395
 21
100302.732
 31
0.0
  0
LINE
  8
7
  6
CONTINUOUS
 62
     7
  5
3C
 10
121286.897
 20
100485.555
 30
0.0
 11
121281.364
 21
100300.638
 31
0.0
  0
LINE
  8
7
  6
CONTINUOUS
 62
     7
  5
3D
 10
121326.879
 20
100484.359
 30
0.0
 11
121321.346
 21
100299.442
 31
0.0
  0
LINE
  8
7
  6
CONTINUOUS
 62
     7
  5
3E
 10
121426.834
 20
100481.368
 30
0.0
 11
121421.301
 21
100296.451
 31
0.0
  0
LINE
  8
7
  6
CONTINUOUS
 62
     7
  5
3F
 10
121526.789
 20
100478.377
 30
0.0
 11
121521.256
 21
100293.46
 31
0.0
  0
LINE
  8
7
  6
CONTINUOUS
 62
     7
  5
40
 10
121626.745
 20
100475.386
 30
0.0
 11
121625.548
 21
100435.404
 31
0.0
  0
LINE
  8
7
  6
CONTINUOUS
 62
     7
  5
41
 10
121595.562
 20
100436.302
 30
0.0
 11
121625.548
 21
100435.404
 31
0.0
  0
LINE
  8
7
  6
CONTINUOUS
 62
     7
  5
42
 10
121591.973
 20
100316.355
 30
0.0
 11
121763.896
 21
100311.211
 31
0.0
  0
LINE
  8
6
  6
CONTINUOUS
 62
     7
  5
43
 10
121716.704
 20
100472.695
 30
0.0
 11
121766.887
 21
100411.166
 31
0.0
  0
LINE
  8
7
  6
CONTINUOUS
 62
     7
  5
44
 10
121589.879
 20
100246.387
 30
0.0
 11
121761.802
 21
100241.242
 31
0.0
  0
LINE
  8
7
  6
CONTINUOUS
 62
     7
  5
45
 10
121586.888
 20
100146.431
 30
0.0
 11
121758.811
 21
100141.287
 31
0.0
  0
LINE
  8
7
  6
CONTINUOUS
 62
     7
  5
46
 10
121584.645
 20
100071.465
 30
0.0
 11
121756.568
 21
100066.321
 31
0.0
  0
LINE
  8
7
  6
CONTINUOUS
 62
     7
  5
47
 10
121583.15
 20
100021.487
 30
0.0
 11
121755.073
 21
100016.343
 31
0.0
  0
LINE
  8
7
  6
CONTINUOUS
 62
     7
  5
48
 10
121581.654
 20
99971.51
 30
0.0
 11
121753.577
 21
99966.365
 31
0.0
  0
LINE
  8
7
  6
CONTINUOUS
 62
     7
  5
49
 10
121580.159
 20
99921.532
 30
0.0
 11
121752.082
 21
99916.388
 31
0.0
  0
LINE
  8
7
  6
CONTINUOUS
 62
     7
  5
4A
 10
121578.364
 20
99861.559
 30
0.0
 11
121750.287
 21
99856.415
 31
0.0
  0
LINE
  8
7
  6
CONTINUOUS
 62
     7
  5
4B
 10
121576.271
 20
99791.59
 30
0.0
 11
121748.194
 21
99786.446
 31
0.0
  0
LINE
  8
6
  6
CONTINUOUS
 62
     7
  5
4C
 10
121117.861
 20
99684.453
 30
0.0
 11
121104.838
 21
99249.212
 31
0.0
  0
LINE
  8
6
  6
CONTINUOUS
 62
     7
  5
4D
 10
121136.428
 20
100304.975
 30
0.0
 11
121132.989
 21
100190.026
 31
0.0
  0
LINE
  8
6
  6
CONTINUOUS
 62
     7
  5
4E
 10
121132.989
 20
100190.026
 30
0.0
 11
121117.861
 21
99684.453
 31
0.0
  0
LINE
  8
7
  6
CONTINUOUS
 62
     7
  5
4F
 10
121136.428
 20
100304.975
 30
0.0
 11
121211.395
 21
100302.732
 31
0.0
  0
LINE
  8
7
  6
CONTINUOUS
 62
     7
  5
50
 10
121211.395
 20
100302.732
 30
0.0
 11
121281.364
 21
100300.638
 31
0.0
  0
LINE
  8
7
  6
CONTINUOUS
 62
     7
  5
51
 10
121281.364
 20
100300.638
 30
0.0
 11
121321.346
 21
100299.442
 31
0.0
  0
LINE
  8
7
  6
CONTINUOUS
 62
     7
  5
52
 10
121321.346
 20
100299.442
 30
0.0
 11
121421.301
 21
100296.451
 31
0.0
  0
LINE
  8
7
  6
CONTINUOUS
 62
     7
  5
53
 10
121421.301
 20
100296.451
 30
0.0
 11
121471.279
 21
100294.956
 31
0.0
  0
LINE
  8
7
  6
CONTINUOUS
 62
     7
  5
54
 10
121471.279
 20
100294.956
 30
0.0
 11
121521.256
 21
100293.46
 31
0.0
  0
LINE
  8
7
  6
CONTINUOUS
 62
     7
  5
55
 10
121521.256
 20
100293.46
 30
0.0
 11
121591.225
 21
100291.367
 31
0.0
  0
LINE
  8
6
  6
CONTINUOUS
 62
     7
  5
56
 10
119719.798
 20
100532.446
 30
0.0
 11
121141.962
 21
100489.892
 31
0.0
  0
LINE
  8
6
  6
CONTINUOUS
 62
     7
  5
57
 10
121141.962
 20
100489.892
 30
0.0
 11
121216.928
 21
100487.649
 31
0.0
  0
LINE
  8
6
  6
CONTINUOUS
 62
     7
  5
58
 10
121216.928
 20
100487.649
 30
0.0
 11
121286.897
 21
100485.555
 31
0.0
  0
LINE
  8
6
  6
CONTINUOUS
 62
     7
  5
59
 10
121286.897
 20
100485.555
 30
0.0
 11
121326.879
 21
100484.359
 31
0.0
  0
LINE
  8
6
  6
CONTINUOUS
 62
     7
  5
5A
 10
121326.879
 20
100484.359
 30
0.0
 11
121426.834
 21
100481.368
 31
0.0
  0
LINE
  8
6
  6
CONTINUOUS
 62
     7
  5
5B
 10
121426.834
 20
100481.368
 30
0.0
 11
121476.812
 21
100479.873
 31
0.0
  0
LINE
  8
6
  6
CONTINUOUS
 62
     7
  5
5C
 10
121476.812
 20
100479.873
 30
0.0
 11
121526.789
 21
100478.377
 31
0.0
  0
LINE
  8
6
  6
CONTINUOUS
 62
     7
  5
5D
 10
121526.789
 20
100478.377
 30
0.0
 11
121596.758
 21
100476.284
 31
0.0
  0
LINE
  8
6
  6
CONTINUOUS
 62
     7
  5
5E
 10
121596.758
 20
100476.284
 30
0.0
 11
121626.745
 21
100475.386
 31
0.0
  0
LINE
  8
6
  6
CONTINUOUS
 62
     7
  5
5F
 10
121626.745
 20
100475.386
 30
0.0
 11
121716.704
 21
100472.695
 31
0.0
  0
LINE
  8
7
  6
CONTINUOUS
 62
     7
  5
60
 10
121596.758
 20
100476.284
 30
0.0
 11
121591.973
 21
100316.355
 31
0.0
  0
LINE
  8
7
  6
CONTINUOUS
 62
     7
  5
61
 10
121562.329
 20
99325.649
 30
0.0
 11
121563.41
 21
99361.783
 31
0.0
  0
LINE
  8
7
  6
CONTINUOUS
 62
     7
  5
62
 10
121563.41
 20
99361.783
 30
0.0
 11
121566.102
 21
99451.742
 31
0.0
  0
LINE
  8
7
  6
CONTINUOUS
 62
     7
  5
63
 10
121566.102
 20
99451.742
 30
0.0
 11
121568.195
 21
99521.711
 31
0.0
  0
LINE
  8
7
  6
CONTINUOUS
 62
     7
  5
64
 10
121568.195
 20
99521.711
 30
0.0
 11
121570.289
 21
99591.68
 31
0.0
  0
LINE
  8
7
  6
CONTINUOUS
 62
     7
  5
65
 10
121570.289
 20
99591.68
 30
0.0
 11
121571.485
 21
99631.662
 31
0.0
  0
LINE
  8
7
  6
CONTINUOUS
 62
     7
  5
66
 10
121572.682
 20
99671.644
 30
0.0
 11
121573.878
 21
99711.626
 31
0.0
  0
LINE
  8
7
  6
CONTINUOUS
 62
     7
  5
67
 10
121573.878
 20
99711.626
 30
0.0
 11
121575.074
 21
99751.608
 31
0.0
  0
LINE
  8
7
  6
CONTINUOUS
 62
     7
  5
68
 10
121575.074
 20
99751.608
 30
0.0
 11
121576.271
 21
99791.59
 31
0.0
  0
LINE
  8
7
  6
CONTINUOUS
 62
     7
  5
69
 10
121576.271
 20
99791.59
 30
0.0
 11
121578.364
 21
99861.559
 31
0.0
  0
LINE
  8
7
  6
CONTINUOUS
 62
     7
  5
6A
 10
121578.364
 20
99861.559
 30
0.0
 11
121580.159
 21
99921.532
 31
0.0
  0
LINE
  8
7
  6
CONTINUOUS
 62
     7
  5
6B
 10
121580.159
 20
99921.532
 30
0.0
 11
121581.654
 21
99971.51
 31
0.0
  0
LINE
  8
7
  6
CONTINUOUS
 62
     7
  5
6C
 10
121581.654
 20
99971.51
 30
0.0
 11
121583.15
 21
100021.487
 31
0.0
  0
LINE
  8
7
  6
CONTINUOUS
 62
     7
  5
6D
 10
121583.15
 20
100021.487
 30
0.0
 11
121584.645
 21
100071.465
 31
0.0
  0
LINE
  8
7
  6
CONTINUOUS
 62
     7
  5
6E
 10
121584.645
 20
100071.465
 30
0.0
 11
121586.888
 21
100146.431
 31
0.0
  0
LINE
  8
7
  6
CONTINUOUS
 62
     7
  5
6F
 10
121586.888
 20
100146.431
 30
0.0
 11
121589.879
 21
100246.387
 31
0.0
  0
LINE
  8
7
  6
CONTINUOUS
 62
     7
  5
70
 10
121589.879
 20
100246.387
 30
0.0
 11
121591.973
 21
100316.355
 31
0.0
  0
LINE
  8
6
  6
CONTINUOUS
 62
     7
  5
71
 10
121329.46
 20
100069.096
 30
0.0
 11
121311.68
 21
99474.885
 31
0.0
  0
LINE
  8
7
  6
CONTINUOUS
 62
     7
  5
72
 10
121591.225
 20
100291.367
 30
0.0
 11
121576.097
 21
99785.793
 31
0.0
  0
LINE
  8
6
  6
CONTINUOUS
 62
     7
  5
73
 10
121384.435
 20
100067.451
 30
0.0
 11
121367.337
 21
99496.035
 31
0.0
  0
LINE
  8
6
  6
CONTINUOUS
 62
     7
  5
74
 10
121336.339
 20
100298.993
 30
0.0
 11
121391.314
 21
100297.348
 31
0.0
  0
LINE
  8
7
  6
CONTINUOUS
 62
     7
  5
75
 10
121363.827
 20
100298.171
 30
0.0
 11
121359.871
 21
100165.968
 31
0.0
  0
ARC
  8
6
  6
CONTINUOUS
 62
     7
  5
76
 10
121358.293608
 20
100113.25352
 30
0.0
 40
52.737558
 50
299.715667
 51
236.856533
210
0.0
220
0.0
230
1.0
  0
LINE
  8
7
  6
CONTINUOUS
 62
     7
  5
77
 10
121127.755
 20
100015.105
 30
0.0
 11
121327.665
 21
100009.123
 31
0.0
  0
LINE
  8
7
  6
CONTINUOUS
 62
     7
  5
78
 10
121125.96
 20
99955.132
 30
0.0
 11
121325.871
 21
99949.15
 31
0.0
  0
LINE
  8
7
  6
CONTINUOUS
 62
     7
  5
79
 10
121124.166
 20
99895.158
 30
0.0
 11
121324.076
 21
99889.177
 31
0.0
  0
LINE
  8
7
  6
CONTINUOUS
 62
     7
  5
7A
 10
121122.371
 20
99835.185
 30
0.0
 11
121322.282
 21
99829.204
 31
0.0
  0
LINE
  8
7
  6
CONTINUOUS
 62
     7
  5
7B
 10
121120.577
 20
99775.212
 30
0.0
 11
121320.487
 21
99769.23
 31
0.0
  0
LINE
  8
7
  6
CONTINUOUS
 62
     7
  5
7C
 10
121118.782
 20
99715.239
 30
0.0
 11
121318.693
 21
99709.257
 31
0.0
  0
LINE
  8
7
  6
CONTINUOUS
 62
     7
  5
7D
 10
121116.988
 20
99655.266
 30
0.0
 11
121316.898
 21
99649.284
 31
0.0
  0
LINE
  8
7
  6
CONTINUOUS
 62
     7
  5
7E
 10
121129.549
 20
100075.078
 30
0.0
 11
121329.46
 21
100069.096
 31
0.0
  0
LINE
  8
7
  6
CONTINUOUS
 62
     7
  5
7F
 10
121384.435
 20
100067.451
 30
0.0
 11
121584.346
 21
100061.469
 31
0.0
  0
LINE
  8
7
  6
CONTINUOUS
 62
     7
  5
80
 10
121382.641
 20
100007.478
 30
0.0
 11
121582.551
 21
100001.496
 31
0.0
  0
LINE
  8
7
  6
CONTINUOUS
 62
     7
  5
81
 10
121380.846
 20
99947.505
 30
0.0
 11
121580.757
 21
99941.523
 31
0.0
  0
LINE
  8
7
  6
CONTINUOUS
 62
     7
  5
82
 10
121379.052
 20
99887.532
 30
0.0
 11
121578.962
 21
99881.55
 31
0.0
  0
LINE
  8
7
  6
CONTINUOUS
 62
     7
  5
83
 10
121377.257
 20
99827.559
 30
0.0
 11
121577.168
 21
99821.577
 31
0.0
  0
LINE
  8
7
  6
CONTINUOUS
 62
     7
  5
84
 10
121375.463
 20
99767.585
 30
0.0
 11
121575.373
 21
99761.604
 31
0.0
  0
LINE
  8
7
  6
CONTINUOUS
 62
     7
  5
85
 10
121373.668
 20
99707.612
 30
0.0
 11
121573.579
 21
99701.63
 31
0.0
  0
LINE
  8
7
  6
CONTINUOUS
 62
     7
  5
86
 10
121371.874
 20
99647.639
 30
0.0
 11
121571.784
 21
99641.657
 31
0.0
  0
LINE
  8
7
  6
CONTINUOUS
 62
     7
  5
87
 10
121370.079
 20
99587.666
 30
0.0
 11
121569.99
 21
99581.684
 31
0.0
  0
LINE
  8
7
  6
CONTINUOUS
 62
     7
  5
88
 10
121368.584
 20
99537.688
 30
0.0
 11
121568.494
 21
99531.707
 31
0.0
  0
LINE
  8
6
  6
CONTINUOUS
 62
     7
  5
89
 10
121367.337
 20
99496.035
 30
0.0
 11
121776.707
 21
99138.322
 31
0.0
  0
LINE
  8
6
  6
CONTINUOUS
 62
     7
  5
8A
 10
121133.737
 20
100215.015
 30
0.0
 11
121131.045
 21
100125.056
 31
0.0
  0
LINE
  8
7
  6
CONTINUOUS
 62
     7
  5
8B
 10
121225.888
 20
100302.298
 30
0.0
 11
121323.23
 21
100152.647
 31
0.0
  0
LINE
  8
7
  6
CONTINUOUS
 62
     7
  5
8C
 10
121495.768
 20
100294.223
 30
0.0
 11
121391.99
 21
100153.822
 31
0.0
  0
LINE
  8
7
  6
CONTINUOUS
 62
     7
  5
8D
 10
121305.564
 20
100112.323
 30
0.0
 11
121133.737
 21
100215.015
 31
0.0
  0
LINE
  8
7
  6
CONTINUOUS
 62
     7
  5
8E
 10
121410.872
 20
100109.154
 30
0.0
 11
121588.527
 21
100201.407
 31
0.0
  0
LINE
  8
6
  6
CONTINUOUS
 62
     7
  5
8F
 10
119664.004
 20
100584.139
 30
0.0
 11
121761.812
 21
98640.526
 31
0.0
  0
LINE
  8
27
  6
CONTINUOUS
 62
    32
  5
91
 10
119549.968
 20
100587.55
 30
0.0
 11
121758.835
 21
98541.042
 31
0.0
  0
LINE
  8
6
  6
CONTINUOUS
 62
     7
  5
92
 10
121766.887
 20
100411.166
 30
0.0
 11
121748.194
 21
99786.446
 31
0.0
  0
LINE
  8
7
  6
CONTINUOUS
 62
     7
  5
93
 10
121571.485
 20
99631.662
 30
0.0
 11
121572.682
 21
99671.644
 31
0.0
  0
LINE
  8
7
  6
CONTINUOUS
 62
     7
  5
94
 10
121574.184
 20
99315.29
 30
0.0
 11
121783.622
 21
99369.419
 31
0.0
  0
LINE
  8
7
  6
CONTINUOUS
 62
     7
  5
95
 10
121563.41
 20
99361.783
 30
0.0
 11
121777.17
 21
99407.52
 31
0.0
  0
LINE
  8
7
  6
CONTINUOUS
 62
     7
  5
96
 10
121566.102
 20
99451.742
 30
0.0
 11
121763.129
 21
99477.959
 31
0.0
  0
LINE
  8
7
  6
CONTINUOUS
 62
     7
  5
97
 10
121568.195
 20
99521.711
 30
0.0
 11
121756.133
 21
99534.842
 31
0.0
  0
LINE
  8
7
  6
CONTINUOUS
 62
     7
  5
98
 10
121570.289
 20
99591.68
 30
0.0
 11
121752.908
 21
99592.854
 31
0.0
  0
LINE
  8
6
  6
CONTINUOUS
 62
     7
  5
99
 10
119100.711
 20
97974.818
 30
0.0
 11
116461.892
 21
98053.777
 31
0.0
  0
LINE
  8
6
  6
CONTINUOUS
 62
     7
  5
9A
 10
117443.009
 20
95368.232
 30
0.0
 11
117599.432
 21
100595.892
 31
0.0
  0
LINE
  8
7
  6
CONTINUOUS
 62
     7
  5
9B
 10
121575.074
 20
99751.608
 30
0.0
 11
121746.761
 21
99746.471
 31
0.0
  0
LINE
  8
7
  6
CONTINUOUS
 62
     7
  5
9C
 10
121573.878
 20
99711.626
 30
0.0
 11
121746.981
 21
99706.446
 31
0.0
  0
LINE
  8
7
  6
CONTINUOUS
 62
     7
  5
9D
 10
121572.682
 20
99671.644
 30
0.0
 11
121748.617
 21
99666.38
 31
0.0
  0
LINE
  8
7
  6
CONTINUOUS
 62
     7
  5
9E
 10
121571.485
 20
99631.662
 30
0.0
 11
121750.253
 21
99626.313
 31
0.0
  0
LINE
  8
6
  6
CONTINUOUS
 62
     7
  5
9F
 10
121433.608
 20
98948.395
 30
0.0
 11
121500.122
 21
99019.303
 31
0.0
  0
LINE
  8
6
  6
CONTINUOUS
 62
     7
  5
A0
 10
121116.689
 20
99645.272
 30
0.0
 11
121774.672
 21
99070.317
 31
0.0
  0
LINE
  8
6
  6
CONTINUOUS
 62
     7
  5
A1
 10
121500.122
 20
99019.303
 30
0.0
 11
121765.781
 21
98773.171
 31
0.0
  0
POLYLINE
  8
1
  6
HIDDEN
 62
   253
  5
A3
 66
     1
 10
0.0
 20
0.0
 30
0.0
 70
     1
  0
VERTEX
  8
1
  6
HIDDEN
 62
   253
  5
A4
 10
121818.04
 20
100519.685
 30
0.0
  0
VERTEX
  8
1
  6
HIDDEN
 62
   253
  5
A5
 10
116540.402
 20
100677.603
 30
0.0
  0
VERTEX
  8
1
  6
HIDDEN
 62
   253
  5
A6
 10
116382.484
 20
95399.965
 30
0.0
  0
VERTEX
  8
1
  6
HIDDEN
 62
   253
  5
A7
 10
121660.122
 20
95242.047
 30
0.0
  0
SEQEND
  8
1
  6
HIDDEN
 62
   253
  5
A8
  0
TEXT
  8
11
  6
CONTINUOUS
 62
     7
  5
AB
 10
121169.348
 20
100468.873
 30
0.0
 40
8.0
  1
75'
 50
358.2861
  7
ROMANS
 72
     4
 11
121178.79646
 21
100472.592072
 31
0.0
210
0.0
220
0.0
230
1.0
  0
TEXT
  8
11
  6
CONTINUOUS
 62
     7
  5
AC
 10
121238.466
 20
100466.805
 30
0.0
 40
8.0
  1
70'
 50
358.2861
  7
ROMANS
 72
     4
 11
121247.91446
 21
100470.524072
 31
0.0
210
0.0
220
0.0
230
1.0
  0
TEXT
  8
11
  6
CONTINUOUS
 62
     7
  5
AD
 10
121296.332
 20
100465.073
 30
0.0
 40
8.0
  1
40'
 50
358.2861
  7
ROMANS
 72
     4
 11
121305.78046
 21
100468.792072
 31
0.0
210
0.0
220
0.0
230
1.0
  0
TEXT
  8
11
  6
CONTINUOUS
 62
     7
  5
AE
 10
121361.484
 20
100463.124
 30
0.0
 40
8.0
  1
100'
 50
358.2861
  7
ROMANS
 72
     4
 11
121374.93067
 21
100466.723437
 31
0.0
210
0.0
220
0.0
230
1.0
  0
TEXT
  8
11
  6
CONTINUOUS
 62
     7
  5
AF
 10
121442.605
 20
100460.696
 30
0.0
 40
8.0
  1
50'
 50
358.2861
  7
ROMANS
 72
     4
 11
121452.05346
 21
100464.415072
 31
0.0
210
0.0
220
0.0
230
1.0
  0
TEXT
  8
11
  6
CONTINUOUS
 62
     7
  5
B0
 10
121495.648
 20
100459.109
 30
0.0
 40
8.0
  1
50'
 50
358.2861
  7
ROMANS
 72
     4
 11
121505.09646
 21
100462.828072
 31
0.0
210
0.0
220
0.0
230
1.0
  0
TEXT
  8
11
  6
CONTINUOUS
 62
     7
  5
B1
 10
121550.3
 20
100457.474
 30
0.0
 40
8.0
  1
70'
 50
358.2861
  7
ROMANS
 72
     4
 11
121559.74846
 21
100461.193072
 31
0.0
210
0.0
220
0.0
230
1.0
  0
TEXT
  8
11
  6
CONTINUOUS
 62
     7
  5
B2
 10
120969.281
 20
100474.859
 30
0.0
 40
8.0
  1
320'
 50
358.2861
  7
ROMANS
 72
     4
 11
120982.72767
 21
100478.458437
 31
0.0
210
0.0
220
0.0
230
1.0
  0
TEXT
  8
10
  6
CONTINUOUS
 62
   134
  5
B4
 10
116925.777
 20
99364.282
 30
0.0
 40
27.998
  1
TRK
 50
358.2861
  7
ROMANS
 11
116926.614385
 21
99392.267475
 31
0.0
210
0.0
220
0.0
230
1.0
 73
     3
  0
TEXT
  8
10
  6
CONTINUOUS
 62
   134
  5
B5
 10
118377.11
 20
99361.568
 30
0.0
 40
27.998
  1
TRK-1
 50
358.2861
  7
ROMANS
 11
118377.947385
 21
99389.553475
 31
0.0
210
0.0
220
0.0
230
1.0
 73
     3
  0
TEXT
  8
10
  6
CONTINUOUS
 62
   134
  5
B6
 10
118195.48
 20
96658.064
 30
0.0
 40
27.998
  1
TR
 50
358.2861
  7
ROMANS
 11
118196.317385
 21
96686.049475
 31
0.0
210
0.0
220
0.0
230
1.0
 73
     3
  0
TEXT
  8
10
  6
CONTINUOUS
 62
   134
  5
B7
 10
118194.344
 20
96620.083
 30
0.0
 40
27.998
  1
5
 50
358.2861
  7
ROMANS
 11
118195.181385
 21
96648.068475
 31
0.0
210
0.0
220
0.0
230
1.0
 73
     3
  0
TEXT
  8
10
  6
CONTINUOUS
 62
   134
  5
B8
 10
116902.714
 20
96723.887
 30
0.0
 40
27.998
  1
TR
 50
358.2861
  7
ROMANS
 11
116903.551385
 21
96751.872475
 31
0.0
210
0.0
220
0.0
230
1.0
 73
     3
  0
TEXT
  8
10
  6
CONTINUOUS
 62
   134
  5
B9
 10
116901.577
 20
96685.906
 30
0.0
 40
27.998
  1
3-1
 50
358.2861
  7
ROMANS
 11
116902.414385
 21
96713.891475
 31
0.0
210
0.0
220
0.0
230
1.0
 73
     3
  0
TEXT
  8
10
  6
CONTINUOUS
 62
   134
  5
BA
 10
119658.087
 20
97872.14
 30
0.0
 40
27.998
  1
TR F
 50
358.2861
  7
ROMANS
 11
119658.924385
 21
97900.125475
 31
0.0
210
0.0
220
0.0
230
1.0
 73
     3
  0
TEXT
  8
10
  6
CONTINUOUS
 62
   134
  5
BB
 10
120984.334
 20
96588.186
 30
0.0
 40
27.998
  1
TR G
 50
358.2861
  7
ROMANS
 11
120985.171385
 21
96616.171475
 31
0.0
210
0.0
220
0.0
230
1.0
 73
     3
  0
TEXT
  8
10
  6
CONTINUOUS
 62
   134
  5
BC
 10
120612.512
 20
99928.313
 30
0.0
 40
27.998
  1
TR C
 50
358.2861
  7
ROMANS
 11
120613.349385
 21
99956.298475
 31
0.0
210
0.0
220
0.0
230
1.0
 73
     3
  0
TEXT
  8
10
  6
CONTINUOUS
 62
   134
  5
BD
 10
121259.941
 20
99224.241
 30
0.0
 40
27.998
  1
TR H-23
 50
358.2861
  7
ROMANS
 11
121260.778385
 21
99252.226475
 31
0.0
210
0.0
220
0.0
230
1.0
 73
     3
  0
TEXT
  8
10
  6
CONTINUOUS
 62
   134
  5
BE
 10
120938.233
 20
100343.503
 30
0.0
 40
27.998
  1
TR B
 50
358.2861
  7
ROMANS
 11
120939.070385
 21
100371.488475
 31
0.0
210
0.0
220
0.0
230
1.0
 73
     3
  0
TEXT
  8
10
  6
CONTINUOUS
 62
   134
  5
BF
 10
120243.956
 20
100374.455
 30
0.0
 40
27.998
  1
TR A
 50
358.2861
  7
ROMANS
 11
120244.793385
 21
100402.440475
 31
0.0
210
0.0
220
0.0
230
1.0
 73
     3
  0
TEXT
  8
10
  6
CONTINUOUS
 62
   134
  5
C0
 10
120667.312
 20
98672.83
 30
0.0
 40
27.998
  1
TR D
 50
358.2861
  7
ROMANS
 11
120668.149385
 21
98700.815475
 31
0.0
210
0.0
220
0.0
230
1.0
 73
     3
  0
TEXT
  8
10
  6
CONTINUOUS
 62
   134
  5
C1
 10
121250.829
 20
97955.451
 30
0.0
 40
27.998
  1
TR E
 50
358.2861
  7
ROMANS
 11
121251.666385
 21
97983.436475
 31
0.0
210
0.0
220
0.0
230
1.0
 73
     3
  0
TEXT
  8
10
  6
CONTINUOUS
 62
   134
  5
C2
 10
121245.956
 20
97792.597
 30
0.0
 40
27.998
  1
TR F
 50
358.2861
  7
ROMANS
 11
121246.793385
 21
97820.582475
 31
0.0
210
0.0
220
0.0
230
1.0
 73
     3
  0
TEXT
  8
10
  6
CONTINUOUS
 62
   134
  5
C3
 10
121182.874
 20
100354.564
 30
0.0
 40
13.999
  1
H-1
 50
88.2861
  7
ROMANS
 11
121168.881263
 21
100354.982692
 31
0.0
210
0.0
220
0.0
230
1.0
 73
     3
  0
TEXT
  8
10
  6
CONTINUOUS
 62
   134
  5
C4
 10
121255.78
 20
100352.383
 30
0.0
 40
13.999
  1
H-2
 50
88.2861
  7
ROMANS
 11
121241.787263
 21
100352.801692
 31
0.0
210
0.0
220
0.0
230
1.0
 73
     3
  0
TEXT
  8
10
  6
CONTINUOUS
 62
   134
  5
C5
 10
121309.591
 20
100350.772
 30
0.0
 40
13.999
  1
H-3
 50
88.2861
  7
ROMANS
 11
121295.598263
 21
100351.190692
 31
0.0
210
0.0
220
0.0
230
1.0
 73
     3
  0
TEXT
  8
10
  6
CONTINUOUS
 62
   134
  5
C6
 10
121379.024
 20
100348.695
 30
0.0
 40
13.999
  1
H-24
 50
88.2861
  7
ROMANS
 11
121365.031263
 21
100349.113692
 31
0.0
210
0.0
220
0.0
230
1.0
 73
     3
  0
TEXT
  8
10
  6
CONTINUOUS
 62
   134
  5
C7
 10
121453.665
 20
100346.461
 30
0.0
 40
13.999
  1
H-25
 50
88.2861
  7
ROMANS
 11
121439.672263
 21
100346.879692
 31
0.0
210
0.0
220
0.0
230
1.0
 73
     3
  0
TEXT
  8
10
  6
CONTINUOUS
 62
   134
  5
C8
 10
121505.74
 20
100344.903
 30
0.0
 40
13.999
  1
H-26
 50
88.2861
  7
ROMANS
 11
121491.747263
 21
100345.321692
 31
0.0
210
0.0
220
0.0
230
1.0
 73
     3
  0
TEXT
  8
10
  6
CONTINUOUS
 62
   134
  5
C9
 10
121563.022
 20
100343.189
 30
0.0
 40
13.999
  1
H-27
 50
88.2861
  7
ROMANS
 11
121549.029263
 21
100343.607692
 31
0.0
210
0.0
220
0.0
230
1.0
 73
     3
  0
TEXT
  8
10
  6
CONTINUOUS
 62
   134
  5
CA
 10
121650.911
 20
100374.679
 30
0.0
 40
13.999
  1
H-17
 50
358.2861
  7
ROMANS
 11
121651.329692
 21
100388.671737
 31
0.0
210
0.0
220
0.0
230
1.0
 73
     3
  0
TEXT
  8
10
  6
CONTINUOUS
 62
   134
  5
CB
 10
121645.202
 20
100183.853
 30
0.0
 40
13.999
  1
H-15
 50
358.2861
  7
ROMANS
 11
121645.620692
 21
100197.845737
 31
0.0
210
0.0
220
0.0
230
1.0
 73
     3
  0
TEXT
  8
10
  6
CONTINUOUS
 62
   134
  5
CC
 10
121642.733
 20
100101.354
 30
0.0
 40
13.999
  1
H-14
 50
358.2861
  7
ROMANS
 11
121643.151692
 21
100115.346737
 31
0.0
210
0.0
220
0.0
230
1.0
 73
     3
  0
TEXT
  8
10
  6
CONTINUOUS
 62
   134
  5
CD
 10
121640.822
 20
100037.498
 30
0.0
 40
13.999
  1
H-13
 50
358.2861
  7
ROMANS
 11
121641.240692
 21
100051.490737
 31
0.0
210
0.0
220
0.0
230
1.0
 73
     3
  0
TEXT
  8
10
  6
CONTINUOUS
 62
   134
  5
CE
 10
121639.212
 20
99983.667
 30
0.0
 40
13.999
  1
H-12
 50
358.2861
  7
ROMANS
 11
121639.630692
 21
99997.659737
 31
0.0
210
0.0
220
0.0
230
1.0
 73
     3
  0
TEXT
  8
10
  6
CONTINUOUS
 62
   134
  5
CF
 10
121637.75
 20
99934.834
 30
0.0
 40
13.999
  1
H-9
 50
358.2861
  7
ROMANS
 11
121638.168692
 21
99948.826737
 31
0.0
210
0.0
220
0.0
230
1.0
 73
     3
  0
TEXT
  8
10
  6
CONTINUOUS
 62
   134
  5
D0
 10
121636.137
 20
99880.916
 30
0.0
 40
13.999
  1
H-8
 50
358.2861
  7
ROMANS
 11
121636.555692
 21
99894.908737
 31
0.0
210
0.0
220
0.0
230
1.0
 73
     3
  0
TEXT
  8
10
  6
CONTINUOUS
 62
   134
  5
D1
 10
121634.17
 20
99815.179
 30
0.0
 40
13.999
  1
H-4
 50
358.2861
  7
ROMANS
 11
121634.588692
 21
99829.171737
 31
0.0
210
0.0
220
0.0
230
1.0
 73
     3
  0
TEXT
  8
10
  6
CONTINUOUS
 62
   134
  5
D2
 10
121632.559
 20
99761.327
 30
0.0
 40
13.999
  1
H-5
 50
358.2861
  7
ROMANS
 11
121632.977692
 21
99775.319737
 31
0.0
210
0.0
220
0.0
230
1.0
 73
     3
  0
TEXT
  8
10
  6
CONTINUOUS
 62
   134
  5
D3
 10
121631.455
 20
99724.434
 30
0.0
 40
13.999
  1
H-19
 50
358.2861
  7
ROMANS
 11
121631.873692
 21
99738.426737
 31
0.0
210
0.0
220
0.0
230
1.0
 73
     3
  0
TEXT
  8
10
  6
CONTINUOUS
 62
   134
  5
D4
 10
121630.246
 20
99684.042
 30
0.0
 40
13.999
  1
H-20
 50
358.2861
  7
ROMANS
 11
121630.664692
 21
99698.034737
 31
0.0
210
0.0
220
0.0
230
1.0
 73
     3
  0
TEXT
  8
10
  6
CONTINUOUS
 62
   134
  5
D5
 10
121629.037
 20
99643.628
 30
0.0
 40
13.999
  1
H-21
 50
358.2861
  7
ROMANS
 11
121629.455692
 21
99657.620737
 31
0.0
210
0.0
220
0.0
230
1.0
 73
     3
  0
TEXT
  8
10
  6
CONTINUOUS
 62
   134
  5
D6
 10
121628.031
 20
99551.567
 30
0.0
 40
13.999
  1
H-28
 50
358.2861
  7
ROMANS
 11
121628.449692
 21
99565.559737
 31
0.0
210
0.0
220
0.0
230
1.0
 73
     3
  0
TEXT
  8
10
  6
CONTINUOUS
 62
   134
  5
D7
 10
121632.98
 20
99487.331
 30
0.0
 40
13.999
  1
H-29
 50
4.2861
  7
ROMANS
 11
121631.933759
 21
99501.290849
 31
0.0
210
0.0
220
0.0
230
1.0
 73
     3
  0
TEXT
  8
10
  6
CONTINUOUS
 62
   134
  5
D8
 10
121639.905
 20
99414.591
 30
0.0
 40
13.999
  1
H-30
 50
8.2861
  7
ROMANS
 11
121637.887518
 21
99428.443861
 31
0.0
210
0.0
220
0.0
230
1.0
 73
     3
  0
TEXT
  8
10
  6
CONTINUOUS
 62
   134
  5
D9
 10
121647.674
 20
99352.714
 30
0.0
 40
13.999
  1
H-10
 50
8.2861
  7
ROMANS
 11
121645.656518
 21
99366.566861
 31
0.0
210
0.0
220
0.0
230
1.0
 73
     3
  0
TEXT
  8
10
  6
CONTINUOUS
 62
   134
  5
DA
 10
121668.171
 20
99309.822
 30
0.0
 40
13.999
  1
H-6
 50
10.2861
  7
ROMANS
 11
121665.671289
 21
99323.596013
 31
0.0
210
0.0
220
0.0
230
1.0
 73
     3
  0
TEXT
  8
10
  6
CONTINUOUS
 62
   134
  5
DB
 10
121687.543
 20
99276.387
 30
0.0
 40
13.999
  1
H-7
 50
358.2861
  7
ROMANS
 11
121687.961692
 21
99290.379737
 31
0.0
210
0.0
220
0.0
230
1.0
 73
     3
  0
TEXT
  8
10
  6
CONTINUOUS
 62
   134
  5
DC
 10
121182.958
 20
99599.914
 30
0.0
 40
13.999
  1
H4-54
 50
358.2861
  7
ROMANS
 11
121183.376692
 21
99613.906737
 31
0.0
210
0.0
220
0.0
230
1.0
 73
     3
  0
TEXT
  8
10
  6
CONTINUOUS
 62
   134
  5
DD
 10
121185.225
 20
99675.689
 30
0.0
 40
13.999
  1
H4-53
 50
358.2861
  7
ROMANS
 11
121185.643692
 21
99689.681737
 31
0.0
210
0.0
220
0.0
230
1.0
 73
     3
  0
TEXT
  8
10
  6
CONTINUOUS
 62
   134
  5
DE
 10
121186.989
 20
99734.625
 30
0.0
 40
13.999
  1
H4-52
 50
358.2861
  7
ROMANS
 11
121187.407692
 21
99748.617737
 31
0.0
210
0.0
220
0.0
230
1.0
 73
     3
  0
TEXT
  8
10
  6
CONTINUOUS
 62
   134
  5
DF
 10
121188.702
 20
99791.877
 30
0.0
 40
13.999
  1
H4-51
 50
358.2861
  7
ROMANS
 11
121189.120692
 21
99805.869737
 31
0.0
210
0.0
220
0.0
230
1.0
 73
     3
  0
TEXT
  8
10
  6
CONTINUOUS
 62
   134
  5
E0
 10
121190.616
 20
99855.865
 30
0.0
 40
13.999
  1
H4-50
 50
358.2861
  7
ROMANS
 11
121191.034692
 21
99869.857737
 31
0.0
210
0.0
220
0.0
230
1.0
 73
     3
  0
TEXT
  8
10
  6
CONTINUOUS
 62
   134
  5
E1
 10
121192.38
 20
99914.802
 30
0.0
 40
13.999
  1
H4-49
 50
358.2861
  7
ROMANS
 11
121192.798692
 21
99928.794737
 31
0.0
210
0.0
220
0.0
230
1.0
 73
     3
  0
TEXT
  8
10
  6
CONTINUOUS
 62
   134
  5
E2
 10
121194.194
 20
99975.422
 30
0.0
 40
13.999
  1
H4-48
 50
358.2861
  7
ROMANS
 11
121194.612692
 21
99989.414737
 31
0.0
210
0.0
220
0.0
230
1.0
 73
     3
  0
TEXT
  8
10
  6
CONTINUOUS
 62
   134
  5
E3
 10
121195.957
 20
100034.358
 30
0.0
 40
13.999
  1
H4-47
 50
358.2861
  7
ROMANS
 11
121196.375692
 21
100048.350737
 31
0.0
210
0.0
220
0.0
230
1.0
 73
     3
  0
TEXT
  8
10
  6
CONTINUOUS
 62
   134
  5
E4
 10
121197.872
 20
100098.346
 30
0.0
 40
13.999
  1
H4-46
 50
358.2861
  7
ROMANS
 11
121198.290692
 21
100112.338737
 31
0.0
210
0.0
220
0.0
230
1.0
 73
     3
  0
TEXT
  8
10
  6
CONTINUOUS
 62
   134
  5
E5
 10
121221.849
 20
100199.797
 30
0.0
 40
13.999
  1
H4-45
 50
320.2861
  7
ROMANS
 11
121230.793723
 21
100210.565655
 31
0.0
210
0.0
220
0.0
230
1.0
 73
     3
  0
TEXT
  8
10
  6
CONTINUOUS
 62
   134
  5
E6
 10
121305.59
 20
100251.599
 30
0.0
 40
13.999
  1
H4-44
 50
288.2861
  7
ROMANS
 11
121318.882073
 21
100255.991356
 31
0.0
210
0.0
220
0.0
230
1.0
 73
     3
  0
TEXT
  8
10
  6
CONTINUOUS
 62
   134
  5
E7
 10
121391.364
 20
100190.611
 30
0.0
 40
13.999
  1
H4-43
 50
60.2861
  7
ROMANS
 11
121379.20571
 21
100197.549876
 31
0.0
210
0.0
220
0.0
230
1.0
 73
     3
  0
TEXT
  8
10
  6
CONTINUOUS
 62
   134
  5
E8
 10
121445.352
 20
100157.372
 30
0.0
 40
13.999
  1
H4-42
 50
40.2861
  7
ROMANS
 11
121436.30018
 21
100168.05079
 31
0.0
210
0.0
220
0.0
230
1.0
 73
     3
  0
TEXT
  8
10
  6
CONTINUOUS
 62
   134
  5
E9
 10
121456.562
 20
100092.291
 30
0.0
 40
13.999
  1
H4-41
 50
358.2861
  7
ROMANS
 11
121456.980692
 21
100106.283737
 31
0.0
210
0.0
220
0.0
230
1.0
 73
     3
  0
TEXT
  8
10
  6
CONTINUOUS
 62
   134
  5
EA
 10
121454.597
 20
100026.618
 30
0.0
 40
13.999
  1
H4-40
 50
358.2861
  7
ROMANS
 11
121455.015692
 21
100040.610737
 31
0.0
210
0.0
220
0.0
230
1.0
 73
     3
  0
TEXT
  8
10
  6
CONTINUOUS
 62
   134
  5
EB
 10
121452.732
 20
99964.314
 30
0.0
 40
13.999
  1
H4-39
 50
358.2861
  7
ROMANS
 11
121453.150692
 21
99978.306737
 31
0.0
210
0.0
220
0.0
230
1.0
 73
     3
  0
TEXT
  8
10
  6
CONTINUOUS
 62
   134
  5
EC
 10
121450.969
 20
99905.379
 30
0.0
 40
13.999
  1
H4-38
 50
358.2861
  7
ROMANS
 11
121451.387692
 21
99919.371737
 31
0.0
210
0.0
220
0.0
230
1.0
 73
     3
  0
TEXT
  8
10
  6
CONTINUOUS
 62
   134
  5
ED
 10
121449.256
 20
99848.126
 30
0.0
 40
13.999
  1
H4-37
 50
358.2861
  7
ROMANS
 11
121449.674692
 21
99862.118737
 31
0.0
210
0.0
220
0.0
230
1.0
 73
     3
  0
TEXT
  8
10
  6
CONTINUOUS
 62
   134
  5
EE
 10
121447.341
 20
99784.138
 30
0.0
 40
13.999
  1
H4-36
 50
358.2861
  7
ROMANS
 11
121447.759692
 21
99798.130737
 31
0.0
210
0.0
220
0.0
230
1.0
 73
     3
  0
TEXT
  8
10
  6
CONTINUOUS
 62
   134
  5
EF
 10
121445.628
 20
99726.886
 30
0.0
 40
13.999
  1
H4-35
 50
358.2861
  7
ROMANS
 11
121446.046692
 21
99740.878737
 31
0.0
210
0.0
220
0.0
230
1.0
 73
     3
  0
TEXT
  8
10
  6
CONTINUOUS
 62
   134
  5
F0
 10
121443.965
 20
99671.317
 30
0.0
 40
13.999
  1
H4-34
 50
358.2861
  7
ROMANS
 11
121444.383692
 21
99685.309737
 31
0.0
210
0.0
220
0.0
230
1.0
 73
     3
  0
TEXT
  8
10
  6
CONTINUOUS
 62
   134
  5
F1
 10
121442.051
 20
99607.33
 30
0.0
 40
13.999
  1
H4-33
 50
358.2861
  7
ROMANS
 11
121442.469692
 21
99621.322737
 31
0.0
210
0.0
220
0.0
230
1.0
 73
     3
  0
TEXT
  8
10
  6
CONTINUOUS
 62
   134
  5
F2
 10
121440.388
 20
99551.761
 30
0.0
 40
13.999
  1
H4-32
 50
358.2861
  7
ROMANS
 11
121440.806692
 21
99565.753737
 31
0.0
210
0.0
220
0.0
230
1.0
 73
     3
  0
TEXT
  8
10
  6
CONTINUOUS
 62
   134
  5
F3
 10
121438.02
 20
99472.618
 30
0.0
 40
13.999
  1
H4-31
 50
358.2861
  7
ROMANS
 11
121438.438692
 21
99486.610737
 31
0.0
210
0.0
220
0.0
230
1.0
 73
     3
  0
TEXT
  8
10
  6
CONTINUOUS
 62
   134
  5
F4
 10
121647.818
 20
100271.296
 30
0.0
 40
13.999
  1
H-16
 50
358.2861
  7
ROMANS
 11
121648.236692
 21
100285.288737
 31
0.0
210
0.0
220
0.0
230
1.0
 73
     3
  0
TEXT
  8
10
  6
CONTINUOUS
 62
   134
  5
F5
 10
121627.851
 20
99603.951
 30
0.0
 40
13.999
  1
H-22
 50
358.2861
  7
ROMANS
 11
121628.269692
 21
99617.943737
 31
0.0
210
0.0
220
0.0
230
1.0
 73
     3
  0
TEXT
  8
10
  6
CONTINUOUS
 62
   134
  5
F6
 10
121353.347
 20
99665.846
 30
0.0
 40
13.999
  1
TR     H
 50
88.2861
  7
ROMANS
 11
121339.354263
 21
99666.264692
 31
0.0
210
0.0
220
0.0
230
1.0
 73
     3
  0
TEXT
  8
11
  6
CONTINUOUS
 62
     7
  5
F7
 10
120284.66
 20
100495.344
 30
0.0
 40
8.0
  1
1102.8'
 50
358.2861
  7
ROMANS
 72
     4
 11
120310.101302
 21
100498.584532
 31
0.0
210
0.0
220
0.0
230
1.0
  0
TEXT
  8
11
  6
CONTINUOUS
 62
     7
  5
F8
 10
121528.977
 20
100276.606
 30
0.0
 40
8.0
  1
100'
 50
358.2861
  7
ROMANS
 72
     4
 11
121542.42367
 21
100280.205437
 31
0.0
210
0.0
220
0.0
230
1.0
  0
TEXT
  8
11
  6
CONTINUOUS
 62
     7
  5
F9
 10
121160.484
 20
100289.329
 30
0.0
 40
8.0
  1
100'
 50
358.2861
  7
ROMANS
 72
     4
 11
121173.93067
 21
100292.928437
 31
0.0
210
0.0
220
0.0
230
1.0
  0
TEXT
  8
11
  6
CONTINUOUS
 62
     7
  5
FA
 10
121286.243
 20
100285.566
 30
0.0
 40
8.0
  1
138'
 50
358.2861
  7
ROMANS
 72
     4
 11
121299.68967
 21
100289.165437
 31
0.0
210
0.0
220
0.0
230
1.0
  0
TEXT
  8
11
  6
CONTINUOUS
 62
     7
  5
FB
 10
121408.508
 20
100281.907
 30
0.0
 40
8.0
  1
138'
 50
358.2861
  7
ROMANS
 72
     4
 11
121421.95467
 21
100285.506437
 31
0.0
210
0.0
220
0.0
230
1.0
  0
TEXT
  8
11
  6
CONTINUOUS
 62
     7
  5
FC
 10
121666.032
 20
100454.011
 30
0.0
 40
8.0
  1
80'
 50
358.2861
  7
ROMANS
 72
     4
 11
121675.48046
 21
100457.730072
 31
0.0
210
0.0
220
0.0
230
1.0
  0
TEXT
  8
11
  6
CONTINUOUS
 62
     7
  5
FD
 10
121751.758
 20
100180.658
 30
0.0
 40
8.0
  1
100'
 50
88.2861
  7
ROMANS
 72
     4
 11
121748.158563
 21
100194.10467
 31
0.0
210
0.0
220
0.0
230
1.0
  0
TEXT
  8
11
  6
CONTINUOUS
 62
     7
  5
FE
 10
121749.096
 20
100091.692
 30
0.0
 40
8.0
  1
75'
 50
88.2861
  7
ROMANS
 72
     4
 11
121745.376928
 21
100101.14046
 31
0.0
210
0.0
220
0.0
230
1.0
  0
TEXT
  8
11
  6
CONTINUOUS
 62
     7
  5
FF
 10
121747.334
 20
100032.819
 30
0.0
 40
8.0
  1
50'
 50
88.2861
  7
ROMANS
 72
     4
 11
121743.614928
 21
100042.26746
 31
0.0
210
0.0
220
0.0
230
1.0
  0
TEXT
  8
11
  6
CONTINUOUS
 62
     7
  5
100
 10
121744.359
 20
99933.403
 30
0.0
 40
8.0
  1
50'
 50
88.2861
  7
ROMANS
 72
     4
 11
121740.639928
 21
99942.85146
 31
0.0
210
0.0
220
0.0
230
1.0
  0
TEXT
  8
11
  6
CONTINUOUS
 62
     7
  5
101
 10
121742.646
 20
99876.132
 30
0.0
 40
8.0
  1
60'
 50
88.2861
  7
ROMANS
 72
     4
 11
121738.926928
 21
99885.58046
 31
0.0
210
0.0
220
0.0
230
1.0
  0
TEXT
  8
11
  6
CONTINUOUS
 62
     7
  5
102
 10
121740.803
 20
99814.538
 30
0.0
 40
8.0
  1
70'
 50
88.2861
  7
ROMANS
 72
     4
 11
121737.083928
 21
99823.98646
 31
0.0
210
0.0
220
0.0
230
1.0
  0
TEXT
  8
11
  6
CONTINUOUS
 62
     7
  5
103
 10
121739.121
 20
99758.347
 30
0.0
 40
8.0
  1
40'
 50
88.2861
  7
ROMANS
 72
     4
 11
121735.401928
 21
99767.79546
 31
0.0
210
0.0
220
0.0
230
1.0
  0
TEXT
  8
11
  6
CONTINUOUS
 62
     7
  5
104
 10
121745.911
 20
99985.272
 30
0.0
 40
8.0
  1
50'
 50
88.2861
  7
ROMANS
 72
     4
 11
121742.191928
 21
99994.72046
 31
0.0
210
0.0
220
0.0
230
1.0
  0
TEXT
  8
10
  6
CONTINUOUS
 62
   134
  5
105
 10
121460.065
 20
98963.869
 30
0.0
 40
27.998
  1
TR H-11
 50
318.2861
  7
ROMANS
 11
121478.69519
 21
98984.768857
 31
0.0
210
0.0
220
0.0
230
1.0
 73
     3
  0
TEXT
  8
11
  6
CONTINUOUS
 62
     7
  5
106
 10
121454.176
 20
98975.836
 30
0.0
 40
8.0
  1
100'
 50
48.2861
  7
ROMANS
 72
     4
 11
121460.062024
 21
98988.450421
 31
0.0
210
0.0
220
0.0
230
1.0
  0
TEXT
  8
11
  6
CONTINUOUS
 62
     7
  5
107
 10
121611.682
 20
98929.756
 30
0.0
 40
8.0
  1
591.24'
 50
318.2861
  7
ROMANS
 72
     4
 11
121633.254142
 21
98915.885038
 31
0.0
210
0.0
220
0.0
230
1.0
  0
TEXT
  8
11
  6
CONTINUOUS
 62
     7
  5
108
 10
121561.246
 20
99545.357
 30
0.0
 40
8.0
  1
50'
 50
88.2861
  7
ROMANS
 72
     4
 11
121557.526928
 21
99554.80546
 31
0.0
210
0.0
220
0.0
230
1.0
  0
TEXT
  8
11
  6
CONTINUOUS
 62
     7
  5
109
 10
121575.453
 20
100020.158
 30
0.0
 40
8.0
  1
60'
 50
88.2861
  7
ROMANS
 72
     4
 11
121571.733928
 21
100029.60646
 31
0.0
210
0.0
220
0.0
230
1.0
  0
TEXT
  8
11
  6
CONTINUOUS
 62
     7
  5
10A
 10
121578.113
 20
100109.057
 30
0.0
 40
8.0
  1
40'
 50
88.2861
  7
ROMANS
 72
     4
 11
121574.393928
 21
100118.50546
 31
0.0
210
0.0
220
0.0
230
1.0
  0
TEXT
  8
11
  6
CONTINUOUS
 62
     7
  5
10B
 10
121557.628
 20
99424.424
 30
0.0
 40
8.0
  1
206.15'
 50
88.2861
  7
ROMANS
 72
     4
 11
121554.387468
 21
99449.865302
 31
0.0
210
0.0
220
0.0
230
1.0
  0
TEXT
  8
11
  6
CONTINUOUS
 62
     7
  5
10C
 10
121573.663
 20
99960.31
 30
0.0
 40
8.0
  1
60'
 50
88.2861
  7
ROMANS
 72
     4
 11
121569.943928
 21
99969.75846
 31
0.0
210
0.0
220
0.0
230
1.0
  0
TEXT
  8
11
  6
CONTINUOUS
 62
     7
  5
10D
 10
121562.798
 20
99597.227
 30
0.0
 40
8.0
  1
60'
 50
88.2861
  7
ROMANS
 72
     4
 11
121559.078928
 21
99606.67546
 31
0.0
210
0.0
220
0.0
230
1.0
  0
TEXT
  8
11
  6
CONTINUOUS
 62
     7
  5
10E
 10
121564.51
 20
99654.416
 30
0.0
 40
8.0
  1
60'
 50
88.2861
  7
ROMANS
 72
     4
 11
121560.790928
 21
99663.86446
 31
0.0
210
0.0
220
0.0
230
1.0
  0
TEXT
  8
11
  6
CONTINUOUS
 62
     7
  5
10F
 10
121566.38
 20
99716.925
 30
0.0
 40
8.0
  1
60'
 50
88.2861
  7
ROMANS
 72
     4
 11
121562.660928
 21
99726.37346
 31
0.0
210
0.0
220
0.0
230
1.0
  0
TEXT
  8
11
  6
CONTINUOUS
 62
     7
  5
110
 10
121568.29
 20
99780.763
 30
0.0
 40
8.0
  1
60'
 50
88.2861
  7
ROMANS
 72
     4
 11
121564.570928
 21
99790.21146
 31
0.0
210
0.0
220
0.0
230
1.0
  0
TEXT
  8
11
  6
CONTINUOUS
 62
     7
  5
111
 10
121570.081
 20
99840.612
 30
0.0
 40
8.0
  1
60'
 50
88.2861
  7
ROMANS
 72
     4
 11
121566.361928
 21
99850.06046
 31
0.0
210
0.0
220
0.0
230
1.0
  0
TEXT
  8
11
  6
CONTINUOUS
 62
     7
  5
112
 10
121571.832
 20
99899.131
 30
0.0
 40
8.0
  1
60'
 50
88.2861
  7
ROMANS
 72
     4
 11
121568.112928
 21
99908.57946
 31
0.0
210
0.0
220
0.0
230
1.0
  0
TEXT
  8
11
  6
CONTINUOUS
 62
     7
  5
113
 10
121346.585
 20
99960.424
 30
0.0
 40
8.0
  1
60'
 50
358.2861
  7
ROMANS
 72
     4
 11
121356.03346
 21
99964.143072
 31
0.0
210
0.0
220
0.0
230
1.0
  0
TEXT
  8
11
  6
CONTINUOUS
 62
     7
  5
114
 10
121148.483
 20
100249.271
 30
0.0
 40
8.0
  1
90'
 50
88.2861
  7
ROMANS
 72
     4
 11
121144.763928
 21
100258.71946
 31
0.0
210
0.0
220
0.0
230
1.0
  0
TEXT
  8
11
  6
CONTINUOUS
 62
     7
  5
115
 10
121144.672
 20
100120.491
 30
0.0
 40
8.0
  1
140'
 50
88.2861
  7
ROMANS
 72
     4
 11
121141.072563
 21
100133.93767
 31
0.0
210
0.0
220
0.0
230
1.0
  0
TEXT
  8
11
  6
CONTINUOUS
 62
     7
  5
116
 10
121191.938
 20
100163.279
 30
0.0
 40
8.0
  1
210.61'
 50
328.2861
  7
ROMANS
 72
     4
 11
121215.59108
 21
100153.364733
 31
0.0
210
0.0
220
0.0
230
1.0
  0
TEXT
  8
11
  6
CONTINUOUS
 62
     7
  5
117
 10
121487.572
 20
100131.656
 30
0.0
 40
8.0
  1
210.61'
 50
29.4861
  7
ROMANS
 72
     4
 11
121507.655767
 21
100147.607609
 31
0.0
210
0.0
220
0.0
230
1.0
  0
TEXT
  8
11
  6
CONTINUOUS
 62
     7
  5
118
 10
121453.055
 20
100208.587
 30
0.0
 40
8.0
  1
174.2'
 50
53.4861
  7
ROMANS
 72
     4
 11
121462.533664
 21
100228.112671
 31
0.0
210
0.0
220
0.0
230
1.0
  0
TEXT
  8
11
  6
CONTINUOUS
 62
     7
  5
119
 10
121243.889
 20
100249.619
 30
0.0
 40
8.0
  1
174.2'
 50
303.0861
  7
ROMANS
 72
     4
 11
121258.886062
 21
100233.928716
 31
0.0
210
0.0
220
0.0
230
1.0
  0
TEXT
  8
11
  6
CONTINUOUS
 62
     7
  5
11A
 10
121109.151
 20
99789.063
 30
0.0
 40
8.0
  1
820'
 50
88.2861
  7
ROMANS
 72
     4
 11
121105.551563
 21
99802.50967
 31
0.0
210
0.0
220
0.0
230
1.0
  0
TEXT
  8
11
  6
CONTINUOUS
 62
     7
  5
11B
 10
121125.318
 20
100329.353
 30
0.0
 40
8.0
  1
300'
 50
88.2861
  7
ROMANS
 72
     4
 11
121121.718563
 21
100342.79967
 31
0.0
210
0.0
220
0.0
230
1.0
  0
TEXT
  8
11
  6
CONTINUOUS
 62
     7
  5
11C
 10
120806.542
 20
100338.892
 30
0.0
 40
8.0
  1
250'
 50
88.2861
  7
ROMANS
 72
     4
 11
120802.942563
 21
100352.33867
 31
0.0
210
0.0
220
0.0
230
1.0
  0
TEXT
  8
11
  6
CONTINUOUS
 62
     7
  5
11D
 10
119860.053
 20
100413.41
 30
0.0
 40
8.0
  1
382.45'
 50
318.2861
  7
ROMANS
 72
     4
 11
119881.625142
 21
100399.539038
 31
0.0
210
0.0
220
0.0
230
1.0
  0
TEXT
  8
11
  6
CONTINUOUS
 62
     7
  5
11E
 10
120354.467
 20
100267.913
 30
0.0
 40
8.0
  1
813.34
 50
357.2861
  7
ROMANS
 72
     4
 11
120376.964347
 21
100270.851073
 31
0.0
210
0.0
220
0.0
230
1.0
  0
TEXT
  8
11
  6
CONTINUOUS
 62
     7
  5
11F
 10
120610.098
 20
100189.63
 30
0.0
 40
8.0
  1
1075.45
 50
357.2861
  7
ROMANS
 72
     4
 11
120636.601848
 21
100192.378157
 31
0.0
210
0.0
220
0.0
230
1.0
  0
TEXT
  8
11
  6
CONTINUOUS
 62
     7
  5
120
 10
118262.798
 20
98010.175
 30
0.0
 40
8.0
  1
1579
 50
357.2861
  7
ROMANS
 72
     4
 11
118277.304319
 21
98013.491864
 31
0.0
210
0.0
220
0.0
230
1.0
  0
TEXT
  8
11
  6
CONTINUOUS
 62
     7
  5
121
 10
116969.893
 20
98052.641
 30
0.0
 40
8.0
  1
1061
 50
357.2861
  7
ROMANS
 72
     4
 11
116983.400441
 21
98056.005212
 31
0.0
210
0.0
220
0.0
230
1.0
  0
TEXT
  8
11
  6
CONTINUOUS
 62
     7
  5
122
 10
119098.56
 20
99408.809
 30
0.0
 40
8.0
  1
2513
 50
87.2861
  7
ROMANS
 72
     4
 11
119095.243136
 21
99423.315319
 31
0.0
210
0.0
220
0.0
230
1.0
  0
LINE
  8
6
  6
CONTINUOUS
 62
     7
  5
123
 10
119021.303
 20
95321.006
 30
0.0
 11
119175.483
 21
100473.7
 31
0.0
  0
TEXT
  8
11
  6
CONTINUOUS
 62
     7
  5
124
 10
121258.275
 20
98057.172
 30
0.0
 40
8.0
  1
357.34'
 50
358.2861
  7
ROMANS
 72
     4
 11
121283.716302
 21
98060.412532
 31
0.0
210
0.0
220
0.0
230
1.0
  0
TEXT
  8
11
  6
CONTINUOUS
 62
     7
  5
125
 10
121255.971
 20
97881.44
 30
0.0
 40
8.0
  1
407.88'
 50
358.2861
  7
ROMANS
 72
     4
 11
121281.412302
 21
97884.680532
 31
0.0
210
0.0
220
0.0
230
1.0
  0
TEXT
  8
11
  6
CONTINUOUS
 62
     7
  5
126
 10
121507.838
 20
97827.356
 30
0.0
 40
8.0
  1
182.11'
 50
280.2861
  7
ROMANS
 72
     4
 11
121516.297442
 21
97803.143412
 31
0.0
210
0.0
220
0.0
230
1.0
  0
TEXT
  8
11
  6
CONTINUOUS
 62
     7
  5
127
 10
121465.609
 20
97995.964
 30
0.0
 40
8.0
  1
182.11'
 50
281.2861
  7
ROMANS
 72
     4
 11
121474.489721
 21
97971.902738
 31
0.0
210
0.0
220
0.0
230
1.0
  0
TEXT
  8
11
  6
CONTINUOUS
 62
     7
  5
128
 10
121118.232
 20
97973.582
 30
0.0
 40
8.0
  1
175'
 50
88.2861
  7
ROMANS
 72
     4
 11
121114.632563
 21
97987.02867
 31
0.0
210
0.0
220
0.0
230
1.0
  0
TEXT
  8
11
  6
CONTINUOUS
 62
     7
  5
129
 10
121113.441
 20
97809.507
 30
0.0
 40
8.0
  1
175'
 50
88.2861
  7
ROMANS
 72
     4
 11
121109.841563
 21
97822.95367
 31
0.0
210
0.0
220
0.0
230
1.0
  0
TEXT
  8
11
  6
CONTINUOUS
 62
     7
  5
12A
 10
121057.633
 20
98061.264
 30
0.0
 40
8.0
  1
80'
 50
358.2861
  7
ROMANS
 72
     4
 11
121067.08146
 21
98064.983072
 31
0.0
210
0.0
220
0.0
230
1.0
  0
TEXT
  8
11
  6
CONTINUOUS
 62
     7
  5
12B
 10
120989.203
 20
98449.307
 30
0.0
 40
8.0
  1
897.6
 50
358.2861
  7
ROMANS
 72
     4
 11
121007.83435
 21
98452.751301
 31
0.0
210
0.0
220
0.0
230
1.0
  0
TEXT
  8
11
  6
CONTINUOUS
 62
     7
  5
12C
 10
120691.194
 20
97927.004
 30
0.0
 40
8.0
  1
600'
 50
358.2861
  7
ROMANS
 72
     4
 11
120704.64067
 21
97930.603437
 31
0.0
210
0.0
220
0.0
230
1.0
  0
TEXT
  8
11
  6
CONTINUOUS
 62
     7
  5
12D
 10
120393.015
 20
97340.873
 30
0.0
 40
8.0
  1
4058.8'
 50
87.2861
  7
ROMANS
 72
     4
 11
120390.218973
 21
97366.366982
 31
0.0
210
0.0
220
0.0
230
1.0
  0
TEXT
  8
11
  6
CONTINUOUS
 62
     7
  5
12E
 10
119016.543
 20
96602.85
 30
0.0
 40
8.0
  1
2641'
 50
87.2861
  7
ROMANS
 72
     4
 11
119013.368183
 21
96620.352955
 31
0.0
210
0.0
220
0.0
230
1.0
  0
TEXT
  8
11
  6
CONTINUOUS
 62
     7
  5
12F
 10
119663.993
 20
95310.416
 30
0.0
 40
8.0
  1
1320'
 50
357.2861
  7
ROMANS
 72
     4
 11
119681.495955
 21
95313.590817
 31
0.0
210
0.0
220
0.0
230
1.0
  0
LINE
  8
6
  6
CONTINUOUS
 62
     7
  5
130
 10
119021.303
 20
95321.006
 30
0.0
 11
117443.009
 21
95368.232
 31
0.0
  0
LINE
  8
6
  6
CONTINUOUS
 62
     7
  5
131
 10
117443.009
 20
95368.232
 30
0.0
 11
116382.484
 21
95399.965
 31
0.0
  0
LINE
  8
6
  6
CONTINUOUS
 62
     7
  5
132
 10
121610.144
 20
95243.542
 30
0.0
 11
120340.713
 21
95281.527
 31
0.0
  0
LINE
  8
6
  6
CONTINUOUS
 62
     7
  5
133
 10
116382.484
 20
95399.965
 30
0.0
 11
116461.892
 21
98053.777
 31
0.0
  0
LINE
  8
6
  6
CONTINUOUS
 62
     7
  5
134
 10
116461.892
 20
98053.777
 30
0.0
 11
116538.907
 21
100627.625
 31
0.0
  0
TEXT
  8
11
  6
CONTINUOUS
 62
     7
  5
135
 10
121215.721
 20
100075.284
 30
0.0
 40
8.0
  1
200'
 50
358.2861
  7
ROMANS
 72
     4
 11
121229.16767
 21
100078.883437
 31
0.0
210
0.0
220
0.0
230
1.0
  0
TEXT
  8
11
  6
CONTINUOUS
 62
     7
  5
136
 10
121203.239
 20
99658.122
 30
0.0
 40
8.0
  1
200'
 50
358.2861
  7
ROMANS
 72
     4
 11
121216.68567
 21
99661.721437
 31
0.0
210
0.0
220
0.0
230
1.0
  0
TEXT
  8
11
  6
CONTINUOUS
 62
     7
  5
137
 10
121478.369
 20
100067.425
 30
0.0
 40
8.0
  1
200'
 50
358.2861
  7
ROMANS
 72
     4
 11
121491.81567
 21
100071.024437
 31
0.0
210
0.0
220
0.0
230
1.0
  0
TEXT
  8
11
  6
CONTINUOUS
 62
     7
  5
138
 10
121462.074
 20
99522.845
 30
0.0
 40
8.0
  1
200'
 50
358.2861
  7
ROMANS
 72
     4
 11
121475.52067
 21
99526.444437
 31
0.0
210
0.0
220
0.0
230
1.0
  0
TEXT
  8
11
  6
CONTINUOUS
 62
     7
  5
139
 10
121660.493
 20
100317.038
 30
0.0
 40
8.0
  1
172'
 50
358.2861
  7
ROMANS
 72
     4
 11
121673.93967
 21
100320.637437
 31
0.0
210
0.0
220
0.0
230
1.0
  0
TEXT
  8
11
  6
CONTINUOUS
 62
     7
  5
13A
 10
121644.824
 20
99793.404
 30
0.0
 40
8.0
  1
172'
 50
358.2861
  7
ROMANS
 72
     4
 11
121658.27067
 21
99797.003437
 31
0.0
210
0.0
220
0.0
230
1.0
  0
TEXT
  8
11
  6
CONTINUOUS
 62
     7
  5
13B
 10
121152.401
 20
100378.817
 30
0.0
 40
8.0
  1
185'
 50
88.2861
  7
ROMANS
 72
     4
 11
121148.801563
 21
100392.26367
 31
0.0
210
0.0
220
0.0
230
1.0
  0
TEXT
  8
11
  6
CONTINUOUS
 62
     7
  5
13C
 10
121351.897
 20
98473.559
 30
0.0
 40
8.0
  1
886.76'
 50
318.2861
  7
ROMANS
 72
     4
 11
121373.469142
 21
98459.688038
 31
0.0
210
0.0
220
0.0
230
1.0
  0
TEXT
  8
11
  6
CONTINUOUS
 62
     7
  5
13D
 10
119660.105
 20
100416.06
 30
0.0
 40
8.0
  1
75'
 50
46.1861
  7
ROMANS
 72
     4
 11
119663.680037
 21
100425.563894
 31
0.0
210
0.0
220
0.0
230
1.0
  0
TEXT
  8
11
  6
CONTINUOUS
 62
     7
  5
13E
 10
119717.265
 20
100481.301
 30
0.0
 40
8.0
  1
75'
 50
46.1861
  7
ROMANS
 72
     4
 11
119720.840037
 21
100490.804894
 31
0.0
210
0.0
220
0.0
230
1.0
  0
LINE
  8
6
  6
CONTINUOUS
 62
     7
  5
13F
 10
119435.932
 20
100590.963
 30
0.0
 11
121755.858
 21
98441.558
 31
0.0
  0
LINE
  8
7
  6
CONTINUOUS
 62
     7
  5
140
 10
121623.868
 20
99274.519
 30
0.0
 11
121782.205
 21
99322.076
 31
0.0
  0
TEXT
  8
22
  6
CONTINUOUS
 62
     3
  5
143
 10
116775.394
 20
97959.38
 30
0.0
 40
6.0
  1
100' WARRANTY DEED
 50
358.2861
  7
txt
 72
     4
 11
116824.000012
 21
97960.926948
 31
0.0
210
0.0
220
0.0
230
1.0
  0
POLYLINE
  8
21
  6
DASHDOT
 62
     7
  5
145
 66
     1
 10
0.0
 20
0.0
 30
0.0
 70
     1
  0
VERTEX
  8
21
  6
DASHDOT
 62
     7
  5
146
 10
117406.012
 20
97909.62
 30
0.0
  0
VERTEX
  8
21
  6
DASHDOT
 62
     7
  5
147
 10
116347.855
 20
97987.786
 30
0.0
  0
VERTEX
  8
21
  6
DASHDOT
 62
     7
  5
148
 10
116347.852
 20
97987.786
 30
0.0
  0
VERTEX
  8
21
  6
DASHDOT
 62
     7
  5
149
 10
116340.713
 20
97888.041
 30
0.0
  0
VERTEX
  8
21
  6
DASHDOT
 62
     7
  5
14A
 10
117398.869
 20
97809.875
 30
0.0
  0
VERTEX
  8
21
  6
DASHDOT
 62
     7
  5
14B
 10
117406.012
 20
97909.62
 30
0.0
  0
SEQEND
  8
21
  6
DASHDOT
 62
     7
  5
14C
  0
TEXT
  8
22
  6
CONTINUOUS
 62
     3
  5
14D
 10
116802.93
 20
97842.178
 30
0.0
 40
6.0
  1
1061.04'
 50
358.2861
  7
ROMANS
 72
     4
 11
116825.009884
 21
97844.518666
 31
0.0
210
0.0
220
0.0
230
1.0
  0
TEXT
  8
28
  6
CONTINUOUS
 62
    32
  5
14F
 10
120434.756
 20
99784.112
 30
0.0
 40
24.0
  1
PANHANDLE AND SANTA FE RR
 50
318.286103
  7
txt
 72
     4
 11
120658.206989
 21
99601.002704
 31
0.0
210
0.0
220
0.0
230
1.0
  0
TEXT
  8
13
  6
CONTINUOUS
 62
    14
  5
151
 10
116793.285
 20
97890.872
 30
0.0
 40
8.0
  1
V6275 P52
 50
358.2861
  7
ROMANS
 72
     4
 11
116827.722276
 21
97893.843354
 31
0.0
210
0.0
220
0.0
230
1.0
  0
LINE
  8
7
  6
CONTINUOUS
 62
     7
  5
152
 10
121476.812
 20
100479.873
 30
0.0
 11
121471.279
 21
100294.956
 31
0.0
  0
POLYLINE
  8
6
  6
CONTINUOUS
 62
     7
  5
153
 66
     1
 10
0.0
 20
0.0
 30
0.0
  0
VERTEX
  8
6
  6
CONTINUOUS
 62
     7
  5
154
 10
121748.194
 20
99786.446
 30
0.0
  0
VERTEX
  8
6
  6
CONTINUOUS
 62
     7
  5
155
 10
121747.771663
 20
99773.837534
 30
0.0
  0
VERTEX
  8
6
  6
CONTINUOUS
 62
     7
  5
156
 10
121747.226247
 20
99752.509096
 30
0.0
  0
VERTEX
  8
6
  6
CONTINUOUS
 62
     7
  5
157
 10
121747.007118
 20
99735.452616
 30
0.0
  0
VERTEX
  8
6
  6
CONTINUOUS
 62
     7
  5
158
 10
121746.99921
 20
99725.914082
 30
0.0
  0
VERTEX
  8
6
  6
CONTINUOUS
 62
     7
  5
159
 10
121747.198667
 20
99709.774583
 30
0.0
  0
VERTEX
  8
6
  6
CONTINUOUS
 62
     7
  5
15A
 10
121747.590827
 20
99694.076907
 30
0.0
  0
VERTEX
  8
6
  6
CONTINUOUS
 62
     7
  5
15B
 10
121748.617
 20
99666.379833
 30
0.0
  0
VERTEX
  8
6
  6
CONTINUOUS
 62
     7
  5
15C
 10
121749.757988
 20
99639.994981
 30
0.0
  0
VERTEX
  8
6
  6
CONTINUOUS
 62
     7
  5
15D
 10
121750.422833
 20
99627.414333
 30
0.0
  0
VERTEX
  8
6
  6
CONTINUOUS
 62
     7
  5
15E
 10
121753.003
 20
99588.761833
 30
0.0
  0
VERTEX
  8
6
  6
CONTINUOUS
 62
     7
  5
15F
 10
121755.247741
 20
99554.083525
 30
0.0
  0
VERTEX
  8
6
  6
CONTINUOUS
 62
     7
  5
160
 10
121756.7615
 20
99535.030167
 30
0.0
  0
VERTEX
  8
6
  6
CONTINUOUS
 62
     7
  5
161
 10
121758.485884
 20
99517.841888
 30
0.0
  0
VERTEX
  8
6
  6
CONTINUOUS
 62
     7
  5
162
 10
121759.555906
 20
99508.879252
 30
0.0
  0
VERTEX
  8
6
  6
CONTINUOUS
 62
     7
  5
163
 10
121761.51487
 20
99494.518302
 30
0.0
  0
VERTEX
  8
6
  6
CONTINUOUS
 62
     7
  5
164
 10
121763.998971
 20
99478.570159
 30
0.0
  0
VERTEX
  8
6
  6
CONTINUOUS
 62
     7
  5
165
 10
121765.47325
 20
99469.82975
 30
0.0
  0
VERTEX
  8
6
  6
CONTINUOUS
 62
     7
  5
166
 10
121770.823037
 20
99440.224111
 30
0.0
  0
VERTEX
  8
6
  6
CONTINUOUS
 62
     7
  5
167
 10
121779.268409
 20
99394.335189
 30
0.0
  0
VERTEX
  8
6
  6
CONTINUOUS
 62
     7
  5
168
 10
121783.622
 20
99369.419
 30
0.0
  0
SEQEND
  8
6
  6
CONTINUOUS
 62
     7
  5
169
  0
TEXT
  8
19
  6
CONTINUOUS
 62
     1
  5
16C
 10
120172.152
 20
99725.684
 30
0.0
 40
48.0
  1
U.S. 84 (CLOVIS ROAD)
 50
316.936806
  7
ROMANC
 72
     1
 11
120509.706487
 21
99410.212574
 31
0.0
210
0.0
220
0.0
230
1.0
  0
TEXT
  8
19
  6
CONTINUOUS
 62
     1
  5
16D
 10
117017.899
 20
100622.252
 30
0.0
 40
27.0
  1
Farm    
 50
358.336806
  7
ROMANC
 72
     1
 11
117166.788248
 21
100617.928796
 31
0.0
210
0.0
220
0.0
230
1.0
  0
TEXT
  8
19
  6
CONTINUOUS
 62
     1
  5
16E
 10
121782.491
 20
99906.304
 30
0.0
 40
19.999
  1
N. FRANKFORD AVE.
 50
88.2861
  7
ROMANC
 72
     4
 11
121777.657124
 21
100079.105881
 31
0.0
210
0.0
220
0.0
230
1.0
  0
TEXT
  8
19
  6
CONTINUOUS
 62
     1
  5
16F
 10
117644.343
 20
100603.055
 30
0.0
 40
27.0
  1
Road
 50
358.536806
  7
ROMANC
 72
     1
 11
117696.621948
 21
100601.719633
 31
0.0
210
0.0
220
0.0
230
1.0
  0
TEXT
  8
19
  6
CONTINUOUS
 62
     1
  5
170
 10
118311.164
 20
100583.869
 30
0.0
 40
27.0
  1
2641
 50
359.336806
  7
ROMANC
 72
     1
 11
118358.675817
 21
100583.31903
 31
0.0
210
0.0
220
0.0
230
1.0
  0
TEXT
  8
15
  6
CONTINUOUS
 62
    30
  5
172
 10
121273.37
 20
99990.528
 30
0.0
 40
16.0
  1
NORTH
 50
28.2861
  7
ROMANC
 72
     4
 11
121307.851308
 21
100018.168276
 31
0.0
210
0.0
220
0.0
230
1.0
  0
TEXT
  8
15
  6
CONTINUOUS
 62
    30
  5
173
 10
121286.654
 20
99872.095
 30
0.0
 40
16.0
  1
FRANKFORD
 50
28.2861
  7
ROMANC
 72
     4
 11
121353.139556
 21
99916.957774
 31
0.0
210
0.0
220
0.0
230
1.0
  0
TEXT
  8
15
  6
CONTINUOUS
 62
    30
  5
174
 10
121320.195
 20
99779.249
 30
0.0
 40
16.0
  1
RANCHSITES
 50
28.2861
  7
ROMANC
 72
     4
 11
121388.954245
 21
99825.335319
 31
0.0
210
0.0
220
0.0
230
1.0
  0
ENDSEC
  0
EOF
