  0
SECTION
  2
HEADER
  9
$ACADVER
  1
AC1009
  9
$INSBASE
 10
0.0
 20
0.0
 30
0.0
  9
$EXTMIN
 10
916103.347
 20
7284734.642
 30
0.0
  9
$EXTMAX
 10
921559.876
 20
7290127.818
 30
0.0
  9
$LIMMIN
 10
0.0
 20
0.0
  9
$LIMMAX
 10
12.0
 20
9.0
  9
$ORTHOMODE
 70
     0
  9
$REGENMODE
 70
     1
  9
$FILLMODE
 70
     1
  9
$QTEXTMODE
 70
     0
  9
$MIRRTEXT
 70
     1
  9
$DRAGMODE
 70
     2
  9
$LTSCALE
 40
1.0
  9
$OSMODE
 70
     0
  9
$ATTMODE
 70
     1
  9
$TEXTSIZE
 40
0.2
  9
$TRACEWID
 40
0.05
  9
$TEXTSTYLE
  7
STANDARD
  9
$CLAYER
  8
0
  9
$CELTYPE
  6
CONTINUOUS
  9
$CECOLOR
 62
   256
  9
$DIMSCALE
 40
1.0
  9
$DIMASZ
 40
0.18
  9
$DIMEXO
 40
0.0625
  9
$DIMDLI
 40
0.38
  9
$DIMRND
 40
0.0
  9
$DIMDLE
 40
0.0
  9
$DIMEXE
 40
0.18
  9
$DIMTP
 40
0.0
  9
$DIMTM
 40
0.0
  9
$DIMTXT
 40
0.18
  9
$DIMCEN
 40
0.09
  9
$DIMTSZ
 40
0.0
  9
$DIMTOL
 70
     0
  9
$DIMLIM
 70
     0
  9
$DIMTIH
 70
     1
  9
$DIMTOH
 70
     1
  9
$DIMSE1
 70
     0
  9
$DIMSE2
 70
     0
  9
$DIMTAD
 70
     0
  9
$DIMZIN
 70
     0
  9
$DIMBLK
  1

  9
$DIMASO
 70
     1
  9
$DIMSHO
 70
     1
  9
$DIMPOST
  1

  9
$DIMAPOST
  1

  9
$DIMALT
 70
     0
  9
$DIMALTD
 70
     2
  9
$DIMALTF
 40
25.4
  9
$DIMLFAC
 40
1.0
  9
$DIMTOFL
 70
     0
  9
$DIMTVP
 40
0.0
  9
$DIMTIX
 70
     0
  9
$DIMSOXD
 70
     0
  9
$DIMSAH
 70
     0
  9
$DIMBLK1
  1

  9
$DIMBLK2
  1

  9
$DIMSTYLE
  2
STANDARD
  9
$DIMCLRD
 70
     0
  9
$DIMCLRE
 70
     0
  9
$DIMCLRT
 70
     0
  9
$DIMTFAC
 40
1.0
  9
$DIMGAP
 40
0.09
  9
$LUNITS
 70
     2
  9
$LUPREC
 70
     4
  9
$AXISMODE
 70
     0
  9
$AXISUNIT
 10
0.0
 20
0.0
  9
$SKETCHINC
 40
0.1
  9
$FILLETRAD
 40
0.0
  9
$AUNITS
 70
     0
  9
$AUPREC
 70
     0
  9
$MENU
  1
acad
  9
$ELEVATION
 40
0.0
  9
$PELEVATION
 40
0.0
  9
$THICKNESS
 40
0.0
  9
$LIMCHECK
 70
     0
  9
$BLIPMODE
 70
     1
  9
$CHAMFERA
 40
0.0
  9
$CHAMFERB
 40
0.0
  9
$SKPOLY
 70
     0
  9
$TDCREATE
 40
2453013.901666667
  9
$TDUPDATE
 40
2453013.901666667
  9
$TDINDWG
 40
0.0000000000
  9
$TDUSRTIMER
 40
0.0000000000
  9
$USRTIMER
 70
     1
  9
$ANGBASE
 50
0.0
  9
$ANGDIR
 70
     0
  9
$PDMODE
 70
     0
  9
$PDSIZE
 40
0.0
  9
$PLINEWID
 40
0.0
  9
$COORDS
 70
     0
  9
$SPLFRAME
 70
     0
  9
$SPLINETYPE
 70
     6
  9
$SPLINESEGS
 70
    10
  9
$ATTDIA
 70
     0
  9
$ATTREQ
 70
     1
  9
$HANDLING
 70
     1
  9
$HANDSEED
  5
1D0
  9
$SURFTAB1
 70
     6
  9
$SURFTAB2
 70
     6
  9
$SURFTYPE
 70
     6
  9
$SURFU
 70
     6
  9
$SURFV
 70
     6
  9
$UCSNAME
  2

  9
$UCSORG
 10
0.0
 20
0.0
 30
0.0
  9
$UCSXDIR
 10
1.0
 20
0.0
 30
0.0
  9
$UCSYDIR
 10
0.0
 20
1.0
 30
0.0
  9
$PUCSNAME
  2

  9
$PUCSORG
 10
0.0
 20
0.0
 30
0.0
  9
$PUCSXDIR
 10
1.0
 20
0.0
 30
0.0
  9
$PUCSYDIR
 10
0.0
 20
1.0
 30
0.0
  9
$USERI1
 70
     0
  9
$USERI2
 70
     0
  9
$USERI3
 70
     0
  9
$USERI4
 70
     0
  9
$USERI5
 70
     0
  9
$USERR1
 40
0.0
  9
$USERR2
 40
0.0
  9
$USERR3
 40
0.0
  9
$USERR4
 40
0.0
  9
$USERR5
 40
0.0
  9
$WORLDVIEW
 70
     1
  9
$SHADEDGE
 70
     3
  9
$SHADEDIF
 70
    70
  9
$TILEMODE
 70
     1
  9
$MAXACTVP
 70
    16
  9
$PINSBASE
 10
0.0
 20
0.0
 30
0.0
  9
$PLIMCHECK
 70
     0
  9
$PEXTMIN
 10
-1.000000E+20
 20
-1.000000E+20
 30
-1.000000E+20
  9
$PEXTMAX
 10
-1.000000E+20
 20
-1.000000E+20
 30
-1.000000E+20
  9
$PLIMMIN
 10
0.0
 20
0.0
  9
$PLIMMAX
 10
12.0
 20
9.0
  9
$UNITMODE
 70
     0
  9
$VISRETAIN
 70
     0
  9
$PLINEGEN
 70
     1
  9
$PSLTSCALE
 70
     0
  9
$TREEDEPTH
 70
  3020
  9
$DWGCODEPAGE
  3
ansi_1252
  0
ENDSEC
  0
SECTION
  2
TABLES
  0
TABLE
  2
VPORT
 70
     1
  0
VPORT
  2
*ACTIVE
 70
     0
 10
0.0
 20
0.0
 11
1.0
 21
1.0
 12
0.0
 22
0.0
 13
0.0
 23
0.0
 14
0.0
 24
0.0
 15
0.0
 25
0.0
 16
0.0
 26
0.0
 36
1.0
 17
918842.825098
 27
7287580.450552
 37
0.0
 40
6005.421683
 41
1.732657
 42
50.0
 43
0.004
 44
0.0
 50
1.866566
 51
0.0
 71
     0
 72
   100
 73
     1
 74
     0
 75
     0
 76
     0
 77
     0
 78
     0
  0
ENDTAB
  0
TABLE
  2
LTYPE
 70
     7
  0
LTYPE
  2
CONTINUOUS
 70
     0
  3
Solid line
 72
    65
 73
     0
 40
0.0
  0
LTYPE
  2
DOT
 70
    64
  3
. . . . . . . . . . . . . . . . . . . . . . . . . . . . . . . . .
 72
    65
 73
     2
 40
0.25
 49
0.0
 49
-0.25
  0
LTYPE
  2
HIDDEN
 70
    64
  3
__ __ __ __ __ __ __ __ __ __ __ __ __ __ __ __ __ __ __ __ __ 
 72
    65
 73
     2
 40
0.375
 49
0.25
 49
-0.125
  0
LTYPE
  2
DASHED
 70
    64
  3
__ __ __ __ __ __ __ __ __ __ __ __ __ __ __ __ __ __ __ __ __
 72
    65
 73
     2
 40
0.75
 49
0.5
 49
-0.25
  0
LTYPE
  2
DASHDOT
 70
    64
  3
__ . __ . __ . __ . __ . __ . __ . __ . __ . __ . __ . __ . _
 72
    65
 73
     4
 40
1.0
 49
0.5
 49
-0.25
 49
0.0
 49
-0.25
  0
LTYPE
  2
DIVIDE
 70
    64
  3
____ . . ____ . . ____ . . ____ . . ____ . . ____ . . ____ . .
 72
    65
 73
     6
 40
1.25
 49
0.5
 49
-0.25
 49
0.0
 49
-0.25
 49
0.0
 49
-0.25
  0
LTYPE
  2
CENTER
 70
    64
  3
____ _ ____ _ ____ _ ____ _ ____ _ ____ _ ____ _ ____ _ ____ _
 72
    65
 73
     4
 40
2.0
 49
1.25
 49
-0.25
 49
0.25
 49
-0.25
  0
ENDTAB
  0
TABLE
  2
LAYER
 70
    14
  0
LAYER
  2
0
 70
     0
 62
     7
  6
CONTINUOUS
  0
LAYER
  2
CONSTRUCTION_CLASS
 70
     1
 62
     7
  6
CONTINUOUS
  0
LAYER
  2
PATTERN_CLASS
 70
     0
 62
     7
  6
CONTINUOUS
  0
LAYER
  2
6
 70
    64
 62
     7
  6
CONTINUOUS
  0
LAYER
  2
7
 70
    64
 62
     7
  6
CONTINUOUS
  0
LAYER
  2
15
 70
    64
 62
     7
  6
CONTINUOUS
  0
LAYER
  2
11
 70
    64
 62
     7
  6
CONTINUOUS
  0
LAYER
  2
21
 70
    64
 62
     7
  6
CONTINUOUS
  0
LAYER
  2
22
 70
    64
 62
     7
  6
CONTINUOUS
  0
LAYER
  2
1
 70
    64
 62
     7
  6
CONTINUOUS
  0
LAYER
  2
19
 70
    64
 62
     7
  6
CONTINUOUS
  0
LAYER
  2
58
 70
    64
 62
     7
  6
CONTINUOUS
  0
LAYER
  2
10
 70
    64
 62
     7
  6
CONTINUOUS
  0
LAYER
  2
13
 70
    64
 62
     7
  6
CONTINUOUS
  0
ENDTAB
  0
TABLE
  2
STYLE
 70
     4
  0
STYLE
  2
STANDARD
 70
     0
 40
0.0
 41
1.0
 50
0.0
 71
     0
 42
0.0
  3
txt
  4

  0
STYLE
  2
ROMANC
 70
     0
 40
0.2
 41
1.0
 50
0.0
 71
     0
 42
0.2
  3
ROMANC
  4

  0
STYLE
  2
ROMANS
 70
     0
 40
0.2
 41
1.0
 50
0.0
 71
     0
 42
0.2
  3
ROMANS
  4

  0
STYLE
  2
txt
 70
     0
 40
0.2
 41
1.0
 50
0.0
 71
     0
 42
0.2
  3
TXT
  4

  0
ENDTAB
  0
TABLE
  2
VIEW
 70
     0
  0
ENDTAB
  0
TABLE
  2
UCS
 70
     0
  0
ENDTAB
  0
TABLE
  2
APPID
 70
     1
  0
APPID
  2
ACAD
 70
     0
  0
ENDTAB
  0
TABLE
  2
DIMSTYLE
 70
     1
  0
DIMSTYLE
  2
STANDARD
 70
     0
  3

  4

  5

  6

  7

 40
1.0
 41
0.18
 42
0.0625
 43
0.38
 44
0.18
 45
0.0
 46
0.0
 47
0.0
 48
0.0
140
0.18
141
0.09
142
0.0
143
25.4
144
1.0
145
0.0
146
1.0
147
0.09
 71
     0
 72
     0
 73
     1
 74
     1
 75
     0
 76
     0
 77
     0
 78
     0
170
     0
171
     2
172
     0
173
     0
174
     0
175
     0
176
     0
177
     0
178
     0
  0
ENDTAB
  0
ENDSEC
  0
SECTION
  2
BLOCKS
  0
ENDSEC
  0
SECTION
  2
ENTITIES
  0
LINE
  8
6
  6
CONTINUOUS
 62
     7
  5
29
 10
921327.952
 20
7284754.458
 30
0.0
 11
916167.231
 21
7284899.114
 31
0.0
  0
POLYLINE
  8
6
  6
CONTINUOUS
 62
     7
  5
2A
 66
     1
 10
0.0
 20
0.0
 30
0.0
  0
VERTEX
  8
6
  6
CONTINUOUS
 62
     7
  5
2B
 10
920897.078
 20
7289953.811
 30
0.0
  0
VERTEX
  8
6
  6
CONTINUOUS
 62
     7
  5
2C
 10
920837.666
 20
7288130.778
 30
0.0
  0
VERTEX
  8
6
  6
CONTINUOUS
 62
     7
  5
2D
 10
921437.348
 20
7288111.235
 30
0.0
  0
SEQEND
  8
6
  6
CONTINUOUS
 62
     7
  5
2E
  0
LINE
  8
6
  6
CONTINUOUS
 62
     7
  5
2F
 10
920896.101
 20
7289923.826
 30
0.0
 11
920576.271
 21
7289934.249
 31
0.0
  0
LINE
  8
6
  6
CONTINUOUS
 62
     7
  5
30
 10
920486.319
 20
7289937.181
 30
0.0
 11
920163.81
 21
7289947.692
 31
0.0
  0
ARC
  8
6
  6
CONTINUOUS
 62
     7
  5
31
 10
920575.782041
 20
7289919.257412
 30
0.0
 40
15.0
 50
88.1334
 51
178.1334
210
0.0
220
0.0
230
1.0
  0
ARC
  8
6
  6
CONTINUOUS
 62
     7
  5
32
 10
920485.829959
 20
7289922.188588
 30
0.0
 40
15.0
 50
358.1334
 51
88.1334
210
0.0
220
0.0
230
1.0
  0
LINE
  8
6
  6
CONTINUOUS
 62
     7
  5
33
 10
920859.717
 20
7288807.419
 30
0.0
 11
920539.887
 21
7288817.842
 31
0.0
  0
LINE
  8
6
  6
CONTINUOUS
 62
     7
  5
34
 10
920525.384
 20
7288833.323
 30
0.0
 11
920560.79
 21
7289919.746
 31
0.0
  0
ARC
  8
6
  6
CONTINUOUS
 62
     7
  5
35
 10
920540.376383
 20
7288832.833908
 30
0.0
 40
15.0
 50
178.1334
 51
268.1334
210
0.0
220
0.0
230
1.0
  0
LINE
  8
6
  6
CONTINUOUS
 62
     7
  5
36
 10
920449.936
 20
7288820.774
 30
0.0
 11
920127.426
 21
7288831.285
 31
0.0
  0
LINE
  8
6
  6
CONTINUOUS
 62
     7
  5
37
 10
920500.822
 20
7289921.7
 30
0.0
 11
920465.416
 21
7288835.277
 31
0.0
  0
ARC
  8
6
  6
CONTINUOUS
 62
     7
  5
38
 10
920450.42414
 20
7288835.765438
 30
0.0
 40
15.0
 50
268.1334
 51
358.1334
210
0.0
220
0.0
230
1.0
  0
LINE
  8
6
  6
CONTINUOUS
 62
     7
  5
39
 10
920448.111
 20
7288764.804
 30
0.0
 11
920125.602
 21
7288775.314
 31
0.0
  0
LINE
  8
6
  6
CONTINUOUS
 62
     7
  5
3A
 10
920462.615
 20
7288749.322
 30
0.0
 11
920432.257
 21
7287817.817
 31
0.0
  0
LINE
  8
6
  6
CONTINUOUS
 62
     7
  5
3B
 10
921409.652
 20
7287721.93
 30
0.0
 11
920555.106
 21
7287749.78
 31
0.0
  0
ARC
  8
6
  6
CONTINUOUS
 62
     7
  5
3C
 10
920557.190509
 20
7287813.745784
 30
0.0
 40
65.0
 50
178.1334
 51
268.1334
210
0.0
220
0.0
230
1.0
  0
ARC
  8
6
  6
CONTINUOUS
 62
     7
  5
3D
 10
920557.190672
 20
7287813.745431
 30
0.0
 40
125.0
 50
178.1334
 51
268.1334
210
0.0
220
0.0
230
1.0
  0
LINE
  8
6
  6
CONTINUOUS
 62
     7
  5
3E
 10
920553.119
 20
7287688.812
 30
0.0
 11
921407.665
 21
7287660.962
 31
0.0
  0
LINE
  8
6
  6
CONTINUOUS
 62
     7
  5
3F
 10
921327.952
 20
7284754.458
 30
0.0
 11
921422.169
 21
7287645.482
 31
0.0
  0
LINE
  8
6
  6
CONTINUOUS
 62
     7
  5
40
 10
921425.133
 20
7287736.433
 30
0.0
 11
921496.769
 21
7289934.566
 31
0.0
  0
ARC
  8
6
  6
CONTINUOUS
 62
     7
  5
41
 10
921407.17715
 20
7287645.970213
 30
0.0
 40
15.0
 50
358.1334
 51
88.1334
210
0.0
220
0.0
230
1.0
  0
ARC
  8
6
  6
CONTINUOUS
 62
     7
  5
42
 10
921410.141252
 20
7287736.921926
 30
0.0
 40
15.0
 50
268.1334
 51
358.1334
210
0.0
220
0.0
230
1.0
  0
LINE
  8
7
  6
CONTINUOUS
 62
     7
  5
44
 10
921245.183
 20
7287326.078
 30
0.0
 11
921255.352
 21
7287665.926
 31
0.0
  0
LINE
  8
7
  6
CONTINUOUS
 62
     7
  5
45
 10
921075.273
 20
7287331.615
 30
0.0
 11
921085.442
 21
7287671.463
 31
0.0
  0
LINE
  8
7
  6
CONTINUOUS
 62
     7
  5
46
 10
920905.362
 20
7287337.152
 30
0.0
 11
920915.531
 21
7287677.001
 31
0.0
  0
LINE
  8
7
  6
CONTINUOUS
 62
     7
  5
47
 10
920735.452
 20
7287342.69
 30
0.0
 11
920745.621
 21
7287682.538
 31
0.0
  0
LINE
  8
7
  6
CONTINUOUS
 62
     7
  5
48
 10
920565.541
 20
7287348.227
 30
0.0
 11
920575.71
 21
7287688.076
 31
0.0
  0
LINE
  8
7
  6
CONTINUOUS
 62
     7
  5
49
 10
921288.83
 20
7288116.075
 30
0.0
 11
921277.165
 21
7287726.248
 31
0.0
  0
LINE
  8
7
  6
CONTINUOUS
 62
     7
  5
4A
 10
921138.909
 20
7288120.961
 30
0.0
 11
921127.244
 21
7287731.134
 31
0.0
  0
LINE
  8
7
  6
CONTINUOUS
 62
     7
  5
4B
 10
920988.988
 20
7288125.847
 30
0.0
 11
920977.323
 21
7287736.02
 31
0.0
  0
LINE
  8
7
  6
CONTINUOUS
 62
     7
  5
4C
 10
920837.666
 20
7288130.778
 30
0.0
 11
920826.002
 21
7287740.952
 31
0.0
  0
LINE
  8
7
  6
CONTINUOUS
 62
     7
  5
4D
 10
920285.86
 20
7287363.077
 30
0.0
 11
920489.329
 21
7287716.75
 31
0.0
  0
LINE
  8
7
  6
CONTINUOUS
 62
     7
  5
4E
 10
920088.655
 20
7287549.059
 30
0.0
 11
920438.809
 21
7287788.122
 31
0.0
  0
LINE
  8
7
  6
CONTINUOUS
 62
     7
  5
4F
 10
920122.451
 20
7288678.553
 30
0.0
 11
920459.98
 21
7288668.454
 31
0.0
  0
LINE
  8
7
  6
CONTINUOUS
 62
     7
  5
50
 10
920118.563
 20
7288548.611
 30
0.0
 11
920456.092
 21
7288538.512
 31
0.0
  0
LINE
  8
7
  6
CONTINUOUS
 62
     7
  5
51
 10
920114.675
 20
7288418.67
 30
0.0
 11
920452.204
 21
7288408.57
 31
0.0
  0
LINE
  8
7
  6
CONTINUOUS
 62
     7
  5
52
 10
920110.787
 20
7288288.728
 30
0.0
 11
920448.316
 21
7288278.628
 31
0.0
  0
LINE
  8
7
  6
CONTINUOUS
 62
     7
  5
53
 10
920106.899
 20
7288158.786
 30
0.0
 11
920444.428
 21
7288148.686
 31
0.0
  0
LINE
  8
7
  6
CONTINUOUS
 62
     7
  5
54
 10
920102.861
 20
7288023.846
 30
0.0
 11
920440.39
 21
7288013.747
 31
0.0
  0
LINE
  8
7
  6
CONTINUOUS
 62
     7
  5
55
 10
920098.823
 20
7287888.907
 30
0.0
 11
920436.352
 21
7287878.807
 31
0.0
  0
LINE
  8
7
  6
CONTINUOUS
 62
     7
  5
56
 10
920854.804
 20
7288656.64
 30
0.0
 11
920519.953
 21
7288666.659
 31
0.0
  0
LINE
  8
7
  6
CONTINUOUS
 62
     7
  5
57
 10
920850.915
 20
7288526.698
 30
0.0
 11
920516.065
 21
7288536.717
 31
0.0
  0
LINE
  8
7
  6
CONTINUOUS
 62
     7
  5
58
 10
920847.027
 20
7288396.756
 30
0.0
 11
920512.177
 21
7288406.776
 31
0.0
  0
LINE
  8
7
  6
CONTINUOUS
 62
     7
  5
59
 10
920843.139
 20
7288266.814
 30
0.0
 11
920508.289
 21
7288276.834
 31
0.0
  0
LINE
  8
7
  6
CONTINUOUS
 62
     7
  5
5A
 10
920837.666
 20
7288130.778
 30
0.0
 11
920502.816
 21
7288140.797
 31
0.0
  0
LINE
  8
7
  6
CONTINUOUS
 62
     7
  5
5B
 10
920833.748
 20
7287999.837
 30
0.0
 11
920498.898
 21
7288009.856
 31
0.0
  0
LINE
  8
7
  6
CONTINUOUS
 62
     7
  5
5C
 10
920829.86
 20
7287869.895
 30
0.0
 11
920495.01
 21
7287879.914
 31
0.0
  0
LINE
  8
7
  6
CONTINUOUS
 62
     7
  5
5D
 10
920890.489
 20
7289826.095
 30
0.0
 11
920555.639
 21
7289836.115
 31
0.0
  0
LINE
  8
7
  6
CONTINUOUS
 62
     7
  5
5E
 10
920886.601
 20
7289696.154
 30
0.0
 11
920551.751
 21
7289706.173
 31
0.0
  0
LINE
  8
7
  6
CONTINUOUS
 62
     7
  5
5F
 10
920882.713
 20
7289566.212
 30
0.0
 11
920547.862
 21
7289576.231
 31
0.0
  0
LINE
  8
7
  6
CONTINUOUS
 62
     7
  5
60
 10
920878.824
 20
7289436.27
 30
0.0
 11
920543.974
 21
7289446.289
 31
0.0
  0
LINE
  8
7
  6
CONTINUOUS
 62
     7
  5
61
 10
920874.936
 20
7289306.328
 30
0.0
 11
920540.086
 21
7289316.347
 31
0.0
  0
LINE
  8
7
  6
CONTINUOUS
 62
     7
  5
62
 10
920871.048
 20
7289176.386
 30
0.0
 11
920536.198
 21
7289186.406
 31
0.0
  0
LINE
  8
7
  6
CONTINUOUS
 62
     7
  5
63
 10
920867.16
 20
7289046.444
 30
0.0
 11
920532.31
 21
7289056.464
 31
0.0
  0
LINE
  8
7
  6
CONTINUOUS
 62
     7
  5
64
 10
920863.272
 20
7288916.502
 30
0.0
 11
920528.422
 21
7288926.522
 31
0.0
  0
LINE
  8
7
  6
CONTINUOUS
 62
     7
  5
65
 10
920158.137
 20
7289848.009
 30
0.0
 11
920495.666
 21
7289837.909
 31
0.0
  0
LINE
  8
7
  6
CONTINUOUS
 62
     7
  5
66
 10
920154.248
 20
7289718.067
 30
0.0
 11
920491.777
 21
7289707.967
 31
0.0
  0
LINE
  8
7
  6
CONTINUOUS
 62
     7
  5
67
 10
920150.36
 20
7289588.125
 30
0.0
 11
920487.889
 21
7289578.026
 31
0.0
  0
LINE
  8
7
  6
CONTINUOUS
 62
     7
  5
68
 10
920146.472
 20
7289458.183
 30
0.0
 11
920484.001
 21
7289448.084
 31
0.0
  0
LINE
  8
7
  6
CONTINUOUS
 62
     7
  5
69
 10
920142.584
 20
7289328.242
 30
0.0
 11
920480.113
 21
7289318.142
 31
0.0
  0
LINE
  8
7
  6
CONTINUOUS
 62
     7
  5
6A
 10
920138.696
 20
7289198.3
 30
0.0
 11
920476.225
 21
7289188.2
 31
0.0
  0
LINE
  8
7
  6
CONTINUOUS
 62
     7
  5
6B
 10
920134.808
 20
7289068.358
 30
0.0
 11
920472.337
 21
7289058.258
 31
0.0
  0
LINE
  8
7
  6
CONTINUOUS
 62
     7
  5
6C
 10
920130.92
 20
7288938.416
 30
0.0
 11
920468.449
 21
7288928.316
 31
0.0
  0
LINE
  8
6
  6
CONTINUOUS
 62
     7
  5
6D
 10
920522.583
 20
7288747.368
 30
0.0
 11
920492.225
 21
7287815.863
 31
0.0
  0
LINE
  8
6
  6
CONTINUOUS
 62
     7
  5
6E
 10
920857.893
 20
7288751.449
 30
0.0
 11
920538.063
 21
7288761.872
 31
0.0
  0
ARC
  8
6
  6
CONTINUOUS
 62
     7
  5
6F
 10
920523.072658
 20
7288762.359139
 30
0.0
 40
0.001
 50
88.1334
 51
178.1334
210
0.0
220
0.0
230
1.0
  0
ARC
  8
6
  6
CONTINUOUS
 62
     7
  5
70
 10
920537.575144
 20
7288746.879542
 30
0.0
 40
15.0
 50
88.1334
 51
178.1334
210
0.0
220
0.0
230
1.0
  0
ARC
  8
6
  6
CONTINUOUS
 62
     7
  5
71
 10
920447.6229
 20
7288749.811072
 30
0.0
 40
15.0
 50
358.1334
 51
88.1334
210
0.0
220
0.0
230
1.0
  0
TEXT
  8
15
  6
CONTINUOUS
 62
    30
  5
74
 10
920173.394
 20
7289308.323
 30
0.0
 40
50.0
  1
WEST
 50
28.2861
  7
ROMANC
 72
     4
 11
920253.414051
 21
7289379.774301
 31
0.0
210
0.0
220
0.0
230
1.0
  0
TEXT
  8
15
  6
CONTINUOUS
 62
    30
  5
75
 10
920481.758
 20
7288928.441
 30
0.0
 40
50.0
  1
ACRES
 50
28.2861
  7
ROMANC
 72
     4
 11
920582.231569
 21
7289010.898986
 31
0.0
210
0.0
220
0.0
230
1.0
  0
TEXT
  8
15
  6
CONTINUOUS
 62
    30
  5
76
 10
920688.955
 20
7287388.254
 30
0.0
 40
50.0
  1
ACRES
 50
28.2861
  7
ROMANC
 72
     4
 11
920789.428569
 21
7287470.711986
 31
0.0
210
0.0
220
0.0
230
1.0
  0
TEXT
  8
15
  6
CONTINUOUS
 62
    30
  5
77
 10
920463.521
 20
7288013.302
 30
0.0
 40
50.0
  1
WEST
 50
28.2861
  7
ROMANC
 72
     4
 11
920543.541051
 21
7288084.753301
 31
0.0
210
0.0
220
0.0
230
1.0
  0
TEXT
  8
11
  6
CONTINUOUS
 62
     7
  5
7A
 10
921180.654
 20
7289966.01
 30
0.0
 40
8.0
  1
600'
 50
358.2861
  7
ROMANS
210
0.0
220
0.0
230
1.0
  0
TEXT
  8
11
  6
CONTINUOUS
 62
     7
  5
7B
 10
920491.467
 20
7289985.678
 30
0.0
 40
8.0
  1
732.68'
 50
358.2861
  7
ROMANS
210
0.0
220
0.0
230
1.0
  0
TEXT
  8
11
  6
CONTINUOUS
 62
     7
  5
7C
 10
920520.915
 20
7289906.363
 30
0.0
 40
8.0
  1
60'
 50
358.2861
  7
ROMANS
210
0.0
220
0.0
230
1.0
  0
TEXT
  8
11
  6
CONTINUOUS
 62
     7
  5
7D
 10
920489.831
 20
7288867.515
 30
0.0
 40
8.0
  1
60'
 50
358.2861
  7
ROMANS
210
0.0
220
0.0
230
1.0
  0
TEXT
  8
11
  6
CONTINUOUS
 62
     7
  5
7E
 10
920485.26
 20
7288737.922
 30
0.0
 40
8.0
  1
60'
 50
358.2861
  7
ROMANS
210
0.0
220
0.0
230
1.0
  0
TEXT
  8
11
  6
CONTINUOUS
 62
     7
  5
7F
 10
920722.712
 20
7289923.56
 30
0.0
 40
8.0
  1
320'
 50
358.2861
  7
ROMANS
210
0.0
220
0.0
230
1.0
  0
TEXT
  8
11
  6
CONTINUOUS
 62
     7
  5
80
 10
920719.586
 20
7289819.095
 30
0.0
 40
8.0
  1
335'
 50
358.2861
  7
ROMANS
210
0.0
220
0.0
230
1.0
  0
TEXT
  8
11
  6
CONTINUOUS
 62
     7
  5
81
 10
920692.843
 20
7288925.337
 30
0.0
 40
8.0
  1
335'
 50
358.2861
  7
ROMANS
210
0.0
220
0.0
230
1.0
  0
TEXT
  8
11
  6
CONTINUOUS
 62
     7
  5
82
 10
920676.155
 20
7288823.215
 30
0.0
 40
8.0
  1
320'
 50
358.2861
  7
ROMANS
210
0.0
220
0.0
230
1.0
  0
TEXT
  8
11
  6
CONTINUOUS
 62
     7
  5
83
 10
920674.013
 20
7288751.637
 30
0.0
 40
8.0
  1
320'
 50
358.2861
  7
ROMANS
210
0.0
220
0.0
230
1.0
  0
TEXT
  8
11
  6
CONTINUOUS
 62
     7
  5
84
 10
920264.075
 20
7288763.903
 30
0.0
 40
8.0
  1
323.49'
 50
358.2861
  7
ROMANS
210
0.0
220
0.0
230
1.0
  0
TEXT
  8
11
  6
CONTINUOUS
 62
     7
  5
85
 10
920266.216
 20
7288835.481
 30
0.0
 40
8.0
  1
323.46'
 50
358.2861
  7
ROMANS
210
0.0
220
0.0
230
1.0
  0
TEXT
  8
11
  6
CONTINUOUS
 62
     7
  5
86
 10
920286.772
 20
7288937.487
 30
0.0
 40
8.0
  1
338.40'
 50
358.2861
  7
ROMANS
210
0.0
220
0.0
230
1.0
  0
TEXT
  8
11
  6
CONTINUOUS
 62
     7
  5
87
 10
920290.65
 20
7289067.102
 30
0.0
 40
8.0
  1
338.33'
 50
358.2861
  7
ROMANS
210
0.0
220
0.0
230
1.0
  0
TEXT
  8
11
  6
CONTINUOUS
 62
     7
  5
88
 10
920294.528
 20
7289196.716
 30
0.0
 40
8.0
  1
338.25'
 50
358.2861
  7
ROMANS
210
0.0
220
0.0
230
1.0
  0
TEXT
  8
11
  6
CONTINUOUS
 62
     7
  5
89
 10
920298.349
 20
7289324.396
 30
0.0
 40
8.0
  1
338.18'
 50
358.2861
  7
ROMANS
210
0.0
220
0.0
230
1.0
  0
TEXT
  8
11
  6
CONTINUOUS
 62
     7
  5
8A
 10
920302.285
 20
7289455.944
 30
0.0
 40
8.0
  1
338.10'
 50
358.2861
  7
ROMANS
210
0.0
220
0.0
230
1.0
  0
TEXT
  8
11
  6
CONTINUOUS
 62
     7
  5
8B
 10
920306.221
 20
7289587.493
 30
0.0
 40
8.0
  1
338.02'
 50
358.2861
  7
ROMANS
210
0.0
220
0.0
230
1.0
  0
TEXT
  8
11
  6
CONTINUOUS
 62
     7
  5
8C
 10
920310.099
 20
7289717.107
 30
0.0
 40
8.0
  1
337.95'
 50
358.2861
  7
ROMANS
210
0.0
220
0.0
230
1.0
  0
TEXT
  8
11
  6
CONTINUOUS
 62
     7
  5
8D
 10
920313.978
 20
7289846.721
 30
0.0
 40
8.0
  1
337.87'
 50
358.2861
  7
ROMANS
210
0.0
220
0.0
230
1.0
  0
TEXT
  8
11
  6
CONTINUOUS
 62
     7
  5
8E
 10
920316.641
 20
7289935.71
 30
0.0
 40
8.0
  1
322.81'
 50
358.2861
  7
ROMANS
210
0.0
220
0.0
230
1.0
  0
TEXT
  8
11
  6
CONTINUOUS
 62
     7
  5
8F
 10
920184.47
 20
7289972.84
 30
0.0
 40
8.0
  1
55'
 50
88.2861
  7
ROMANS
210
0.0
220
0.0
230
1.0
  0
TEXT
  8
11
  6
CONTINUOUS
 62
     7
  5
90
 10
920867.096
 20
7289951.462
 30
0.0
 40
8.0
  1
55'
 50
88.2861
  7
ROMANS
210
0.0
220
0.0
230
1.0
  0
TEXT
  8
11
  6
CONTINUOUS
 62
     7
  5
91
 10
920887.715
 20
7289866.601
 30
0.0
 40
8.0
  1
105'
 50
88.2861
  7
ROMANS
210
0.0
220
0.0
230
1.0
  0
TEXT
  8
11
  6
CONTINUOUS
 62
     7
  5
92
 10
920568.659
 20
7289876.148
 30
0.0
 40
8.0
  1
90'
 50
88.2861
  7
ROMANS
210
0.0
220
0.0
230
1.0
  0
TEXT
  8
11
  6
CONTINUOUS
 62
     7
  5
93
 10
920495.179
 20
7289878.347
 30
0.0
 40
8.0
  1
90'
 50
88.2861
  7
ROMANS
210
0.0
220
0.0
230
1.0
  0
TEXT
  8
11
  6
CONTINUOUS
 62
     7
  5
94
 10
920170.321
 20
7289888.067
 30
0.0
 40
8.0
  1
105'
 50
88.2861
  7
ROMANS
210
0.0
220
0.0
230
1.0
  0
TEXT
  8
11
  6
CONTINUOUS
 62
     7
  5
95
 10
920140.047
 20
7288876.303
 30
0.0
 40
8.0
  1
102'
 50
88.2861
  7
ROMANS
210
0.0
220
0.0
230
1.0
  0
TEXT
  8
11
  6
CONTINUOUS
 62
     7
  5
96
 10
920857.441
 20
7288854.837
 30
0.0
 40
8.0
  1
102'
 50
88.2861
  7
ROMANS
210
0.0
220
0.0
230
1.0
  0
TEXT
  8
11
  6
CONTINUOUS
 62
     7
  5
97
 10
920539.544
 20
7288870.308
 30
0.0
 40
8.0
  1
87'
 50
88.2861
  7
ROMANS
210
0.0
220
0.0
230
1.0
  0
TEXT
  8
11
  6
CONTINUOUS
 62
     7
  5
98
 10
920464.128
 20
7288874.471
 30
0.0
 40
8.0
  1
87'
 50
88.2861
  7
ROMANS
210
0.0
220
0.0
230
1.0
  0
TEXT
  8
11
  6
CONTINUOUS
 62
     7
  5
99
 10
920467.308
 20
7288980.751
 30
0.0
 40
8.0
  1
130'
 50
88.2861
  7
ROMANS
210
0.0
220
0.0
230
1.0
  0
TEXT
  8
11
  6
CONTINUOUS
 62
     7
  5
9A
 10
920489.686
 20
7289760.489
 30
0.0
 40
8.0
  1
130'
 50
88.2861
  7
ROMANS
210
0.0
220
0.0
230
1.0
  0
TEXT
  8
11
  6
CONTINUOUS
 62
     7
  5
9B
 10
920564.094
 20
7289755.404
 30
0.0
 40
8.0
  1
130'
 50
88.2861
  7
ROMANS
210
0.0
220
0.0
230
1.0
  0
TEXT
  8
11
  6
CONTINUOUS
 62
     7
  5
9C
 10
920540.758
 20
7288975.544
 30
0.0
 40
8.0
  1
130'
 50
88.2861
  7
ROMANS
210
0.0
220
0.0
230
1.0
  0
TEXT
  8
11
  6
CONTINUOUS
 62
     7
  5
9D
 10
920136.833
 20
7288724.982
 30
0.0
 40
8.0
  1
102'
 50
88.2861
  7
ROMANS
210
0.0
220
0.0
230
1.0
  0
TEXT
  8
11
  6
CONTINUOUS
 62
     7
  5
9E
 10
920852.293
 20
7288703.574
 30
0.0
 40
8.0
  1
102'
 50
88.2861
  7
ROMANS
210
0.0
220
0.0
230
1.0
  0
TEXT
  8
11
  6
CONTINUOUS
 62
     7
  5
9F
 10
920535.17
 20
7288713.063
 30
0.0
 40
8.0
  1
87'
 50
88.2861
  7
ROMANS
210
0.0
220
0.0
230
1.0
  0
TEXT
  8
11
  6
CONTINUOUS
 62
     7
  5
A0
 10
920457.823
 20
7288715.377
 30
0.0
 40
8.0
  1
87'
 50
88.2861
  7
ROMANS
210
0.0
220
0.0
230
1.0
  0
TEXT
  8
11
  6
CONTINUOUS
 62
     7
  5
A1
 10
920454.118
 20
7288591.567
 30
0.0
 40
8.0
  1
130'
 50
88.2861
  7
ROMANS
210
0.0
220
0.0
230
1.0
  0
TEXT
  8
11
  6
CONTINUOUS
 62
     7
  5
A2
 10
920450.413
 20
7288467.756
 30
0.0
 40
8.0
  1
130'
 50
88.2861
  7
ROMANS
210
0.0
220
0.0
230
1.0
  0
TEXT
  8
11
  6
CONTINUOUS
 62
     7
  5
A3
 10
920446.188
 20
7288326.534
 30
0.0
 40
8.0
  1
130'
 50
88.2861
  7
ROMANS
210
0.0
220
0.0
230
1.0
  0
TEXT
  8
11
  6
CONTINUOUS
 62
     7
  5
A4
 10
920442.541
 20
7288204.659
 30
0.0
 40
8.0
  1
130'
 50
88.2861
  7
ROMANS
210
0.0
220
0.0
230
1.0
  0
TEXT
  8
11
  6
CONTINUOUS
 62
     7
  5
A5
 10
920438.547
 20
7288071.176
 30
0.0
 40
8.0
  1
135'
 50
88.2861
  7
ROMANS
210
0.0
220
0.0
230
1.0
  0
TEXT
  8
11
  6
CONTINUOUS
 62
     7
  5
A6
 10
920434.553
 20
7287937.692
 30
0.0
 40
8.0
  1
135'
 50
88.2861
  7
ROMANS
210
0.0
220
0.0
230
1.0
  0
TEXT
  8
11
  6
CONTINUOUS
 62
     7
  5
A7
 10
920508.351
 20
7287928.342
 30
0.0
 40
8.0
  1
130'
 50
88.2861
  7
ROMANS
210
0.0
220
0.0
230
1.0
  0
TEXT
  8
11
  6
CONTINUOUS
 62
     7
  5
A8
 10
920512.577
 20
7288069.563
 30
0.0
 40
8.0
  1
130'
 50
88.2861
  7
ROMANS
210
0.0
220
0.0
230
1.0
  0
TEXT
  8
11
  6
CONTINUOUS
 62
     7
  5
A9
 10
920517.838
 20
7288198.533
 30
0.0
 40
8.0
  1
130'
 50
88.2861
  7
ROMANS
210
0.0
220
0.0
230
1.0
  0
TEXT
  8
11
  6
CONTINUOUS
 62
     7
  5
AA
 10
920521.601
 20
7288324.278
 30
0.0
 40
8.0
  1
130'
 50
88.2861
  7
ROMANS
210
0.0
220
0.0
230
1.0
  0
TEXT
  8
11
  6
CONTINUOUS
 62
     7
  5
AB
 10
920525.769
 20
7288463.564
 30
0.0
 40
8.0
  1
130'
 50
88.2861
  7
ROMANS
210
0.0
220
0.0
230
1.0
  0
TEXT
  8
11
  6
CONTINUOUS
 62
     7
  5
AC
 10
920529.473
 20
7288587.375
 30
0.0
 40
8.0
  1
130'
 50
88.2861
  7
ROMANS
210
0.0
220
0.0
230
1.0
  0
TEXT
  8
11
  6
CONTINUOUS
 62
     7
  5
AD
 10
920822.302
 20
7288780.131
 30
0.0
 40
8.0
  1
56'
 50
88.2861
  7
ROMANS
210
0.0
220
0.0
230
1.0
  0
TEXT
  8
11
  6
CONTINUOUS
 62
     7
  5
AE
 10
920141.648
 20
7288800.498
 30
0.0
 40
8.0
  1
56'
 50
88.2861
  7
ROMANS
210
0.0
220
0.0
230
1.0
  0
TEXT
  8
11
  6
CONTINUOUS
 62
     7
  5
AF
 10
920686.404
 20
7288665.827
 30
0.0
 40
8.0
  1
335'
 50
358.2861
  7
ROMANS
210
0.0
220
0.0
230
1.0
  0
TEXT
  8
11
  6
CONTINUOUS
 62
     7
  5
B0
 10
920661.519
 20
7287881.048
 30
0.0
 40
8.0
  1
335'
 50
358.2861
  7
ROMANS
210
0.0
220
0.0
230
1.0
  0
TEXT
  8
11
  6
CONTINUOUS
 62
     7
  5
B1
 10
920659.198
 20
7287756.592
 30
0.0
 40
8.0
  1
270'
 50
358.2861
  7
ROMANS
210
0.0
220
0.0
230
1.0
  0
TEXT
  8
11
  6
CONTINUOUS
 62
     7
  5
B2
 10
920278.399
 20
7288678.035
 30
0.0
 40
8.0
  1
338.55'
 50
358.2861
  7
ROMANS
210
0.0
220
0.0
230
1.0
  0
TEXT
  8
11
  6
CONTINUOUS
 62
     7
  5
B3
 10
920274.52
 20
7288548.421
 30
0.0
 40
8.0
  1
338.63'
 50
358.2861
  7
ROMANS
210
0.0
220
0.0
230
1.0
  0
TEXT
  8
11
  6
CONTINUOUS
 62
     7
  5
B4
 10
920272.518
 20
7288416.814
 30
0.0
 40
8.0
  1
338.71'
 50
358.2861
  7
ROMANS
210
0.0
220
0.0
230
1.0
  0
TEXT
  8
11
  6
CONTINUOUS
 62
     7
  5
B5
 10
920268.64
 20
7288287.2
 30
0.0
 40
8.0
  1
338.78'
 50
358.2861
  7
ROMANS
210
0.0
220
0.0
230
1.0
  0
TEXT
  8
11
  6
CONTINUOUS
 62
     7
  5
B6
 10
920264.762
 20
7288157.586
 30
0.0
 40
8.0
  1
338.86'
 50
358.2861
  7
ROMANS
210
0.0
220
0.0
230
1.0
  0
TEXT
  8
11
  6
CONTINUOUS
 62
     7
  5
B7
 10
920260.71
 20
7288022.168
 30
0.0
 40
8.0
  1
338.93'
 50
358.2861
  7
ROMANS
210
0.0
220
0.0
230
1.0
  0
TEXT
  8
11
  6
CONTINUOUS
 62
     7
  5
B8
 10
920256.715
 20
7287888.684
 30
0.0
 40
8.0
  1
339.01'
 50
358.2861
  7
ROMANS
210
0.0
220
0.0
230
1.0
  0
TEXT
  8
11
  6
CONTINUOUS
 62
     7
  5
B9
 10
921129.173
 20
7288134.23
 30
0.0
 40
8.0
  1
600'
 50
358.2861
  7
ROMANS
210
0.0
220
0.0
230
1.0
  0
TEXT
  8
11
  6
CONTINUOUS
 62
     7
  5
BA
 10
921435.904
 20
7287757.161
 30
0.0
 40
8.0
  1
60'
 50
358.2861
  7
ROMANS
210
0.0
220
0.0
230
1.0
  0
TEXT
  8
11
  6
CONTINUOUS
 62
     7
  5
BB
 10
921501.222
 20
7289940.068
 30
0.0
 40
8.0
  1
60'
 50
358.2861
  7
ROMANS
210
0.0
220
0.0
230
1.0
  0
TEXT
  8
11
  6
CONTINUOUS
 62
     7
  5
BC
 10
921465.668
 20
7288751.854
 30
0.0
 40
8.0
  1
60'
 50
358.2861
  7
ROMANS
210
0.0
220
0.0
230
1.0
  0
TEXT
  8
11
  6
CONTINUOUS
 62
     7
  5
BD
 10
921356.804
 20
7286496.821
 30
0.0
 40
8.0
  1
60'
 50
358.2861
  7
ROMANS
210
0.0
220
0.0
230
1.0
  0
TEXT
  8
11
  6
CONTINUOUS
 62
     7
  5
BE
 10
921305.198
 20
7284772.132
 30
0.0
 40
8.0
  1
60'
 50
358.2861
  7
ROMANS
210
0.0
220
0.0
230
1.0
  0
TEXT
  8
11
  6
CONTINUOUS
 62
     7
  5
BF
 10
921349.269
 20
7288110.619
 30
0.0
 40
8.0
  1
150'
 50
358.2861
  7
ROMANS
210
0.0
220
0.0
230
1.0
  0
TEXT
  8
11
  6
CONTINUOUS
 62
     7
  5
C0
 10
921189.147
 20
7287740.831
 30
0.0
 40
8.0
  1
150'
 50
358.2861
  7
ROMANS
210
0.0
220
0.0
230
1.0
  0
TEXT
  8
11
  6
CONTINUOUS
 62
     7
  5
C1
 10
921037.459
 20
7287745.37
 30
0.0
 40
8.0
  1
150'
 50
358.2861
  7
ROMANS
210
0.0
220
0.0
230
1.0
  0
TEXT
  8
11
  6
CONTINUOUS
 62
     7
  5
C2
 10
920890.351
 20
7287748.818
 30
0.0
 40
8.0
  1
150'
 50
358.2861
  7
ROMANS
210
0.0
220
0.0
230
1.0
  0
TEXT
  8
11
  6
CONTINUOUS
 62
     7
  5
C3
 10
921338.039
 20
7287735.318
 30
0.0
 40
8.0
  1
135'
 50
358.2861
  7
ROMANS
210
0.0
220
0.0
230
1.0
  0
TEXT
  8
11
  6
CONTINUOUS
 62
     7
  5
C4
 10
921335.782
 20
7287659.87
 30
0.0
 40
8.0
  1
155'
 50
358.2861
  7
ROMANS
210
0.0
220
0.0
230
1.0
  0
TEXT
  8
11
  6
CONTINUOUS
 62
     7
  5
C5
 10
921326.057
 20
7287334.868
 30
0.0
 40
8.0
  1
170'
 50
358.2861
  7
ROMANS
210
0.0
220
0.0
230
1.0
  0
TEXT
  8
11
  6
CONTINUOUS
 62
     7
  5
C6
 10
921148.159
 20
7287340.191
 30
0.0
 40
8.0
  1
170'
 50
358.2861
  7
ROMANS
210
0.0
220
0.0
230
1.0
  0
TEXT
  8
11
  6
CONTINUOUS
 62
     7
  5
C7
 10
920974.127
 20
7287345.398
 30
0.0
 40
8.0
  1
170'
 50
358.2861
  7
ROMANS
210
0.0
220
0.0
230
1.0
  0
TEXT
  8
11
  6
CONTINUOUS
 62
     7
  5
C8
 10
920809.766
 20
7287350.316
 30
0.0
 40
8.0
  1
170'
 50
358.2861
  7
ROMANS
210
0.0
220
0.0
230
1.0
  0
TEXT
  8
11
  6
CONTINUOUS
 62
     7
  5
C9
 10
920643.469
 20
7287355.292
 30
0.0
 40
8.0
  1
170'
 50
358.2861
  7
ROMANS
210
0.0
220
0.0
230
1.0
  0
TEXT
  8
11
  6
CONTINUOUS
 62
     7
  5
CA
 10
920434.633
 20
7287361.541
 30
0.0
 40
8.0
  1
280'
 50
358.2861
  7
ROMANS
210
0.0
220
0.0
230
1.0
  0
TEXT
  8
11
  6
CONTINUOUS
 62
     7
  5
CB
 10
920179.387
 20
7287369.179
 30
0.0
 40
8.0
  1
204.32'
 50
358.2861
  7
ROMANS
210
0.0
220
0.0
230
1.0
  0
TEXT
  8
11
  6
CONTINUOUS
 62
     7
  5
CC
 10
920556.51
 20
7287683.188
 30
0.0
 40
8.0
  1
20'
 50
358.2861
  7
ROMANS
210
0.0
220
0.0
230
1.0
  0
TEXT
  8
11
  6
CONTINUOUS
 62
     7
  5
CD
 10
920459.119
 20
7287856.494
 30
0.0
 40
8.0
  1
60'
 50
358.2861
  7
ROMANS
210
0.0
220
0.0
230
1.0
  0
TEXT
  8
11
  6
CONTINUOUS
 62
     7
  5
CE
 10
920105.042
 20
7287722.185
 30
0.0
 40
8.0
  1
340'
 50
88.2861
  7
ROMANS
210
0.0
220
0.0
230
1.0
  0
TEXT
  8
11
  6
CONTINUOUS
 62
     7
  5
CF
 10
920096.764
 20
7287445.546
 30
0.0
 40
8.0
  1
180'
 50
88.2861
  7
ROMANS
210
0.0
220
0.0
230
1.0
  0
TEXT
  8
11
  6
CONTINUOUS
 62
     7
  5
D0
 10
920567.145
 20
7287512.795
 30
0.0
 40
8.0
  1
340'
 50
88.2861
  7
ROMANS
210
0.0
220
0.0
230
1.0
  0
TEXT
  8
11
  6
CONTINUOUS
 62
     7
  5
D1
 10
921261.334
 20
7287492.023
 30
0.0
 40
8.0
  1
340'
 50
88.2861
  7
ROMANS
210
0.0
220
0.0
230
1.0
  0
TEXT
  8
11
  6
CONTINUOUS
 62
     7
  5
D2
 10
921416.028
 20
7287487.394
 30
0.0
 40
8.0
  1
325'
 50
88.2861
  7
ROMANS
210
0.0
220
0.0
230
1.0
  0
TEXT
  8
11
  6
CONTINUOUS
 62
     7
  5
D3
 10
920431.902
 20
7287844.072
 30
0.0
 40
8.0
  1
55'
 50
88.2861
  7
ROMANS
210
0.0
220
0.0
230
1.0
  0
TEXT
  8
11
  6
CONTINUOUS
 62
     7
  5
D4
 10
920507.315
 20
7287841.815
 30
0.0
 40
8.0
  1
65'
 50
88.2861
  7
ROMANS
210
0.0
220
0.0
230
1.0
  0
TEXT
  8
11
  6
CONTINUOUS
 62
     7
  5
D5
 10
920843.236
 20
7287925.307
 30
0.0
 40
8.0
  1
390'
 50
88.2861
  7
ROMANS
210
0.0
220
0.0
230
1.0
  0
TEXT
  8
11
  6
CONTINUOUS
 62
     7
  5
D6
 10
921279.928
 20
7287919.383
 30
0.0
 40
8.0
  1
390'
 50
88.2861
  7
ROMANS
210
0.0
220
0.0
230
1.0
  0
TEXT
  8
11
  6
CONTINUOUS
 62
     7
  5
D7
 10
921415.893
 20
7287915.315
 30
0.0
 40
8.0
  1
375'
 50
88.2861
  7
ROMANS
210
0.0
220
0.0
230
1.0
  0
TEXT
  8
11
  6
CONTINUOUS
 62
     7
  5
D8
 10
921389.234
 20
7287691.505
 30
0.0
 40
8.0
  1
60'
 50
88.2861
  7
ROMANS
210
0.0
220
0.0
230
1.0
  0
TEXT
  8
11
  6
CONTINUOUS
 62
     7
  5
D9
 10
920621.564
 20
7287714.475
 30
0.0
 40
8.0
  1
60'
 50
88.2861
  7
ROMANS
210
0.0
220
0.0
230
1.0
  0
TEXT
  8
11
  6
CONTINUOUS
 62
     7
  5
DA
 10
920349.308
 20
7287479.381
 30
0.0
 40
8.0
  1
S
 50
60.088058
  7
ROMANS
 72
     1
 11
920350.561652
 21
7287481.560117
 31
0.0
210
0.0
220
0.0
230
1.0
  0
TEXT
  8
11
  6
CONTINUOUS
 62
     7
  5
DB
 10
920353.376
 20
7287486.451
 30
0.0
 40
8.0
  1
2
 50
60.088058
  7
ROMANS
 72
     1
 11
920354.539393
 21
7287488.473228
 31
0.0
210
0.0
220
0.0
230
1.0
  0
TEXT
  8
11
  6
CONTINUOUS
 62
     7
  5
DC
 10
920357.367
 20
7287493.386
 30
0.0
 40
8.0
  1
8
 50
60.088058
  7
ROMANS
 72
     1
 11
920358.530393
 21
7287495.408228
 31
0.0
210
0.0
220
0.0
230
1.0
  0
TEXT
  8
11
  6
CONTINUOUS
 62
     7
  5
DD
 10
920361.811
 20
7287501.112
 30
0.0
 40
8.0
  1
%%d
 50
60.088058
  7
ROMANS
 72
     1
 11
920362.527587
 21
7287502.357581
 31
0.0
210
0.0
220
0.0
230
1.0
  0
TEXT
  8
11
  6
CONTINUOUS
 62
     7
  5
DE
 10
920365.847
 20
7287508.128
 30
0.0
 40
8.0
  1
1
 50
60.088058
  7
ROMANS
 72
     1
 11
920366.511725
 21
7287509.283435
 31
0.0
210
0.0
220
0.0
230
1.0
  0
TEXT
  8
11
  6
CONTINUOUS
 62
     7
  5
DF
 10
920369.836
 20
7287515.062
 30
0.0
 40
8.0
  1
1
 50
60.088058
  7
ROMANS
 72
     1
 11
920370.500725
 21
7287516.217435
 31
0.0
210
0.0
220
0.0
230
1.0
  0
TEXT
  8
11
  6
CONTINUOUS
 62
     7
  5
E0
 10
920373.826
 20
7287521.997
 30
0.0
 40
8.0
  1
'
 50
60.088058
  7
ROMANS
 72
     1
 11
920374.490725
 21
7287523.152435
 31
0.0
210
0.0
220
0.0
230
1.0
  0
TEXT
  8
11
  6
CONTINUOUS
 62
     7
  5
E1
 10
920377.312
 20
7287528.057
 30
0.0
 40
8.0
  1
5
 50
60.088058
  7
ROMANS
 72
     1
 11
920378.480879
 21
7287530.088762
 31
0.0
210
0.0
220
0.0
230
1.0
  0
TEXT
  8
11
  6
CONTINUOUS
 62
     7
  5
E2
 10
920381.303
 20
7287534.992
 30
0.0
 40
8.0
  1
2
 50
60.088058
  7
ROMANS
 72
     1
 11
920382.466393
 21
7287537.014228
 31
0.0
210
0.0
220
0.0
230
1.0
  0
TEXT
  8
11
  6
CONTINUOUS
 62
     7
  5
E3
 10
920385.166
 20
7287541.708
 30
0.0
 40
8.0
  1
"
 50
60.088058
  7
ROMANS
 72
     1
 11
920386.454061
 21
7287543.946926
 31
0.0
210
0.0
220
0.0
230
1.0
  0
TEXT
  8
11
  6
CONTINUOUS
 62
     7
  5
E4
 10
920389.03
 20
7287548.424
 30
0.0
 40
8.0
  1
W
 50
60.088058
  7
ROMANS
 72
     1
 11
920390.458186
 21
7287550.906495
 31
0.0
210
0.0
220
0.0
230
1.0
  0
TEXT
  8
11
  6
CONTINUOUS
 62
     7
  5
E5
 10
920392.453
 20
7287554.375
 30
0.0
 40
8.0
  1
 
 50
60.088058
  7
ROMANS
 72
     1
 11
920393.78245
 21
7287556.68587
 31
0.0
210
0.0
220
0.0
230
1.0
  0
TEXT
  8
11
  6
CONTINUOUS
 62
     7
  5
E6
 10
920396.443
 20
7287561.309
 30
0.0
 40
8.0
  1
 
 50
60.088058
  7
ROMANS
 72
     1
 11
920397.77245
 21
7287563.61987
 31
0.0
210
0.0
220
0.0
230
1.0
  0
TEXT
  8
11
  6
CONTINUOUS
 62
     7
  5
E7
 10
920401.249
 20
7287569.664
 30
0.0
 40
8.0
  1
4
 50
60.088058
  7
ROMANS
 72
     1
 11
920402.412393
 21
7287571.686228
 31
0.0
210
0.0
220
0.0
230
1.0
  0
TEXT
  8
11
  6
CONTINUOUS
 62
     7
  5
E8
 10
920405.082
 20
7287576.324
 30
0.0
 40
8.0
  1
0
 50
60.088058
  7
ROMANS
 72
     1
 11
920406.40397
 21
7287578.621868
 31
0.0
210
0.0
220
0.0
230
1.0
  0
TEXT
  8
11
  6
CONTINUOUS
 62
     7
  5
E9
 10
920409.228
 20
7287583.532
 30
0.0
 40
8.0
  1
8
 50
60.088058
  7
ROMANS
 72
     1
 11
920410.391393
 21
7287585.554228
 31
0.0
210
0.0
220
0.0
230
1.0
  0
TEXT
  8
11
  6
CONTINUOUS
 62
     7
  5
EA
 10
920413.735
 20
7287591.367
 30
0.0
 40
8.0
  1
.
 50
60.088058
  7
ROMANS
 72
     1
 11
920414.39424
 21
7287592.5129
 31
0.0
210
0.0
220
0.0
230
1.0
  0
TEXT
  8
11
  6
CONTINUOUS
 62
     7
  5
EB
 10
920417.049
 20
7287597.127
 30
0.0
 40
8.0
  1
0
 50
60.088058
  7
ROMANS
 72
     1
 11
920418.37097
 21
7287599.424868
 31
0.0
210
0.0
220
0.0
230
1.0
  0
TEXT
  8
11
  6
CONTINUOUS
 62
     7
  5
EC
 10
920421.196
 20
7287604.336
 30
0.0
 40
8.0
  1
2
 50
60.088058
  7
ROMANS
 72
     1
 11
920422.359393
 21
7287606.358228
 31
0.0
210
0.0
220
0.0
230
1.0
  0
TEXT
  8
11
  6
CONTINUOUS
 62
     7
  5
ED
 10
920425.687
 20
7287612.143
 30
0.0
 40
8.0
  1
'
 50
60.088058
  7
ROMANS
 72
     1
 11
920426.351725
 21
7287613.298435
 31
0.0
210
0.0
220
0.0
230
1.0
  0
TEXT
  8
11
  6
CONTINUOUS
 62
     7
  5
EE
 10
920185.345
 20
7287618.705
 30
0.0
 40
8.0
  1
S
 50
34.322764
  7
ROMANS
 72
     1
 11
920187.421248
 21
7287620.12253
 31
0.0
210
0.0
220
0.0
230
1.0
  0
TEXT
  8
11
  6
CONTINUOUS
 62
     7
  5
EF
 10
920192.082
 20
7287623.306
 30
0.0
 40
8.0
  1
5
 50
34.322764
  7
ROMANS
 72
     1
 11
920194.017849
 21
7287624.627674
 31
0.0
210
0.0
220
0.0
230
1.0
  0
TEXT
  8
11
  6
CONTINUOUS
 62
     7
  5
F0
 10
920198.689
 20
7287627.816
 30
0.0
 40
8.0
  1
3
 50
34.322764
  7
ROMANS
 72
     1
 11
920200.615765
 21
7287629.131472
 31
0.0
210
0.0
220
0.0
230
1.0
  0
TEXT
  8
11
  6
CONTINUOUS
 62
     7
  5
F1
 10
920206.051
 20
7287632.842
 30
0.0
 40
8.0
  1
%%d
 50
34.322764
  7
ROMANS
 72
     1
 11
920207.237781
 21
7287633.652259
 31
0.0
210
0.0
220
0.0
230
1.0
  0
TEXT
  8
11
  6
CONTINUOUS
 62
     7
  5
F2
 10
920211.903
 20
7287636.838
 30
0.0
 40
8.0
  1
5
 50
34.322764
  7
ROMANS
 72
     1
 11
920213.838849
 21
7287638.159674
 31
0.0
210
0.0
220
0.0
230
1.0
  0
TEXT
  8
11
  6
CONTINUOUS
 62
     7
  5
F3
 10
920218.51
 20
7287641.348
 30
0.0
 40
8.0
  1
7
 50
34.322764
  7
ROMANS
 72
     1
 11
920220.436765
 21
7287642.663472
 31
0.0
210
0.0
220
0.0
230
1.0
  0
TEXT
  8
11
  6
CONTINUOUS
 62
     7
  5
F4
 10
920225.949
 20
7287646.428
 30
0.0
 40
8.0
  1
'
 50
34.322764
  7
ROMANS
 72
     1
 11
920227.04989
 21
7287647.179618
 31
0.0
210
0.0
220
0.0
230
1.0
  0
POLYLINE
  8
21
  6
DASHDOT
 62
     7
  5
F6
 66
     1
 10
0.0
 20
0.0
 30
0.0
 70
     1
  0
VERTEX
  8
21
  6
DASHDOT
 62
     7
  5
F7
 10
919080.762
 20
7284802.106
 30
0.0
  0
VERTEX
  8
21
  6
DASHDOT
 62
     7
  5
F8
 10
919093.365
 20
7285238.884
 30
0.0
  0
VERTEX
  8
21
  6
DASHDOT
 62
     7
  5
F9
 10
919113.357
 20
7285238.307
 30
0.0
  0
VERTEX
  8
21
  6
DASHDOT
 62
     7
  5
FA
 10
919100.754
 20
7284801.53
 30
0.0
  0
VERTEX
  8
21
  6
DASHDOT
 62
     7
  5
FB
 10
919080.762
 20
7284802.106
 30
0.0
  0
SEQEND
  8
21
  6
DASHDOT
 62
     7
  5
FC
  0
TEXT
  8
22
  6
CONTINUOUS
 62
     3
  5
FF
 10
919114.292
 20
7284934.476
 30
0.0
 40
6.0
  1
20' UNDERGROUND UTILITY EASEMENT
 50
88.2861
  7
txt
 72
     4
 11
919113.952319
 21
7285023.428954
 31
0.0
210
0.0
220
0.0
230
1.0
  0
TEXT
  8
22
  6
CONTINUOUS
 62
     3
  5
100
 10
919084.125
 20
7284998.75
 30
0.0
 40
6.0
  1
436.96'
 50
88.2861
  7
ROMANS
 72
     4
 11
919081.694608
 21
7285017.831226
 31
0.0
210
0.0
220
0.0
230
1.0
  0
POLYLINE
  8
1
  6
HIDDEN
 62
   253
  5
102
 66
     1
 10
0.0
 20
0.0
 30
0.0
 70
     1
  0
VERTEX
  8
1
  6
HIDDEN
 62
   253
  5
103
 10
916116.049
 20
7284894.884
 30
0.0
  0
VERTEX
  8
1
  6
HIDDEN
 62
   253
  5
104
 10
921395.859
 20
7284734.642
 30
0.0
  0
VERTEX
  8
1
  6
HIDDEN
 62
   253
  5
105
 10
921559.876
 20
7289969.218
 30
0.0
  0
VERTEX
  8
1
  6
HIDDEN
 62
   253
  5
106
 10
916281.251
 20
7290127.818
 30
0.0
  0
SEQEND
  8
1
  6
HIDDEN
 62
   253
  5
107
  0
TEXT
  8
19
  6
CONTINUOUS
 62
     1
  5
109
 10
917235.11
 20
7284823.315
 30
0.0
 40
24.0
  1
ERSKINE    AVE
 50
358.2861
  7
ROMANC
 72
     4
 11
917414.054976
 21
7284829.965957
 31
0.0
210
0.0
220
0.0
230
1.0
  0
TEXT
  8
19
  6
CONTINUOUS
 62
     1
  5
10A
 10
919297.114
 20
7284769.615
 30
0.0
 40
24.0
  1
ERSKINE    AVE
 50
358.2861
  7
ROMANC
 72
     4
 11
919476.058976
 21
7284776.265957
 31
0.0
210
0.0
220
0.0
230
1.0
  0
TEXT
  8
15
  6
CONTINUOUS
 62
    30
  5
10B
 10
920159.053
 20
7289688.313
 30
0.0
 40
50.0
  1
N
 50
28.2861
  7
ROMANC
 72
     4
 11
920166.966627
 21
7289720.961554
 31
0.0
210
0.0
220
0.0
230
1.0
  0
TEXT
  8
15
  6
CONTINUOUS
 62
    30
  5
10C
 10
920171.431
 20
7288435.865
 30
0.0
 40
50.0
  1
N
 50
28.2861
  7
ROMANC
 72
     4
 11
920179.344627
 21
7288468.513554
 31
0.0
210
0.0
220
0.0
230
1.0
  0
TEXT
  8
19
  6
CONTINUOUS
 62
     1
  5
10D
 10
921402.808
 20
7285813.108
 30
0.0
 40
24.0
  1
N FRANKFORD AVE
 50
88.2861
  7
ROMANC
 72
     4
 11
921396.920045
 21
7286017.552563
 31
0.0
210
0.0
220
0.0
230
1.0
  0
TEXT
  8
19
  6
CONTINUOUS
 62
     1
  5
10E
 10
921483.823
 20
7288326.284
 30
0.0
 40
24.0
  1
N FRANKFORD AVE
 50
88.2861
  7
ROMANC
 72
     4
 11
921477.935045
 21
7288530.728563
 31
0.0
210
0.0
220
0.0
230
1.0
  0
TEXT
  8
19
  6
CONTINUOUS
 62
     1
  5
10F
 10
921078.834
 20
7287704.507
 30
0.0
 40
24.0
  1
PRINCETON ST
 50
358.2861
  7
ROMANC
 72
     4
 11
921229.919445
 21
7287711.991573
 31
0.0
210
0.0
220
0.0
230
1.0
  0
TEXT
  8
19
  6
CONTINUOUS
 62
     1
  5
110
 10
920481.361
 20
7288156.056
 30
0.0
 40
24.0
  1
N GENOA  AVE
 50
88.2861
  7
ROMANC
 72
     4
 11
920474.283335
 21
7288320.740358
 31
0.0
210
0.0
220
0.0
230
1.0
  0
TEXT
  8
19
  6
CONTINUOUS
 62
     1
  5
111
 10
920219.978
 20
7288796.396
 30
0.0
 40
24.0
  1
RICE ST
 50
358.2861
  7
ROMANC
 72
     4
 11
920300.799892
 21
7288805.983008
 31
0.0
210
0.0
220
0.0
230
1.0
  0
TEXT
  8
19
  6
CONTINUOUS
 62
     1
  5
112
 10
920518.54
 20
7289176.255
 30
0.0
 40
24.0
  1
N GENOA  AVE
 50
88.2861
  7
ROMANC
 72
     4
 11
920511.462335
 21
7289340.939358
 31
0.0
210
0.0
220
0.0
230
1.0
  0
LINE
  8
58
  6
DIVIDE
 62
   216
  5
114
 10
921214.419
 20
7285361.265
 30
0.0
 11
916135.57
 21
7285513.235
 31
0.0
  0
LINE
  8
6
  6
CONTINUOUS
 62
     7
  5
115
 10
916327.212
 20
7290075.448
 30
0.0
 11
916167.231
 21
7284899.114
 31
0.0
  0
LINE
  8
6
  6
CONTINUOUS
 62
     7
  5
116
 10
916327.212
 20
7290075.448
 30
0.0
 11
920164.799
 21
7289978.039
 31
0.0
  0
LINE
  8
58
  6
DIVIDE
 62
   216
  5
117
 10
921214.094
 20
7285350.963
 30
0.0
 11
921352.272
 21
7289968.896
 31
0.0
  0
LINE
  8
6
  6
CONTINUOUS
 62
     7
  5
118
 10
920897.077
 20
7289953.811
 30
0.0
 11
921496.769
 21
7289934.566
 31
0.0
  0
TEXT
  8
10
  6
CONTINUOUS
 62
   134
  5
11A
 10
918166.954
 20
7287326.865
 30
0.0
 40
13.999
  1
UNSUBDIVIDED
 50
358.2861
  7
ROMANS
 11
918167.372692
 21
7287340.857737
 31
0.0
210
0.0
220
0.0
230
1.0
 73
     3
  0
TEXT
  8
10
  6
CONTINUOUS
 62
   134
  5
11B
 10
921019.236
 20
7289041.207
 30
0.0
 40
13.999
  1
UNSUBDIVIDED
 50
358.2861
  7
ROMANS
 11
921019.654692
 21
7289055.199737
 31
0.0
210
0.0
220
0.0
230
1.0
 73
     3
  0
TEXT
  8
19
  6
CONTINUOUS
 62
     1
  5
11C
 10
916415.488
 20
7290081.345
 30
0.0
 40
24.0
  1
URSULINE ST
 50
358.2861
  7
ROMANC
 72
     4
 11
916553.540278
 21
7290089.219554
 31
0.0
210
0.0
220
0.0
230
1.0
  0
TEXT
  8
19
  6
CONTINUOUS
 62
     1
  5
11D
 10
918739.804
 20
7290027.111
 30
0.0
 40
24.0
  1
URSULINE ST
 50
358.2861
  7
ROMANC
 72
     4
 11
918877.856278
 21
7290034.985554
 31
0.0
210
0.0
220
0.0
230
1.0
  0
TEXT
  8
19
  6
CONTINUOUS
 62
     1
  5
11E
 10
921226.822
 20
7289965.129
 30
0.0
 40
24.0
  1
URSULINE ST
 50
358.2861
  7
ROMANC
 72
     4
 11
921364.874278
 21
7289973.003554
 31
0.0
210
0.0
220
0.0
230
1.0
  0
TEXT
  8
19
  6
CONTINUOUS
 62
     1
  5
11F
 10
916139.326
 20
7285067.838
 30
0.0
 40
24.0
  1
N MILWAUKEE AVE
 50
88.0602
  7
ROMANC
 72
     4
 11
916134.215413
 21
7285271.455675
 31
0.0
210
0.0
220
0.0
230
1.0
  0
TEXT
  8
19
  6
CONTINUOUS
 62
     1
  5
120
 10
916232.299
 20
7287553.893
 30
0.0
 40
24.0
  1
N MILWAUKEE AVE
 50
88.0602
  7
ROMANC
 72
     4
 11
916227.188413
 21
7287757.510675
 31
0.0
210
0.0
220
0.0
230
1.0
  0
TEXT
  8
19
  6
CONTINUOUS
 62
     1
  5
121
 10
916304.395
 20
7289620.983
 30
0.0
 40
24.0
  1
N MILWAUKEE AVE
 50
88.0602
  7
ROMANC
 72
     4
 11
916299.284413
 21
7289824.600675
 31
0.0
210
0.0
220
0.0
230
1.0
  0
TEXT
  8
13
  6
CONTINUOUS
 62
    14
  5
123
 10
919098.103
 20
7284920.932
 30
0.0
 40
8.0
  1
V5410 P2303
 50
88.347219
  7
txt
 72
     1
 11
919099.306625
 21
7284962.645639
 31
0.0
210
0.0
220
0.0
230
1.0
  0
LINE
  8
6
  6
CONTINUOUS
 62
     7
  5
124
 10
920164.799
 20
7289978.039
 30
0.0
 11
920079.61
 21
7287364.063
 31
0.0
  0
LINE
  8
6
  6
CONTINUOUS
 62
     7
  5
125
 10
920079.61
 20
7287364.063
 30
0.0
 11
921411.583
 21
7287320.655
 31
0.0
  0
LINE
  8
6
  6
CONTINUOUS
 62
     7
  5
126
 10
918462.793
 20
7284841.71
 30
0.0
 11
918327.86
 21
7284845.963
 31
0.0
  0
LINE
  8
6
  6
CONTINUOUS
 62
     7
  5
127
 10
918327.86
 20
7284845.963
 30
0.0
 11
918328.018
 21
7284850.961
 31
0.0
  0
LINE
  8
6
  6
CONTINUOUS
 62
     7
  5
128
 10
918462.793
 20
7284841.71
 30
0.0
 11
918462.951
 21
7284846.708
 31
0.0
  0
LINE
  8
6
  6
CONTINUOUS
 62
     7
  5
129
 10
918358.979
 20
7284879.968
 30
0.0
 11
918360.797
 21
7284935.76
 31
0.0
  0
ARC
  8
6
  6
CONTINUOUS
 62
     7
  5
12A
 10
918328.994999
 20
7284880.945
 30
0.0
 40
29.999913
 50
268.133733
 51
358.133733
210
0.0
220
0.0
230
1.0
  0
LINE
  8
6
  6
CONTINUOUS
 62
     7
  5
12B
 10
918433.944
 20
7284877.669
 30
0.0
 11
918435.762
 21
7284933.461
 31
0.0
  0
ARC
  8
6
  6
CONTINUOUS
 62
     7
  5
12C
 10
918463.927999
 20
7284876.692
 30
0.0
 40
29.999913
 50
178.133733
 51
268.133733
210
0.0
220
0.0
230
1.0
  0
LINE
  8
6
  6
CONTINUOUS
 62
     7
  5
12D
 10
918435.762
 20
7284933.461
 30
0.0
 11
918434.99
 21
7285083.559
 31
0.0
  0
LINE
  8
6
  6
CONTINUOUS
 62
     7
  5
12E
 10
918360.797
 20
7284935.76
 30
0.0
 11
918371.02
 21
7285085.511
 31
0.0
  0
LINE
  8
6
  6
CONTINUOUS
 62
     7
  5
12F
 10
918434.99
 20
7285083.559
 30
0.0
 11
918443.024
 21
7285338.432
 31
0.0
  0
LINE
  8
6
  6
CONTINUOUS
 62
     7
  5
130
 10
918371.02
 20
7285085.511
 30
0.0
 11
918397.958
 21
7285940.087
 31
0.0
  0
LINE
  8
6
  6
CONTINUOUS
 62
     7
  5
131
 10
918443.024
 20
7285338.432
 30
0.0
 11
919062.716
 21
7285318.898
 31
0.0
  0
LINE
  8
6
  6
CONTINUOUS
 62
     7
  5
132
 10
919062.716
 20
7285318.898
 30
0.0
 11
919081.62
 21
7285918.6
 31
0.0
  0
LINE
  8
6
  6
CONTINUOUS
 62
     7
  5
133
 10
918397.958
 20
7285940.087
 30
0.0
 11
919081.62
 21
7285918.6
 31
0.0
  0
LINE
  8
7
  6
CONTINUOUS
 62
     7
  5
134
 10
918892.8
 20
7285324.254
 30
0.0
 11
918901.307
 21
7285594.12
 31
0.0
  0
LINE
  8
7
  6
CONTINUOUS
 62
     7
  5
135
 10
918742.874
 20
7285328.98
 30
0.0
 11
918751.381
 21
7285598.846
 31
0.0
  0
LINE
  8
7
  6
CONTINUOUS
 62
     7
  5
136
 10
918592.949
 20
7285333.706
 30
0.0
 11
918601.456
 21
7285603.572
 31
0.0
  0
LINE
  8
7
  6
CONTINUOUS
 62
     7
  5
137
 10
918443.023
 20
7285338.432
 30
0.0
 11
918461.927
 21
7285938.134
 31
0.0
  0
LINE
  8
6
  6
CONTINUOUS
 62
     7
  5
138
 10
918466.522
 20
7285607.825
 30
0.0
 11
918901.307
 21
7285594.12
 31
0.0
  0
LINE
  8
6
  6
CONTINUOUS
 62
     7
  5
139
 10
918468.413
 20
7285667.795
 30
0.0
 11
918903.197
 21
7285654.09
 31
0.0
  0
LINE
  8
7
  6
CONTINUOUS
 62
     7
  5
13A
 10
918903.197
 20
7285654.09
 30
0.0
 11
918911.704
 21
7285923.956
 31
0.0
  0
LINE
  8
7
  6
CONTINUOUS
 62
     7
  5
13B
 10
918753.271
 20
7285658.816
 30
0.0
 11
918761.778
 21
7285928.682
 31
0.0
  0
LINE
  8
7
  6
CONTINUOUS
 62
     7
  5
13C
 10
918603.346
 20
7285663.542
 30
0.0
 11
918611.853
 21
7285933.408
 31
0.0
  0
ARC
  8
7
  6
CONTINUOUS
 62
     7
  5
13D
 10
918942.232235
 20
7285622.844993
 30
0.0
 40
50.0
 50
215.064614
 51
141.325142
210
0.0
220
0.0
230
1.0
  0
LINE
  8
7
  6
CONTINUOUS
 62
     7
  5
13E
 10
918992.207
 20
7285621.262
 30
0.0
 11
919072.196
 21
7285618.748
 31
0.0
  0
POLYLINE
  8
21
  6
DASHDOT
 62
     7
  5
13F
 66
     1
 10
0.0
 20
0.0
 30
0.0
  0
VERTEX
  8
21
  6
DASHDOT
 62
     7
  5
140
 10
919072.51
 20
7285628.743
 30
0.0
  0
VERTEX
  8
21
  6
DASHDOT
 62
     7
  5
141
 10
918991.514
 20
7285631.289
 30
0.0
 42
-0.10102
  0
VERTEX
  8
21
  6
DASHDOT
 62
     7
  5
142
 10
918990.880805
 20
7285611.299089
 30
0.0
  0
VERTEX
  8
21
  6
DASHDOT
 62
     7
  5
143
 10
918990.881
 20
7285611.299
 30
0.0
  0
VERTEX
  8
21
  6
DASHDOT
 62
     7
  5
144
 10
919071.853
 20
7285608.754
 30
0.0
  0
VERTEX
  8
21
  6
DASHDOT
 62
     7
  5
145
 10
919072.51
 20
7285628.743
 30
0.0
  0
SEQEND
  8
21
  6
DASHDOT
 62
     7
  5
146
  0
POLYLINE
  8
21
  6
DASHDOT
 62
     7
  5
147
 66
     1
 10
0.0
 20
0.0
 30
0.0
 70
     1
  0
VERTEX
  8
21
  6
DASHDOT
 62
     7
  5
148
 10
918461.295
 20
7285918.087
 30
0.0
  0
VERTEX
  8
21
  6
DASHDOT
 62
     7
  5
149
 10
919051.005
 20
7285899.552
 30
0.0
  0
VERTEX
  8
21
  6
DASHDOT
 62
     7
  5
14A
 10
919060.685
 20
7285889.243
 30
0.0
  0
VERTEX
  8
21
  6
DASHDOT
 62
     7
  5
14B
 10
919043.671
 20
7285349.513
 30
0.0
  0
VERTEX
  8
21
  6
DASHDOT
 62
     7
  5
14C
 10
919033.361
 20
7285339.833
 30
0.0
  0
VERTEX
  8
21
  6
DASHDOT
 62
     7
  5
14D
 10
918443.653
 20
7285358.422
 30
0.0
  0
VERTEX
  8
21
  6
DASHDOT
 62
     7
  5
14E
 10
918443.024
 20
7285338.432
 30
0.0
  0
VERTEX
  8
21
  6
DASHDOT
 62
     7
  5
14F
 10
919062.716
 20
7285318.898
 30
0.0
  0
VERTEX
  8
21
  6
DASHDOT
 62
     7
  5
150
 10
919081.62
 20
7285918.6
 30
0.0
  0
VERTEX
  8
21
  6
DASHDOT
 62
     7
  5
151
 10
918461.927
 20
7285938.134
 30
0.0
  0
SEQEND
  8
21
  6
DASHDOT
 62
     7
  5
152
  0
POLYLINE
  8
21
  6
DASHDOT
 62
     7
  5
153
 66
     1
 10
0.0
 20
0.0
 30
0.0
 70
     1
  0
VERTEX
  8
21
  6
DASHDOT
 62
     7
  5
154
 10
918597.476
 20
7285667.729
 30
0.0
  0
VERTEX
  8
21
  6
DASHDOT
 62
     7
  5
155
 10
918603.472
 20
7285667.54
 30
0.0
  0
VERTEX
  8
21
  6
DASHDOT
 62
     7
  5
156
 10
918603.346
 20
7285663.542
 30
0.0
  0
VERTEX
  8
21
  6
DASHDOT
 62
     7
  5
157
 10
918597.35
 20
7285663.731
 30
0.0
  0
SEQEND
  8
21
  6
DASHDOT
 62
     7
  5
158
  0
POLYLINE
  8
21
  6
DASHDOT
 62
     7
  5
159
 66
     1
 10
0.0
 20
0.0
 30
0.0
 70
     1
  0
VERTEX
  8
21
  6
DASHDOT
 62
     7
  5
15A
 10
918595.46
 20
7285603.761
 30
0.0
  0
VERTEX
  8
21
  6
DASHDOT
 62
     7
  5
15B
 10
918601.456
 20
7285603.572
 30
0.0
  0
VERTEX
  8
21
  6
DASHDOT
 62
     7
  5
15C
 10
918601.33
 20
7285599.574
 30
0.0
  0
VERTEX
  8
21
  6
DASHDOT
 62
     7
  5
15D
 10
918595.334
 20
7285599.763
 30
0.0
  0
SEQEND
  8
21
  6
DASHDOT
 62
     7
  5
15E
  0
POLYLINE
  8
21
  6
DASHDOT
 62
     7
  5
15F
 66
     1
 10
0.0
 20
0.0
 30
0.0
 70
     1
  0
VERTEX
  8
21
  6
DASHDOT
 62
     7
  5
160
 10
918897.327
 20
7285658.277
 30
0.0
  0
VERTEX
  8
21
  6
DASHDOT
 62
     7
  5
161
 10
918903.323
 20
7285658.088
 30
0.0
  0
VERTEX
  8
21
  6
DASHDOT
 62
     7
  5
162
 10
918903.197
 20
7285654.09
 30
0.0
  0
VERTEX
  8
21
  6
DASHDOT
 62
     7
  5
163
 10
918897.201
 20
7285654.279
 30
0.0
  0
SEQEND
  8
21
  6
DASHDOT
 62
     7
  5
164
  0
POLYLINE
  8
21
  6
DASHDOT
 62
     7
  5
165
 66
     1
 10
0.0
 20
0.0
 30
0.0
 70
     1
  0
VERTEX
  8
21
  6
DASHDOT
 62
     7
  5
166
 10
918895.311
 20
7285594.309
 30
0.0
  0
VERTEX
  8
21
  6
DASHDOT
 62
     7
  5
167
 10
918901.307
 20
7285594.12
 30
0.0
  0
VERTEX
  8
21
  6
DASHDOT
 62
     7
  5
168
 10
918901.181
 20
7285590.122
 30
0.0
  0
VERTEX
  8
21
  6
DASHDOT
 62
     7
  5
169
 10
918895.185
 20
7285590.311
 30
0.0
  0
SEQEND
  8
21
  6
DASHDOT
 62
     7
  5
16A
  0
TEXT
  8
10
  6
CONTINUOUS
 62
   134
  5
16B
 10
918521.953
 20
7285471.991
 30
0.0
 40
13.999
  1
1
 50
358.133433
  7
txt
210
0.0
220
0.0
230
1.0
  0
TEXT
  8
10
  6
CONTINUOUS
 62
   134
  5
16C
 10
918674.264
 20
7285467.028
 30
0.0
 40
13.999
  1
2
 50
358.133433
  7
txt
210
0.0
220
0.0
230
1.0
  0
TEXT
  8
10
  6
CONTINUOUS
 62
   134
  5
16D
 10
918821.135
 20
7285462.242
 30
0.0
 40
13.999
  1
3
 50
358.133433
  7
txt
210
0.0
220
0.0
230
1.0
  0
TEXT
  8
10
  6
CONTINUOUS
 62
   134
  5
16E
 10
918978.886
 20
7285457.102
 30
0.0
 40
13.999
  1
4
 50
358.133433
  7
txt
210
0.0
220
0.0
230
1.0
  0
TEXT
  8
10
  6
CONTINUOUS
 62
   134
  5
16F
 10
918989.353
 20
7285778.256
 30
0.0
 40
13.999
  1
5
 50
358.133433
  7
txt
210
0.0
220
0.0
230
1.0
  0
TEXT
  8
10
  6
CONTINUOUS
 62
   134
  5
170
 10
918831.603
 20
7285783.397
 30
0.0
 40
13.999
  1
6
 50
358.133433
  7
txt
210
0.0
220
0.0
230
1.0
  0
TEXT
  8
10
  6
CONTINUOUS
 62
   134
  5
171
 10
918681.106
 20
7285788.302
 30
0.0
 40
13.999
  1
7
 50
358.133433
  7
txt
210
0.0
220
0.0
230
1.0
  0
TEXT
  8
10
  6
CONTINUOUS
 62
   134
  5
172
 10
918528.796
 20
7285793.266
 30
0.0
 40
13.999
  1
8
 50
358.133433
  7
txt
210
0.0
220
0.0
230
1.0
  0
TEXT
  8
10
  6
CONTINUOUS
 62
   134
  5
173
 10
918728.31
 20
7285621.476
 30
0.0
 40
13.999
  1
9
 50
358.133433
  7
txt
210
0.0
220
0.0
230
1.0
  0
TEXT
  8
10
  6
CONTINUOUS
 62
   134
  5
174
 10
918406.621
 20
7285330.445
 30
0.0
 40
13.999
  1
10
 50
358.133433
  7
txt
210
0.0
220
0.0
230
1.0
  0
TEXT
  8
22
  6
CONTINUOUS
 62
     3
  5
175
 10
918559.588
 20
7285654.987
 30
0.0
 40
6.0
  1
4'x6' TPE-SPEC
 50
358.1945
  7
txt
 72
     1
 11
918594.127844
 21
7285653.898223
 31
0.0
210
0.0
220
0.0
230
1.0
  0
TEXT
  8
22
  6
CONTINUOUS
 62
     3
  5
176
 10
918833.818
 20
7285645.458
 30
0.0
 40
6.0
  1
4'x6' TPE-SPEC
 50
358.1945
  7
txt
 72
     1
 11
918868.357844
 21
7285644.369223
 31
0.0
210
0.0
220
0.0
230
1.0
  0
TEXT
  8
22
  6
CONTINUOUS
 62
     3
  5
177
 10
918562.095
 20
7285606.668
 30
0.0
 40
6.0
  1
4'x6' TPE-SPEC
 50
358.1945
  7
txt
 72
     1
 11
918596.633844
 21
7285605.579254
 31
0.0
210
0.0
220
0.0
230
1.0
  0
TEXT
  8
22
  6
CONTINUOUS
 62
     3
  5
178
 10
918826.833
 20
7285598.386
 30
0.0
 40
6.0
  1
4'x6' TPE-SPEC
 50
358.1945
  7
txt
 72
     1
 11
918861.372844
 21
7285597.297223
 31
0.0
210
0.0
220
0.0
230
1.0
  0
TEXT
  8
22
  6
CONTINUOUS
 62
     3
  5
179
 10
918997.178
 20
7285637.114
 30
0.0
 40
6.0
  1
20' UUE & DRE
 50
358.199578
  7
txt
 72
     1
 11
919031.223185
 21
7285636.043836
 31
0.0
210
0.0
220
0.0
230
1.0
  0
TEXT
  8
22
  6
CONTINUOUS
 62
     3
  5
17A
 10
919067.186
 20
7285673.702
 30
0.0
 40
6.0
  1
20' UUE & GCE
 50
88.194503
  7
txt
 72
     1
 11
919068.268065
 21
7285708.02895
 31
0.0
210
0.0
220
0.0
230
1.0
  0
TEXT
  8
22
  6
CONTINUOUS
 62
     3
  5
17B
 10
919061.509
 20
7285499.517
 30
0.0
 40
6.0
  1
20' UUE & GCE
 50
88.194503
  7
txt
 72
     1
 11
919062.591065
 21
7285533.84395
 31
0.0
210
0.0
220
0.0
230
1.0
  0
TEXT
  8
22
  6
CONTINUOUS
 62
     3
  5
17C
 10
918550.516
 20
7285342.063
 30
0.0
 40
6.0
  1
20' UUE & GCE
 50
358.194503
  7
txt
 72
     1
 11
918584.84295
 21
7285340.980935
 31
0.0
210
0.0
220
0.0
230
1.0
  0
TEXT
  8
22
  6
CONTINUOUS
 62
     3
  5
17D
 10
918861.482
 20
7285331.929
 30
0.0
 40
6.0
  1
20' UUE & GCE
 50
358.194503
  7
txt
 72
     1
 11
918895.80895
 21
7285330.846935
 31
0.0
210
0.0
220
0.0
230
1.0
  0
TEXT
  8
22
  6
CONTINUOUS
 62
     3
  5
17E
 10
918510.419
 20
7285921.878
 30
0.0
 40
6.0
  1
20' UUE & GCE
 50
358.194503
  7
txt
 72
     1
 11
918544.74595
 21
7285920.795935
 31
0.0
210
0.0
220
0.0
230
1.0
  0
TEXT
  8
22
  6
CONTINUOUS
 62
     3
  5
17F
 10
918955.565
 20
7285907.371
 30
0.0
 40
6.0
  1
20' UUE & GCE
 50
358.194503
  7
txt
 72
     1
 11
918989.89195
 21
7285906.288935
 31
0.0
210
0.0
220
0.0
230
1.0
  0
TEXT
  8
11
  6
CONTINUOUS
 62
     7
  5
180
 10
918379.109
 20
7284833.342
 30
0.0
 40
8.0
  1
135'
 50
358.194672
  7
txt
 72
     1
 11
918391.574964
 21
7284840.953054
 31
0.0
210
0.0
220
0.0
230
1.0
 73
     3
  0
TEXT
  8
11
  6
CONTINUOUS
 62
     7
  5
181
 10
918317.888
 20
7284854.904
 30
0.0
 40
8.0
  1
5'
 50
268.189331
  7
txt
 72
     1
 11
918325.705862
 21
7284849.01604
 31
0.0
210
0.0
220
0.0
230
1.0
 73
     3
  0
TEXT
  8
11
  6
CONTINUOUS
 62
     7
  5
182
 10
918474.093
 20
7284839.91
 30
0.0
 40
8.0
  1
5'
 50
88.189331
  7
txt
 72
     1
 11
918466.275138
 21
7284845.79796
 31
0.0
210
0.0
220
0.0
230
1.0
 73
     3
  0
TEXT
  8
11
  6
CONTINUOUS
 62
     7
  5
183
 10
918444.326
 20
7284895.904
 30
0.0
 40
8.0
  1
70'
 50
88.133658
  7
txt
 72
     1
 11
918436.644102
 21
7284905.796432
 31
0.0
210
0.0
220
0.0
230
1.0
 73
     3
  0
TEXT
  8
11
  6
CONTINUOUS
 62
     7
  5
184
 10
918358.198
 20
7284898.711
 30
0.0
 40
8.0
  1
70'
 50
88.133658
  7
txt
 72
     1
 11
918350.516102
 21
7284908.603432
 31
0.0
210
0.0
220
0.0
230
1.0
 73
     3
  0
TEXT
  8
11
  6
CONTINUOUS
 62
     7
  5
185
 10
918360.974
 20
7284982.39
 30
0.0
 40
8.0
  1
150.1'
 50
86.094667
  7
txt
 72
     1
 11
918362.117264
 21
7284999.137022
 31
0.0
210
0.0
220
0.0
230
1.0
  0
TEXT
  8
11
  6
CONTINUOUS
 62
     7
  5
186
 10
918438.412
 20
7285001.629
 30
0.0
 40
8.0
  1
150.1'
 50
270.294686
  7
txt
 72
     1
 11
918438.498334
 21
7284984.843222
 31
0.0
210
0.0
220
0.0
230
1.0
  0
TEXT
  8
11
  6
CONTINUOUS
 62
     7
  5
187
 10
918447.897
 20
7285139.267
 30
0.0
 40
8.0
  1
255'
 50
88.194544
  7
txt
 72
     1
 11
918448.326678
 21
7285152.89823
 31
0.0
210
0.0
220
0.0
230
1.0
  0
TEXT
  8
11
  6
CONTINUOUS
 62
     7
  5
188
 10
918383.696
 20
7285529.152
 30
0.0
 40
8.0
  1
855'
 50
88.194517
  7
txt
 72
     1
 11
918384.125684
 21
7285542.783229
 31
0.0
210
0.0
220
0.0
230
1.0
  0
ARC
  8
7
  6
CONTINUOUS
 62
     7
  5
189
 10
918466.049757
 20
7285592.832884
 30
0.0
 40
15.0
 50
88.1945
 51
178.194503
210
0.0
220
0.0
230
1.0
  0
ARC
  8
7
  6
CONTINUOUS
 62
     7
  5
18A
 10
918468.885351
 20
7285682.787978
 30
0.0
 40
15.0
 50
178.194503
 51
268.1945
210
0.0
220
0.0
230
1.0
  0
TEXT
  8
11
  6
CONTINUOUS
 62
     7
  5
18B
 10
918499.708
 20
7285595.773
 30
0.0
 40
8.0
  1
135'
 50
358.194558
  7
txt
 72
     1
 11
918512.173979
 21
7285603.384029
 31
0.0
210
0.0
220
0.0
230
1.0
 73
     3
  0
TEXT
  8
11
  6
CONTINUOUS
 62
     7
  5
18C
 10
918502.263
 20
7285339.566
 30
0.0
 40
8.0
  1
150'
 50
358.194514
  7
txt
 72
     1
 11
918514.444949
 21
7285339.181999
 31
0.0
210
0.0
220
0.0
230
1.0
  0
TEXT
  8
11
  6
CONTINUOUS
 62
     7
  5
18D
 10
918676.457
 20
7285588.356
 30
0.0
 40
8.0
  1
150'
 50
358.194514
  7
txt
 72
     1
 11
918688.638949
 21
7285587.971999
 31
0.0
210
0.0
220
0.0
230
1.0
  0
TEXT
  8
11
  6
CONTINUOUS
 62
     7
  5
18E
 10
918817.867
 20
7285582.991
 30
0.0
 40
8.0
  1
150'
 50
358.194514
  7
txt
 72
     1
 11
918830.048949
 21
7285582.606999
 31
0.0
210
0.0
220
0.0
230
1.0
  0
TEXT
  8
11
  6
CONTINUOUS
 62
     7
  5
18F
 10
918968.248
 20
7285324.877
 30
0.0
 40
8.0
  1
170'
 50
358.194514
  7
txt
 72
     1
 11
918980.461933
 21
7285324.491991
 31
0.0
210
0.0
220
0.0
230
1.0
  0
TEXT
  8
11
  6
CONTINUOUS
 62
     7
  5
190
 10
918502.043
 20
7285667.443
 30
0.0
 40
8.0
  1
135'
 50
358.194558
  7
txt
 72
     1
 11
918514.508979
 21
7285675.054029
 31
0.0
210
0.0
220
0.0
230
1.0
 73
     3
  0
TEXT
  8
11
  6
CONTINUOUS
 62
     7
  5
191
 10
918678.881
 20
7285662.747
 30
0.0
 40
8.0
  1
150'
 50
358.194514
  7
txt
 72
     1
 11
918691.062949
 21
7285662.362999
 31
0.0
210
0.0
220
0.0
230
1.0
  0
TEXT
  8
11
  6
CONTINUOUS
 62
     7
  5
192
 10
918820.351
 20
7285659.197
 30
0.0
 40
8.0
  1
150'
 50
358.194514
  7
txt
 72
     1
 11
918832.532949
 21
7285658.812999
 31
0.0
210
0.0
220
0.0
230
1.0
  0
TEXT
  8
11
  6
CONTINUOUS
 62
     7
  5
193
 10
918458.544
 20
7285469.497
 30
0.0
 40
8.0
  1
255'
 50
88.194503
  7
txt
 72
     1
 11
918458.973688
 21
7285483.128229
 31
0.0
210
0.0
220
0.0
230
1.0
  0
TEXT
  8
11
  6
CONTINUOUS
 62
     7
  5
194
 10
918594.746
 20
7285461.423
 30
0.0
 40
8.0
  1
270'
 50
88.194461
  7
txt
 72
     1
 11
918595.175666
 21
7285475.053229
 31
0.0
210
0.0
220
0.0
230
1.0
  0
TEXT
  8
11
  6
CONTINUOUS
 62
     7
  5
195
 10
918743.792
 20
7285457.476
 30
0.0
 40
8.0
  1
270'
 50
88.194461
  7
txt
 72
     1
 11
918744.221666
 21
7285471.106229
 31
0.0
210
0.0
220
0.0
230
1.0
  0
TEXT
  8
11
  6
CONTINUOUS
 62
     7
  5
196
 10
918894.35
 20
7285450.751
 30
0.0
 40
8.0
  1
270'
 50
88.194461
  7
txt
 72
     1
 11
918894.779666
 21
7285464.381229
 31
0.0
210
0.0
220
0.0
230
1.0
  0
TEXT
  8
11
  6
CONTINUOUS
 62
     7
  5
197
 10
919064.198
 20
7285438.014
 30
0.0
 40
8.0
  1
300'
 50
88.194503
  7
txt
 72
     1
 11
919064.625671
 21
7285451.581261
 31
0.0
210
0.0
220
0.0
230
1.0
  0
TEXT
  8
11
  6
CONTINUOUS
 62
     7
  5
198
 10
918469.01
 20
7285790.65
 30
0.0
 40
8.0
  1
255'
 50
88.194503
  7
txt
 72
     1
 11
918469.439688
 21
7285804.281229
 31
0.0
210
0.0
220
0.0
230
1.0
  0
TEXT
  8
11
  6
CONTINUOUS
 62
     7
  5
199
 10
918605.331
 20
7285786.206
 30
0.0
 40
8.0
  1
270'
 50
88.194461
  7
txt
 72
     1
 11
918605.760666
 21
7285799.836229
 31
0.0
210
0.0
220
0.0
230
1.0
  0
TEXT
  8
11
  6
CONTINUOUS
 62
     7
  5
19A
 10
918754.406
 20
7285783.165
 30
0.0
 40
8.0
  1
270'
 50
88.194461
  7
txt
 72
     1
 11
918754.835666
 21
7285796.795229
 31
0.0
210
0.0
220
0.0
230
1.0
  0
TEXT
  8
11
  6
CONTINUOUS
 62
     7
  5
19B
 10
918904.934
 20
7285775.533
 30
0.0
 40
8.0
  1
270'
 50
88.194461
  7
txt
 72
     1
 11
918905.363666
 21
7285789.163229
 31
0.0
210
0.0
220
0.0
230
1.0
  0
TEXT
  8
11
  6
CONTINUOUS
 62
     7
  5
19C
 10
919075.018
 20
7285770.054
 30
0.0
 40
8.0
  1
300'
 50
88.194503
  7
txt
 72
     1
 11
919075.445671
 21
7285783.621261
 31
0.0
210
0.0
220
0.0
230
1.0
  0
TEXT
  8
11
  6
CONTINUOUS
 62
     7
  5
19D
 10
918946.357
 20
7285679.232
 30
0.0
 40
8.0
  1
94.87'
 50
335.441922
  7
txt
 72
     1
 11
918964.260394
 21
7285671.051026
 31
0.0
210
0.0
220
0.0
230
1.0
  0
TEXT
  8
11
  6
CONTINUOUS
 62
     7
  5
19E
 10
918942.848
 20
7285558.751
 30
0.0
 40
8.0
  1
94.87'
 50
18.434678
  7
txt
 72
     1
 11
918958.992125
 21
7285572.565017
 31
0.0
210
0.0
220
0.0
230
1.0
 73
     3
  0
TEXT
  8
11
  6
CONTINUOUS
 62
     7
  5
19F
 10
918422.372
 20
7285928.315
 30
0.0
 40
8.0
  1
64'
 50
358.199828
  7
txt
 72
     1
 11
918432.255554
 21
7285936.008317
 31
0.0
210
0.0
220
0.0
230
1.0
 73
     3
  0
TEXT
  8
10
  6
CONTINUOUS
 62
   134
  5
1A0
 10
920337.382
 20
7289885.02
 30
0.0
 40
13.999
  1
1
  7
txt
 72
     4
 11
920339.586
 21
7289892.02
 31
0.0
210
0.0
220
0.0
230
1.0
  0
TEXT
  8
10
  6
CONTINUOUS
 62
   134
  5
1A1
 10
920331.204
 20
7289771.52
 30
0.0
 40
13.999
  1
2
  7
txt
 72
     4
 11
920335.888
 21
7289778.52
 31
0.0
210
0.0
220
0.0
230
1.0
  0
TEXT
  8
10
  6
CONTINUOUS
 62
   134
  5
1A2
 10
920326.965
 20
7289641.441
 30
0.0
 40
13.999
  1
3
  7
txt
 72
     4
 11
920331.649
 21
7289648.441
 31
0.0
210
0.0
220
0.0
230
1.0
  0
TEXT
  8
10
  6
CONTINUOUS
 62
   134
  5
1A3
 10
920322.437
 20
7289512.637
 30
0.0
 40
13.999
  1
4
  7
txt
 72
     4
 11
920327.452
 21
7289519.637
 31
0.0
210
0.0
220
0.0
230
1.0
  0
TEXT
  8
10
  6
CONTINUOUS
 62
   134
  5
1A4
 10
920318.405
 20
7289378.732
 30
0.0
 40
13.999
  1
5
  7
txt
 72
     4
 11
920323.089
 21
7289385.732
 31
0.0
210
0.0
220
0.0
230
1.0
  0
TEXT
  8
10
  6
CONTINUOUS
 62
   134
  5
1A5
 10
920314.538
 20
7289249.928
 30
0.0
 40
13.999
  1
6
  7
txt
 72
     4
 11
920318.892
 21
7289256.928
 31
0.0
210
0.0
220
0.0
230
1.0
  0
TEXT
  8
10
  6
CONTINUOUS
 62
   134
  5
1A6
 10
920309.79
 20
7289116.023
 30
0.0
 40
13.999
  1
7
  7
txt
 72
     4
 11
920314.529
 21
7289123.023
 31
0.0
210
0.0
220
0.0
230
1.0
  0
TEXT
  8
10
  6
CONTINUOUS
 62
   134
  5
1A7
 10
920305.482
 20
7288982.118
 30
0.0
 40
13.999
  1
8
  7
txt
 72
     4
 11
920310.166
 21
7288989.118
 31
0.0
210
0.0
220
0.0
230
1.0
  0
TEXT
  8
10
  6
CONTINUOUS
 62
   134
  5
1A8
 10
920302.03
 20
7288866.067
 30
0.0
 40
13.999
  1
9
  7
txt
 72
     4
 11
920306.384
 21
7288873.067
 31
0.0
210
0.0
220
0.0
230
1.0
  0
TEXT
  8
10
  6
CONTINUOUS
 62
   134
  5
1A9
 10
920292.249
 20
7288713.032
 30
0.0
 40
13.999
  1
10
  7
txt
 72
     4
 11
920301.397
 21
7288720.032
 31
0.0
210
0.0
220
0.0
230
1.0
  0
TEXT
  8
10
  6
CONTINUOUS
 62
   134
  5
1AA
 10
920290.851
 20
7288595.706
 30
0.0
 40
13.999
  1
11
  7
txt
 72
     4
 11
920297.574
 21
7288602.706
 31
0.0
210
0.0
220
0.0
230
1.0
  0
TEXT
  8
10
  6
CONTINUOUS
 62
   134
  5
1AB
 10
920284.214
 20
7288468.177
 30
0.0
 40
13.999
  1
12
  7
txt
 72
     4
 11
920293.418
 21
7288475.177
 31
0.0
210
0.0
220
0.0
230
1.0
  0
TEXT
  8
10
  6
CONTINUOUS
 62
   134
  5
1AC
 10
920280.017
 20
7288339.373
 30
0.0
 40
13.999
  1
13
  7
txt
 72
     4
 11
920289.221
 21
7288346.373
 31
0.0
210
0.0
220
0.0
230
1.0
  0
TEXT
  8
10
  6
CONTINUOUS
 62
   134
  5
1AD
 10
920275.428
 20
7288208.658
 30
0.0
 40
13.999
  1
14
  7
txt
 72
     4
 11
920284.962
 21
7288215.658
 31
0.0
210
0.0
220
0.0
230
1.0
  0
TEXT
  8
10
  6
CONTINUOUS
 62
   134
  5
1AE
 10
920271.436
 20
7288076.028
 30
0.0
 40
13.999
  1
15
  7
txt
 72
     4
 11
920280.64
 21
7288083.028
 31
0.0
210
0.0
220
0.0
230
1.0
  0
TEXT
  8
10
  6
CONTINUOUS
 62
   134
  5
1AF
 10
920267.528
 20
7287945.949
 30
0.0
 40
13.999
  1
16
  7
txt
 72
     4
 11
920276.401
 21
7287952.949
 31
0.0
210
0.0
220
0.0
230
1.0
  0
TEXT
  8
10
  6
CONTINUOUS
 62
   134
  5
1B0
 10
920261.491
 20
7287772.51
 30
0.0
 40
13.999
  1
17
  7
txt
 72
     4
 11
920270.749
 21
7287779.51
 31
0.0
210
0.0
220
0.0
230
1.0
  0
TEXT
  8
10
  6
CONTINUOUS
 62
   134
  5
1B1
 10
920253.981
 20
7287540.407
 30
0.0
 40
13.999
  1
18
  7
txt
 72
     4
 11
920263.185
 21
7287547.407
 31
0.0
210
0.0
220
0.0
230
1.0
  0
TEXT
  8
10
  6
CONTINUOUS
 62
   134
  5
1B2
 10
920467.751
 20
7287533.452
 30
0.0
 40
13.999
  1
19
  7
txt
 72
     4
 11
920476.624
 21
7287540.452
 31
0.0
210
0.0
220
0.0
230
1.0
  0
TEXT
  8
10
  6
CONTINUOUS
 62
   134
  5
1B3
 10
920638.294
 20
7287527.805
 30
0.0
 40
13.999
  1
20
  7
txt
 72
     4
 11
920649.922
 21
7287534.805
 31
0.0
210
0.0
220
0.0
230
1.0
  0
TEXT
  8
10
  6
CONTINUOUS
 62
   134
  5
1B4
 10
920816.564
 20
7287522.075
 30
0.0
 40
13.999
  1
21
  7
txt
 72
     4
 11
920825.768
 21
7287529.075
 31
0.0
210
0.0
220
0.0
230
1.0
  0
TEXT
  8
10
  6
CONTINUOUS
 62
   134
  5
1B5
 10
920972.091
 20
7287516.926
 30
0.0
 40
13.999
  1
22
  7
txt
 72
     4
 11
920983.775
 21
7287523.926
 31
0.0
210
0.0
220
0.0
230
1.0
  0
TEXT
  8
10
  6
CONTINUOUS
 62
   134
  5
1B6
 10
921155.583
 20
7287510.947
 30
0.0
 40
13.999
  1
23
  7
txt
 72
     4
 11
921167.267
 21
7287517.947
 31
0.0
210
0.0
220
0.0
230
1.0
  0
TEXT
  8
10
  6
CONTINUOUS
 62
   134
  5
1B7
 10
921341.293
 20
7287504.885
 30
0.0
 40
13.999
  1
24
  7
txt
 72
     4
 11
921353.307
 21
7287511.885
 31
0.0
210
0.0
220
0.0
230
1.0
  0
TEXT
  8
10
  6
CONTINUOUS
 62
   134
  5
1B8
 10
921355.422
 20
7287928.283
 30
0.0
 40
13.999
  1
25
  7
txt
 72
     4
 11
921367.106
 21
7287935.283
 31
0.0
210
0.0
220
0.0
230
1.0
  0
TEXT
  8
10
  6
CONTINUOUS
 62
   134
  5
1B9
 10
921174.81
 20
7287934.18
 30
0.0
 40
13.999
  1
26
  7
txt
 72
     4
 11
921186.164
 21
7287941.18
 31
0.0
210
0.0
220
0.0
230
1.0
  0
TEXT
  8
10
  6
CONTINUOUS
 62
   134
  5
1BA
 10
921034.259
 20
7287938.748
 30
0.0
 40
13.999
  1
27
  7
txt
 72
     4
 11
921045.997
 21
7287945.748
 31
0.0
210
0.0
220
0.0
230
1.0
  0
TEXT
  8
10
  6
CONTINUOUS
 62
   134
  5
1BB
 10
920894.146
 20
7287943.316
 30
0.0
 40
13.999
  1
28
  7
txt
 72
     4
 11
920905.83
 21
7287950.316
 31
0.0
210
0.0
220
0.0
230
1.0
  0
TEXT
  8
10
  6
CONTINUOUS
 62
   134
  5
1BC
 10
920645.0
 20
7287803.356
 30
0.0
 40
13.999
  1
29
  7
txt
 72
     4
 11
920656.354
 21
7287810.356
 31
0.0
210
0.0
220
0.0
230
1.0
  0
TEXT
  8
10
  6
CONTINUOUS
 62
   134
  5
1BD
 10
920648.883
 20
7287930.886
 30
0.0
 40
13.999
  1
30
  7
txt
 72
     4
 11
920660.511
 21
7287937.886
 31
0.0
210
0.0
220
0.0
230
1.0
  0
TEXT
  8
10
  6
CONTINUOUS
 62
   134
  5
1BE
 10
920655.962
 20
7288073.719
 30
0.0
 40
13.999
  1
31
  7
txt
 72
     4
 11
920665.166
 21
7288080.719
 31
0.0
210
0.0
220
0.0
230
1.0
  0
TEXT
  8
10
  6
CONTINUOUS
 62
   134
  5
1BF
 10
920657.639
 20
7288201.249
 30
0.0
 40
13.999
  1
32
  7
txt
 72
     4
 11
920669.323
 21
7288208.249
 31
0.0
210
0.0
220
0.0
230
1.0
  0
TEXT
  8
10
  6
CONTINUOUS
 62
   134
  5
1C0
 10
920661.629
 20
7288323.678
 30
0.0
 40
13.999
  1
33
  7
txt
 72
     4
 11
920673.313
 21
7288330.678
 31
0.0
210
0.0
220
0.0
230
1.0
  0
TEXT
  8
10
  6
CONTINUOUS
 62
   134
  5
1C1
 10
920666.204
 20
7288474.163
 30
0.0
 40
13.999
  1
34
  7
txt
 72
     4
 11
920678.218
 21
7288481.163
 31
0.0
210
0.0
220
0.0
230
1.0
  0
TEXT
  8
10
  6
CONTINUOUS
 62
   134
  5
1C2
 10
920670.607
 20
7288599.142
 30
0.0
 40
13.999
  1
35
  7
txt
 72
     4
 11
920682.291
 21
7288606.142
 31
0.0
210
0.0
220
0.0
230
1.0
  0
TEXT
  8
10
  6
CONTINUOUS
 62
   134
  5
1C3
 10
920674.346
 20
7288703.717
 30
0.0
 40
13.999
  1
36
  7
txt
 72
     4
 11
920685.7
 21
7288710.717
 31
0.0
210
0.0
220
0.0
230
1.0
  0
TEXT
  8
10
  6
CONTINUOUS
 62
   134
  5
1C4
 10
920679.282
 20
7288866.955
 30
0.0
 40
13.999
  1
37
  7
txt
 72
     4
 11
920691.02
 21
7288873.955
 31
0.0
210
0.0
220
0.0
230
1.0
  0
TEXT
  8
10
  6
CONTINUOUS
 62
   134
  5
1C5
 10
920683.077
 20
7288981.732
 30
0.0
 40
13.999
  1
38
  7
txt
 72
     4
 11
920694.761
 21
7288988.732
 31
0.0
210
0.0
220
0.0
230
1.0
  0
TEXT
  8
10
  6
CONTINUOUS
 62
   134
  5
1C6
 10
920687.73
 20
7289114.363
 30
0.0
 40
13.999
  1
39
  7
txt
 72
     4
 11
920699.084
 21
7289121.363
 31
0.0
210
0.0
220
0.0
230
1.0
  0
TEXT
  8
10
  6
CONTINUOUS
 62
   134
  5
1C7
 10
920691.198
 20
7289239.342
 30
0.0
 40
13.999
  1
40
  7
txt
 72
     4
 11
920703.157
 21
7289246.342
 31
0.0
210
0.0
220
0.0
230
1.0
  0
TEXT
  8
10
  6
CONTINUOUS
 62
   134
  5
1C8
 10
920697.447
 20
7289356.669
 30
0.0
 40
13.999
  1
41
  7
txt
 72
     4
 11
920706.981
 21
7289363.669
 31
0.0
210
0.0
220
0.0
230
1.0
  0
TEXT
  8
10
  6
CONTINUOUS
 62
   134
  5
1C9
 10
920699.29
 20
7289489.3
 30
0.0
 40
13.999
  1
42
  7
txt
 72
     4
 11
920711.304
 21
7289496.3
 31
0.0
210
0.0
220
0.0
230
1.0
  0
TEXT
  8
10
  6
CONTINUOUS
 62
   134
  5
1CA
 10
920703.696
 20
7289624.482
 30
0.0
 40
13.999
  1
43
  7
txt
 72
     4
 11
920715.71
 21
7289631.482
 31
0.0
210
0.0
220
0.0
230
1.0
  0
TEXT
  8
10
  6
CONTINUOUS
 62
   134
  5
1CB
 10
920708.102
 20
7289769.866
 30
0.0
 40
13.999
  1
44
  7
txt
 72
     4
 11
920720.448
 21
7289776.866
 31
0.0
210
0.0
220
0.0
230
1.0
  0
TEXT
  8
10
  6
CONTINUOUS
 62
   134
  5
1CC
 10
920711.676
 20
7289869.339
 30
0.0
 40
13.999
  1
45
  7
txt
 72
     4
 11
920723.69
 21
7289876.339
 31
0.0
210
0.0
220
0.0
230
1.0
  0
ENDSEC
  0
EOF
