  0
SECTION
  2
HEADER
  9
$ACADVER
  1
AC1009
  9
$INSBASE
 10
0.0
 20
0.0
 30
0.0
  9
$EXTMIN
 10
915167.427
 20
7258293.08
 30
0.0
  9
$EXTMAX
 10
920741.007
 20
7263743.983
 30
0.0
  9
$LIMMIN
 10
0.0
 20
0.0
  9
$LIMMAX
 10
12.0
 20
9.0
  9
$ORTHOMODE
 70
     0
  9
$REGENMODE
 70
     1
  9
$FILLMODE
 70
     1
  9
$QTEXTMODE
 70
     0
  9
$MIRRTEXT
 70
     1
  9
$DRAGMODE
 70
     2
  9
$LTSCALE
 40
1.0
  9
$OSMODE
 70
     0
  9
$ATTMODE
 70
     1
  9
$TEXTSIZE
 40
0.2
  9
$TRACEWID
 40
0.05
  9
$TEXTSTYLE
  7
STANDARD
  9
$CLAYER
  8
0
  9
$CELTYPE
  6
CONTINUOUS
  9
$CECOLOR
 62
   256
  9
$DIMSCALE
 40
1.0
  9
$DIMASZ
 40
0.18
  9
$DIMEXO
 40
0.0625
  9
$DIMDLI
 40
0.38
  9
$DIMRND
 40
0.0
  9
$DIMDLE
 40
0.0
  9
$DIMEXE
 40
0.18
  9
$DIMTP
 40
0.0
  9
$DIMTM
 40
0.0
  9
$DIMTXT
 40
0.18
  9
$DIMCEN
 40
0.09
  9
$DIMTSZ
 40
0.0
  9
$DIMTOL
 70
     0
  9
$DIMLIM
 70
     0
  9
$DIMTIH
 70
     1
  9
$DIMTOH
 70
     1
  9
$DIMSE1
 70
     0
  9
$DIMSE2
 70
     0
  9
$DIMTAD
 70
     0
  9
$DIMZIN
 70
     0
  9
$DIMBLK
  1

  9
$DIMASO
 70
     1
  9
$DIMSHO
 70
     1
  9
$DIMPOST
  1

  9
$DIMAPOST
  1

  9
$DIMALT
 70
     0
  9
$DIMALTD
 70
     2
  9
$DIMALTF
 40
25.4
  9
$DIMLFAC
 40
1.0
  9
$DIMTOFL
 70
     0
  9
$DIMTVP
 40
0.0
  9
$DIMTIX
 70
     0
  9
$DIMSOXD
 70
     0
  9
$DIMSAH
 70
     0
  9
$DIMBLK1
  1

  9
$DIMBLK2
  1

  9
$DIMSTYLE
  2
STANDARD
  9
$DIMCLRD
 70
     0
  9
$DIMCLRE
 70
     0
  9
$DIMCLRT
 70
     0
  9
$DIMTFAC
 40
1.0
  9
$DIMGAP
 40
0.09
  9
$LUNITS
 70
     2
  9
$LUPREC
 70
     4
  9
$AXISMODE
 70
     0
  9
$AXISUNIT
 10
0.0
 20
0.0
  9
$SKETCHINC
 40
0.1
  9
$FILLETRAD
 40
0.0
  9
$AUNITS
 70
     0
  9
$AUPREC
 70
     0
  9
$MENU
  1
acad
  9
$ELEVATION
 40
0.0
  9
$PELEVATION
 40
0.0
  9
$THICKNESS
 40
0.0
  9
$LIMCHECK
 70
     0
  9
$BLIPMODE
 70
     1
  9
$CHAMFERA
 40
0.0
  9
$CHAMFERB
 40
0.0
  9
$SKPOLY
 70
     0
  9
$TDCREATE
 40
2453013.901354167
  9
$TDUPDATE
 40
2453013.901354167
  9
$TDINDWG
 40
0.0000000000
  9
$TDUSRTIMER
 40
0.0000000000
  9
$USRTIMER
 70
     1
  9
$ANGBASE
 50
0.0
  9
$ANGDIR
 70
     0
  9
$PDMODE
 70
     0
  9
$PDSIZE
 40
0.0
  9
$PLINEWID
 40
0.0
  9
$COORDS
 70
     0
  9
$SPLFRAME
 70
     0
  9
$SPLINETYPE
 70
     6
  9
$SPLINESEGS
 70
    10
  9
$ATTDIA
 70
     0
  9
$ATTREQ
 70
     1
  9
$HANDLING
 70
     1
  9
$HANDSEED
  5
66F
  9
$SURFTAB1
 70
     6
  9
$SURFTAB2
 70
     6
  9
$SURFTYPE
 70
     6
  9
$SURFU
 70
     6
  9
$SURFV
 70
     6
  9
$UCSNAME
  2

  9
$UCSORG
 10
0.0
 20
0.0
 30
0.0
  9
$UCSXDIR
 10
1.0
 20
0.0
 30
0.0
  9
$UCSYDIR
 10
0.0
 20
1.0
 30
0.0
  9
$PUCSNAME
  2

  9
$PUCSORG
 10
0.0
 20
0.0
 30
0.0
  9
$PUCSXDIR
 10
1.0
 20
0.0
 30
0.0
  9
$PUCSYDIR
 10
0.0
 20
1.0
 30
0.0
  9
$USERI1
 70
     0
  9
$USERI2
 70
     0
  9
$USERI3
 70
     0
  9
$USERI4
 70
     0
  9
$USERI5
 70
     0
  9
$USERR1
 40
0.0
  9
$USERR2
 40
0.0
  9
$USERR3
 40
0.0
  9
$USERR4
 40
0.0
  9
$USERR5
 40
0.0
  9
$WORLDVIEW
 70
     1
  9
$SHADEDGE
 70
     3
  9
$SHADEDIF
 70
    70
  9
$TILEMODE
 70
     1
  9
$MAXACTVP
 70
    16
  9
$PINSBASE
 10
0.0
 20
0.0
 30
0.0
  9
$PLIMCHECK
 70
     0
  9
$PEXTMIN
 10
-1.000000E+20
 20
-1.000000E+20
 30
-1.000000E+20
  9
$PEXTMAX
 10
-1.000000E+20
 20
-1.000000E+20
 30
-1.000000E+20
  9
$PLIMMIN
 10
0.0
 20
0.0
  9
$PLIMMAX
 10
12.0
 20
9.0
  9
$UNITMODE
 70
     0
  9
$VISRETAIN
 70
     0
  9
$PLINEGEN
 70
     1
  9
$PSLTSCALE
 70
     0
  9
$TREEDEPTH
 70
  3020
  9
$DWGCODEPAGE
  3
ansi_1252
  0
ENDSEC
  0
SECTION
  2
TABLES
  0
TABLE
  2
VPORT
 70
     1
  0
VPORT
  2
*ACTIVE
 70
     0
 10
0.0
 20
0.0
 11
1.0
 21
1.0
 12
0.0
 22
0.0
 13
0.0
 23
0.0
 14
0.0
 24
0.0
 15
0.0
 25
0.0
 16
0.0
 26
0.0
 36
1.0
 17
917954.890611
 27
7261128.758872
 37
0.0
 40
5944.818274
 41
1.4775
 42
50.0
 43
0.004
 44
0.0
 50
1.817813
 51
0.0
 71
     0
 72
   100
 73
     1
 74
     0
 75
     0
 76
     0
 77
     0
 78
     0
  0
ENDTAB
  0
TABLE
  2
LTYPE
 70
     7
  0
LTYPE
  2
CONTINUOUS
 70
     0
  3
Solid line
 72
    65
 73
     0
 40
0.0
  0
LTYPE
  2
DOT
 70
    64
  3
. . . . . . . . . . . . . . . . . . . . . . . . . . . . . . . . .
 72
    65
 73
     2
 40
0.25
 49
0.0
 49
-0.25
  0
LTYPE
  2
HIDDEN
 70
    64
  3
__ __ __ __ __ __ __ __ __ __ __ __ __ __ __ __ __ __ __ __ __ 
 72
    65
 73
     2
 40
0.375
 49
0.25
 49
-0.125
  0
LTYPE
  2
DASHED
 70
    64
  3
__ __ __ __ __ __ __ __ __ __ __ __ __ __ __ __ __ __ __ __ __
 72
    65
 73
     2
 40
0.75
 49
0.5
 49
-0.25
  0
LTYPE
  2
DASHDOT
 70
    64
  3
__ . __ . __ . __ . __ . __ . __ . __ . __ . __ . __ . __ . _
 72
    65
 73
     4
 40
1.0
 49
0.5
 49
-0.25
 49
0.0
 49
-0.25
  0
LTYPE
  2
DIVIDE
 70
    64
  3
____ . . ____ . . ____ . . ____ . . ____ . . ____ . . ____ . .
 72
    65
 73
     6
 40
1.25
 49
0.5
 49
-0.25
 49
0.0
 49
-0.25
 49
0.0
 49
-0.25
  0
LTYPE
  2
CENTER
 70
    64
  3
____ _ ____ _ ____ _ ____ _ ____ _ ____ _ ____ _ ____ _ ____ _
 72
    65
 73
     4
 40
2.0
 49
1.25
 49
-0.25
 49
0.25
 49
-0.25
  0
ENDTAB
  0
TABLE
  2
LAYER
 70
    17
  0
LAYER
  2
0
 70
     0
 62
     7
  6
CONTINUOUS
  0
LAYER
  2
CONSTRUCTION_CLASS
 70
     1
 62
     7
  6
CONTINUOUS
  0
LAYER
  2
PATTERN_CLASS
 70
     0
 62
     7
  6
CONTINUOUS
  0
LAYER
  2
6
 70
    64
 62
     7
  6
CONTINUOUS
  0
LAYER
  2
27
 70
    64
 62
     7
  6
CONTINUOUS
  0
LAYER
  2
10
 70
    64
 62
     7
  6
CONTINUOUS
  0
LAYER
  2
11
 70
    64
 62
     7
  6
CONTINUOUS
  0
LAYER
  2
19
 70
    64
 62
     7
  6
CONTINUOUS
  0
LAYER
  2
21
 70
    64
 62
     7
  6
CONTINUOUS
  0
LAYER
  2
7
 70
    64
 62
     7
  6
CONTINUOUS
  0
LAYER
  2
15
 70
    64
 62
     7
  6
CONTINUOUS
  0
LAYER
  2
13
 70
    64
 62
     7
  6
CONTINUOUS
  0
LAYER
  2
25
 70
    64
 62
     7
  6
CONTINUOUS
  0
LAYER
  2
22
 70
    64
 62
     7
  6
CONTINUOUS
  0
LAYER
  2
14
 70
    64
 62
     7
  6
CONTINUOUS
  0
LAYER
  2
28
 70
    64
 62
     7
  6
CONTINUOUS
  0
LAYER
  2
1
 70
    64
 62
     7
  6
CONTINUOUS
  0
ENDTAB
  0
TABLE
  2
STYLE
 70
     4
  0
STYLE
  2
STANDARD
 70
     0
 40
0.0
 41
1.0
 50
0.0
 71
     0
 42
0.0
  3
txt
  4

  0
STYLE
  2
ROMANS
 70
     0
 40
0.2
 41
1.0
 50
0.0
 71
     0
 42
0.2
  3
ROMANS
  4

  0
STYLE
  2
txt
 70
     0
 40
0.2
 41
1.0
 50
0.0
 71
     0
 42
0.2
  3
TXT
  4

  0
STYLE
  2
ROMANC
 70
     0
 40
0.2
 41
1.0
 50
0.0
 71
     0
 42
0.2
  3
ROMANC
  4

  0
ENDTAB
  0
TABLE
  2
VIEW
 70
     0
  0
ENDTAB
  0
TABLE
  2
UCS
 70
     0
  0
ENDTAB
  0
TABLE
  2
APPID
 70
     1
  0
APPID
  2
ACAD
 70
     0
  0
ENDTAB
  0
TABLE
  2
DIMSTYLE
 70
     1
  0
DIMSTYLE
  2
STANDARD
 70
     0
  3

  4

  5

  6

  7

 40
1.0
 41
0.18
 42
0.0625
 43
0.38
 44
0.18
 45
0.0
 46
0.0
 47
0.0
 48
0.0
140
0.18
141
0.09
142
0.0
143
25.4
144
1.0
145
0.0
146
1.0
147
0.09
 71
     0
 72
     0
 73
     1
 74
     1
 75
     0
 76
     0
 77
     0
 78
     0
170
     0
171
     2
172
     0
173
     0
174
     0
175
     0
176
     0
177
     0
178
     0
  0
ENDTAB
  0
ENDSEC
  0
SECTION
  2
BLOCKS
  0
ENDSEC
  0
SECTION
  2
ENTITIES
  0
POLYLINE
  8
6
  6
CONTINUOUS
 62
     7
  5
29
 66
     1
 10
0.0
 20
0.0
 30
0.0
  0
VERTEX
  8
6
  6
CONTINUOUS
 62
     7
  5
2A
 10
918872.412
 20
7258397.253
 30
0.0
  0
VERTEX
  8
6
  6
CONTINUOUS
 62
     7
  5
2B
 10
918882.445
 20
7258706.589
 30
0.0
  0
VERTEX
  8
6
  6
CONTINUOUS
 62
     7
  5
2C
 10
918892.48
 20
7259016.027
 30
0.0
  0
SEQEND
  8
6
  6
CONTINUOUS
 62
     7
  5
2D
  0
ARC
  8
6
  6
CONTINUOUS
 62
     7
  5
2E
 10
918877.485576
 20
7259016.41345
 30
0.0
 40
15.0
 50
358.142444
 51
88.142444
210
0.0
220
0.0
230
1.0
  0
POLYLINE
  8
6
  6
CONTINUOUS
 62
     7
  5
2F
 66
     1
 10
0.0
 20
0.0
 30
0.0
  0
VERTEX
  8
6
  6
CONTINUOUS
 62
     7
  5
30
 10
915334.61
 20
7260179.316
 30
0.0
  0
VERTEX
  8
6
  6
CONTINUOUS
 62
     7
  5
31
 10
915374.591
 20
7260178.053
 30
0.0
  0
VERTEX
  8
6
  6
CONTINUOUS
 62
     7
  5
32
 10
915372.443
 20
7260110.087
 30
0.0
  0
VERTEX
  8
6
  6
CONTINUOUS
 62
     7
  5
33
 10
915332.462
 20
7260111.35
 30
0.0
  0
SEQEND
  8
6
  6
CONTINUOUS
 62
     7
  5
34
  0
ARC
  8
6
  6
CONTINUOUS
 62
     7
  5
35
 10
918857.420826
 20
7258397.738733
 30
0.0
 40
15.0
 50
330.324306
 51
358.142444
210
0.0
220
0.0
230
1.0
  0
ARC
  8
6
  6
CONTINUOUS
 62
     7
  5
36
 10
918857.420826
 20
7258397.738733
 30
0.0
 40
15.0
 50
268.142444
 51
330.324306
210
0.0
220
0.0
230
1.0
  0
LINE
  8
6
  6
CONTINUOUS
 62
     7
  5
37
 10
915330.921
 20
7260001.72
 30
0.0
 11
917070.053
 21
7259946.757
 31
0.0
  0
LINE
  8
6
  6
CONTINUOUS
 62
     7
  5
38
 10
917070.053
 20
7259946.757
 30
0.0
 11
917755.96
 21
7259884.815
 31
0.0
  0
ARC
  8
6
  6
CONTINUOUS
 62
     7
  5
39
 10
917736.623627
 20
7259670.686357
 30
0.0
 40
215.0
 50
357.961125
 51
84.839872
210
0.0
220
0.0
230
1.0
  0
LINE
  8
6
  6
CONTINUOUS
 62
     7
  5
3A
 10
917943.193
 20
7259668.427
 30
0.0
 11
917998.102
 21
7259666.646
 31
0.0
  0
LINE
  8
6
  6
CONTINUOUS
 62
     7
  5
3B
 10
915335.209
 20
7260289.287
 30
0.0
 11
917083.837
 21
7260232.035
 31
0.0
  0
LINE
  8
6
  6
CONTINUOUS
 62
     7
  5
3C
 10
917083.837
 20
7260232.035
 30
0.0
 11
917767.363
 21
7260244.519
 31
0.0
  0
ARC
  8
6
  6
CONTINUOUS
 62
     7
  5
3D
 10
917761.586279
 20
7260459.441183
 30
0.0
 40
215.0
 50
271.539817
 51
359.266072
210
0.0
220
0.0
230
1.0
  0
LINE
  8
6
  6
CONTINUOUS
 62
     7
  5
3E
 10
917965.242
 20
7260459.056
 30
0.0
 11
918075.188
 21
7260455.582
 31
0.0
  0
ARC
  8
6
  6
CONTINUOUS
 62
     7
  5
3F
 10
918289.914342
 20
7260444.75508
 30
0.0
 40
215.0
 50
177.113617
 51
264.839872
210
0.0
220
0.0
230
1.0
  0
LINE
  8
6
  6
CONTINUOUS
 62
     7
  5
40
 10
918270.578
 20
7260230.626
 30
0.0
 11
918914.167
 21
7260172.507
 31
0.0
  0
LINE
  8
6
  6
CONTINUOUS
 62
     7
  5
41
 10
918357.534
 20
7263646.972
 30
0.0
 11
915364.816
 21
7261617.358
 31
0.0
  0
LINE
  8
6
  6
CONTINUOUS
 62
     7
  5
42
 10
918187.383
 20
7263652.349
 30
0.0
 11
915369.125
 21
7261741.35
 31
0.0
  0
LINE
  8
27
  6
CONTINUOUS
 62
    32
  5
44
 10
918272.459
 20
7263649.66
 30
0.0
 11
915167.427
 21
7261544.049
 31
0.0
  0
TEXT
  8
10
  6
CONTINUOUS
 62
   134
  5
47
 10
919499.111
 20
7263510.066
 30
0.0
 40
13.999
  1
TRACT D
 50
358.363344
  7
ROMANS
 11
919499.510827
 21
7263524.059289
 31
0.0
210
0.0
220
0.0
230
1.0
 73
     3
  0
TEXT
  8
10
  6
CONTINUOUS
 62
   134
  5
48
 10
919703.822
 20
7263380.447
 30
0.0
 40
13.999
  1
TRACT E
 50
358.363344
  7
ROMANS
 11
919704.221827
 21
7263394.440289
 31
0.0
210
0.0
220
0.0
230
1.0
 73
     3
  0
TEXT
  8
10
  6
CONTINUOUS
 62
   134
  5
49
 10
919098.498
 20
7263196.042
 30
0.0
 40
13.999
  1
TRACT F
 50
358.363344
  7
ROMANS
 11
919098.897827
 21
7263210.035289
 31
0.0
210
0.0
220
0.0
230
1.0
 73
     3
  0
TEXT
  8
10
  6
CONTINUOUS
 62
   134
  5
4A
 10
919143.801
 20
7262857.818
 30
0.0
 40
13.999
  1
1
 50
358.363344
  7
ROMANS
 11
919144.200827
 21
7262871.811289
 31
0.0
210
0.0
220
0.0
230
1.0
 73
     3
  0
TEXT
  8
10
  6
CONTINUOUS
 62
   134
  5
4B
 10
919368.718
 20
7262794.09
 30
0.0
 40
13.999
  1
2
 50
358.363344
  7
ROMANS
 11
919369.117827
 21
7262808.083289
 31
0.0
210
0.0
220
0.0
230
1.0
 73
     3
  0
TEXT
  8
10
  6
CONTINUOUS
 62
   134
  5
4C
 10
919571.278
 20
7262829.558
 30
0.0
 40
13.999
  1
3
 50
358.363344
  7
ROMANS
 11
919571.677827
 21
7262843.551289
 31
0.0
210
0.0
220
0.0
230
1.0
 73
     3
  0
TEXT
  8
10
  6
CONTINUOUS
 62
   134
  5
4D
 10
919672.69
 20
7262932.095
 30
0.0
 40
13.999
  1
4
 50
358.363344
  7
ROMANS
 11
919673.089827
 21
7262946.088289
 31
0.0
210
0.0
220
0.0
230
1.0
 73
     3
  0
TEXT
  8
10
  6
CONTINUOUS
 62
   134
  5
4E
 10
920114.886
 20
7263258.683
 30
0.0
 40
13.999
  1
13
 50
358.363344
  7
ROMANS
 11
920115.285827
 21
7263272.676289
 31
0.0
210
0.0
220
0.0
230
1.0
 73
     3
  0
TEXT
  8
10
  6
CONTINUOUS
 62
   134
  5
4F
 10
920070.359
 20
7263223.283
 30
0.0
 40
13.999
  1
12
 50
358.363344
  7
ROMANS
 11
920070.758827
 21
7263237.276289
 31
0.0
210
0.0
220
0.0
230
1.0
 73
     3
  0
TEXT
  8
10
  6
CONTINUOUS
 62
   134
  5
50
 10
920021.385
 20
7263192.594
 30
0.0
 40
13.999
  1
11
 50
358.363344
  7
ROMANS
 11
920021.784827
 21
7263206.587289
 31
0.0
210
0.0
220
0.0
230
1.0
 73
     3
  0
TEXT
  8
10
  6
CONTINUOUS
 62
   134
  5
51
 10
919965.614
 20
7263164.39
 30
0.0
 40
13.999
  1
9-A
 50
358.363344
  7
ROMANS
 11
919966.013827
 21
7263178.383289
 31
0.0
210
0.0
220
0.0
230
1.0
 73
     3
  0
TEXT
  8
10
  6
CONTINUOUS
 62
   134
  5
52
 10
919710.156
 20
7262960.821
 30
0.0
 40
13.999
  1
5-A
 50
358.363344
  7
ROMANS
 11
919710.555827
 21
7262974.814289
 31
0.0
210
0.0
220
0.0
230
1.0
 73
     3
  0
TEXT
  8
10
  6
CONTINUOUS
 62
   134
  5
53
 10
919843.736
 20
7263067.024
 30
0.0
 40
13.999
  1
7-A
 50
358.363344
  7
ROMANS
 11
919844.135827
 21
7263081.017289
 31
0.0
210
0.0
220
0.0
230
1.0
 73
     3
  0
TEXT
  8
10
  6
CONTINUOUS
 62
   134
  5
54
 10
917617.443
 20
7262752.358
 30
0.0
 40
13.999
  1
CITY
 50
358.189844
  7
ROMANS
 72
     4
 11
917643.170381
 21
7262758.548415
 31
0.0
210
0.0
220
0.0
230
1.0
  0
TEXT
  8
10
  6
CONTINUOUS
 62
   134
  5
55
 10
917589.016
 20
7262732.248
 30
0.0
 40
13.999
  1
PROPERTY
 50
358.189844
  7
ROMANS
 72
     4
 11
917642.727409
 21
7262737.554016
 31
0.0
210
0.0
220
0.0
230
1.0
  0
TEXT
  8
10
  6
CONTINUOUS
 62
   134
  5
56
 10
919643.074
 20
7261988.475
 30
0.0
 40
13.999
  1
CITY
 50
358.363344
  7
ROMANS
 72
     4
 11
919668.782517
 21
7261994.743293
 31
0.0
210
0.0
220
0.0
230
1.0
  0
TEXT
  8
10
  6
CONTINUOUS
 62
   134
  5
57
 10
919614.708
 20
7261968.279
 30
0.0
 40
13.999
  1
PROPERTY
 50
358.363344
  7
ROMANS
 72
     4
 11
919668.403096
 21
7261973.747638
 31
0.0
210
0.0
220
0.0
230
1.0
  0
TEXT
  8
10
  6
CONTINUOUS
 62
   134
  5
58
 10
918110.022
 20
7262965.395
 30
0.0
 40
13.999
  1
IN
 50
358.189844
  7
ROMANS
 72
     4
 11
918121.647422
 21
7262972.031089
 31
0.0
210
0.0
220
0.0
230
1.0
  0
TEXT
  8
10
  6
CONTINUOUS
 62
   134
  5
59
 10
918039.95
 20
7262946.601
 30
0.0
 40
13.999
  1
CONDEMNATION
 50
358.189844
  7
ROMANS
 72
     4
 11
918121.536492
 21
7262951.026061
 31
0.0
210
0.0
220
0.0
230
1.0
  0
TEXT
  8
10
  6
CONTINUOUS
 62
   134
  5
5A
 10
920447.504
 20
7261411.796
 30
0.0
 40
13.999
  1
1
 50
358.363344
  7
ROMANS
 11
920447.903827
 21
7261425.789289
 31
0.0
210
0.0
220
0.0
230
1.0
 73
     3
  0
TEXT
  8
10
  6
CONTINUOUS
 62
   134
  5
5B
 10
920242.608
 20
7260847.16
 30
0.0
 40
13.999
  1
TRACT B
 50
358.363344
  7
ROMANS
 11
920243.007827
 21
7260861.153289
 31
0.0
210
0.0
220
0.0
230
1.0
 73
     3
  0
TEXT
  8
10
  6
CONTINUOUS
 62
   134
  5
5C
 10
920313.866
 20
7260455.477
 30
0.0
 40
13.999
  1
TRACT A
 50
358.363344
  7
ROMANS
 11
920314.265827
 21
7260469.470289
 31
0.0
210
0.0
220
0.0
230
1.0
 73
     3
  0
TEXT
  8
10
  6
CONTINUOUS
 62
   134
  5
5D
 10
919217.972
 20
7259473.449
 30
0.0
 40
13.999
  1
TRACT A
 50
358.142444
  7
ROMANS
 11
919218.425775
 21
7259487.440644
 31
0.0
210
0.0
220
0.0
230
1.0
 73
     3
  0
TEXT
  8
10
  6
CONTINUOUS
 62
   134
  5
5E
 10
918665.775
 20
7258551.48
 30
0.0
 40
13.999
  1
TRACT A
 50
358.142444
  7
ROMANS
 11
918666.228775
 21
7258565.471644
 31
0.0
210
0.0
220
0.0
230
1.0
 73
     3
  0
TEXT
  8
10
  6
CONTINUOUS
 62
   134
  5
5F
 10
918774.424
 20
7259781.249
 30
0.0
 40
13.999
  1
TRACT A
 50
358.142444
  7
ROMANS
 11
918774.877775
 21
7259795.240644
 31
0.0
210
0.0
220
0.0
230
1.0
 73
     3
  0
TEXT
  8
10
  6
CONTINUOUS
 62
   134
  5
60
 10
920045.567
 20
7259565.808
 30
0.0
 40
13.999
  1
TRACT B
 50
358.142444
  7
ROMANS
 11
920046.020775
 21
7259579.799644
 31
0.0
210
0.0
220
0.0
230
1.0
 73
     3
  0
TEXT
  8
10
  6
CONTINUOUS
 62
   134
  5
61
 10
920472.027
 20
7259437.362
 30
0.0
 40
13.999
  1
1
 50
358.142444
  7
ROMANS
 11
920472.480775
 21
7259451.353644
 31
0.0
210
0.0
220
0.0
230
1.0
 73
     3
  0
TEXT
  8
10
  6
CONTINUOUS
 62
   134
  5
62
 10
919053.101
 20
7258906.868
 30
0.0
 40
13.999
  1
3A
 50
358.142444
  7
ROMANS
 11
919053.554775
 21
7258920.859644
 31
0.0
210
0.0
220
0.0
230
1.0
 73
     3
  0
TEXT
  8
10
  6
CONTINUOUS
 62
   134
  5
63
 10
919703.839
 20
7258916.706
 30
0.0
 40
13.999
  1
1
 50
358.142444
  7
ROMANS
 11
919704.292775
 21
7258930.697644
 31
0.0
210
0.0
220
0.0
230
1.0
 73
     3
  0
TEXT
  8
10
  6
CONTINUOUS
 62
   134
  5
64
 10
919735.939
 20
7258680.808
 30
0.0
 40
13.999
  1
2
 50
358.142444
  7
ROMANS
 11
919736.392775
 21
7258694.799644
 31
0.0
210
0.0
220
0.0
230
1.0
 73
     3
  0
TEXT
  8
10
  6
CONTINUOUS
 62
   134
  5
65
 10
920223.374
 20
7258409.301
 30
0.0
 40
13.999
  1
6
 50
358.142444
  7
ROMANS
 11
920223.827775
 21
7258423.292644
 31
0.0
210
0.0
220
0.0
230
1.0
 73
     3
  0
TEXT
  8
10
  6
CONTINUOUS
 62
   134
  5
66
 10
920374.985
 20
7258422.723
 30
0.0
 40
13.999
  1
TR. A
 50
358.142444
  7
ROMANS
 11
920375.438775
 21
7258436.714644
 31
0.0
210
0.0
220
0.0
230
1.0
 73
     3
  0
TEXT
  8
10
  6
CONTINUOUS
 62
   134
  5
67
 10
920414.948
 20
7258948.659
 30
0.0
 40
13.999
  1
5
 50
358.142444
  7
ROMANS
 11
920415.401775
 21
7258962.650644
 31
0.0
210
0.0
220
0.0
230
1.0
 73
     3
  0
TEXT
  8
10
  6
CONTINUOUS
 62
   134
  5
68
 10
920408.71
 20
7258756.307
 30
0.0
 40
13.999
  1
4
 50
358.142444
  7
ROMANS
 11
920409.163775
 21
7258770.298644
 31
0.0
210
0.0
220
0.0
230
1.0
 73
     3
  0
TEXT
  8
10
  6
CONTINUOUS
 62
   134
  5
69
 10
919988.297
 20
7258431.423
 30
0.0
 40
13.999
  1
NOT
 50
358.142444
  7
ROMANS
 72
     4
 11
920007.179095
 21
7258437.8143
 31
0.0
210
0.0
220
0.0
230
1.0
  0
TEXT
  8
10
  6
CONTINUOUS
 62
   134
  5
6A
 10
919939.251
 20
7258412.004
 30
0.0
 40
13.999
  1
SUBDIVIDED
 50
358.142444
  7
ROMANS
 72
     4
 11
920006.892459
 21
7258416.813945
 31
0.0
210
0.0
220
0.0
230
1.0
  0
TEXT
  8
10
  6
CONTINUOUS
 62
   134
  5
6B
 10
920341.854
 20
7258565.334
 30
0.0
 40
13.999
  1
3-A
 50
358.142444
  7
ROMANS
 11
920342.307775
 21
7258579.325644
 31
0.0
210
0.0
220
0.0
230
1.0
 73
     3
  0
TEXT
  8
10
  6
CONTINUOUS
 62
   134
  5
6C
 10
920400.03
 20
7258564.03
 30
0.0
 40
13.999
  1
3-B
 50
358.142444
  7
ROMANS
 11
920400.483775
 21
7258578.021644
 31
0.0
210
0.0
220
0.0
230
1.0
 73
     3
  0
TEXT
  8
10
  6
CONTINUOUS
 62
   134
  5
6D
 10
920471.565
 20
7258561.71
 30
0.0
 40
13.999
  1
2
 50
358.142444
  7
ROMANS
 11
920472.018775
 21
7258575.701644
 31
0.0
210
0.0
220
0.0
230
1.0
 73
     3
  0
TEXT
  8
10
  6
CONTINUOUS
 62
   134
  5
6E
 10
919266.694
 20
7258902.812
 30
0.0
 40
13.999
  1
8
 50
358.142444
  7
ROMANS
 11
919267.147775
 21
7258916.803644
 31
0.0
210
0.0
220
0.0
230
1.0
 73
     3
  0
TEXT
  8
10
  6
CONTINUOUS
 62
   134
  5
6F
 10
916161.295
 20
7263139.935
 30
0.0
 40
13.999
  1
UNSUBDIVIDED
 50
358.189844
  7
ROMANS
 11
916161.737199
 21
7263153.927014
 31
0.0
210
0.0
220
0.0
230
1.0
 73
     3
  0
TEXT
  8
10
  6
CONTINUOUS
 62
   134
  5
70
 10
917783.187
 20
7261483.066
 30
0.0
 40
13.999
  1
UNSUBDIVIDED
 50
358.189844
  7
ROMANS
 11
917783.629199
 21
7261497.058014
 31
0.0
210
0.0
220
0.0
230
1.0
 73
     3
  0
TEXT
  8
10
  6
CONTINUOUS
 62
   134
  5
71
 10
916823.05
 20
7259202.667
 30
0.0
 40
13.999
  1
UNSUBDIVIDED
 50
358.189844
  7
ROMANS
 11
916823.492199
 21
7259216.659014
 31
0.0
210
0.0
220
0.0
230
1.0
 73
     3
  0
TEXT
  8
11
  6
CONTINUOUS
 62
     7
  5
73
 10
920220.877
 20
7258482.982
 30
0.0
 40
8.0
  1
170'
 50
358.142444
  7
ROMANS
 72
     1
 11
920234.463311
 21
7258490.545577
 31
0.0
210
0.0
220
0.0
230
1.0
 73
     3
  0
TEXT
  8
11
  6
CONTINUOUS
 62
     7
  5
74
 10
920342.609
 20
7258616.742
 30
0.0
 40
8.0
  1
61.9'
 50
358.142444
  7
ROMANS
 72
     1
 11
920360.193209
 21
7258624.175918
 31
0.0
210
0.0
220
0.0
230
1.0
 73
     3
  0
TEXT
  8
11
  6
CONTINUOUS
 62
     7
  5
75
 10
920401.316
 20
7258614.838
 30
0.0
 40
8.0
  1
53.1'
 50
358.142444
  7
ROMANS
 72
     1
 11
920418.900209
 21
7258622.271918
 31
0.0
210
0.0
220
0.0
230
1.0
 73
     3
  0
TEXT
  8
11
  6
CONTINUOUS
 62
     7
  5
76
 10
920461.573
 20
7258612.884
 30
0.0
 40
8.0
  1
45'
 50
358.142444
  7
ROMANS
 72
     1
 11
920471.161413
 21
7258620.577236
 31
0.0
210
0.0
220
0.0
230
1.0
 73
     3
  0
TEXT
  8
11
  6
CONTINUOUS
 62
     7
  5
77
 10
920401.717
 20
7258504.767
 30
0.0
 40
8.0
  1
175'
 50
358.142444
  7
ROMANS
 72
     1
 11
920415.303311
 21
7258512.330577
 31
0.0
210
0.0
220
0.0
230
1.0
 73
     3
  0
TEXT
  8
11
  6
CONTINUOUS
 62
     7
  5
78
 10
920499.844
 20
7258556.631
 30
0.0
 40
8.0
  1
95'
 50
88.142444
  7
ROMANS
 72
     4
 11
920496.148662
 21
7258566.089754
 31
0.0
210
0.0
220
0.0
230
1.0
  0
TEXT
  8
11
  6
CONTINUOUS
 62
     7
  5
79
 10
920441.093
 20
7258557.124
 30
0.0
 40
8.0
  1
110'
 50
88.142444
  7
ROMANS
 72
     4
 11
920437.527321
 21
7258570.580652
 31
0.0
210
0.0
220
0.0
230
1.0
  0
TEXT
  8
11
  6
CONTINUOUS
 62
     7
  5
7A
 10
920341.466
 20
7258557.798
 30
0.0
 40
8.0
  1
110'
 50
88.142444
  7
ROMANS
 72
     4
 11
920337.900321
 21
7258571.254652
 31
0.0
210
0.0
220
0.0
230
1.0
  0
TEXT
  8
11
  6
CONTINUOUS
 62
     7
  5
7B
 10
920496.849
 20
7258424.901
 30
0.0
 40
8.0
  1
145'
 50
88.142444
  7
ROMANS
 72
     4
 11
920493.283321
 21
7258438.357652
 31
0.0
210
0.0
220
0.0
230
1.0
  0
TEXT
  8
11
  6
CONTINUOUS
 62
     7
  5
7C
 10
920335.758
 20
7258421.177
 30
0.0
 40
8.0
  1
179'
 50
88.142444
  7
ROMANS
 72
     4
 11
920332.192321
 21
7258434.633652
 31
0.0
210
0.0
220
0.0
230
1.0
  0
TEXT
  8
11
  6
CONTINUOUS
 62
     7
  5
7D
 10
920319.657
 20
7258397.406
 30
0.0
 40
8.0
  1
151'
 50
88.142444
  7
ROMANS
 72
     4
 11
920316.091321
 21
7258410.862652
 31
0.0
210
0.0
220
0.0
230
1.0
  0
TEXT
  8
11
  6
CONTINUOUS
 62
     7
  5
7F
 10
920163.882
 20
7258407.426
 30
0.0
 40
8.0
  1
155'
 50
88.142444
  7
txt
 72
     4
 11
920160.280211
 21
7258419.769238
 31
0.0
210
0.0
220
0.0
230
1.0
  0
TEXT
  8
11
  6
CONTINUOUS
 62
     7
  5
80
 10
920506.011
 20
7258746.803
 30
0.0
 40
8.0
  1
135'
 50
88.142444
  7
ROMANS
 72
     4
 11
920502.445321
 21
7258760.259652
 31
0.0
210
0.0
220
0.0
230
1.0
  0
TEXT
  8
11
  6
CONTINUOUS
 62
     7
  5
81
 10
920331.131
 20
7258751.197
 30
0.0
 40
8.0
  1
150'
 50
88.142444
  7
ROMANS
 72
     4
 11
920327.565321
 21
7258764.653652
 31
0.0
210
0.0
220
0.0
230
1.0
  0
TEXT
  8
11
  6
CONTINUOUS
 62
     7
  5
82
 10
920337.04
 20
7258933.435
 30
0.0
 40
8.0
  1
218.55'
 50
88.142444
  7
ROMANS
 72
     4
 11
920333.863298
 21
7258958.885346
 31
0.0
210
0.0
220
0.0
230
1.0
  0
TEXT
  8
11
  6
CONTINUOUS
 62
     7
  5
83
 10
920511.88
 20
7258927.764
 30
0.0
 40
8.0
  1
217.48'
 50
88.142444
  7
ROMANS
 72
     4
 11
920508.703298
 21
7258953.214346
 31
0.0
210
0.0
220
0.0
230
1.0
  0
TEXT
  8
11
  6
CONTINUOUS
 62
     7
  5
84
 10
920401.171
 20
7258684.88
 30
0.0
 40
8.0
  1
175'
 50
358.142444
  7
ROMANS
 72
     1
 11
920414.497993
 21
7258684.447781
 31
0.0
210
0.0
220
0.0
230
1.0
  0
TEXT
  8
11
  6
CONTINUOUS
 62
     7
  5
85
 10
920402.204
 20
7258834.925
 30
0.0
 40
8.0
  1
190'
 50
358.142444
  7
ROMANS
 72
     1
 11
920415.530993
 21
7258834.492781
 31
0.0
210
0.0
220
0.0
230
1.0
  0
TEXT
  8
11
  6
CONTINUOUS
 62
     7
  5
86
 10
919931.361
 20
7258700.116
 30
0.0
 40
8.0
  1
105.07'
 50
358.142444
  7
ROMANS
 72
     1
 11
919956.681687
 21
7258699.294804
 31
0.0
210
0.0
220
0.0
230
1.0
  0
TEXT
  8
11
  6
CONTINUOUS
 62
     7
  5
87
 10
919897.496
 20
7258498.04
 30
0.0
 40
8.0
  1
263'
 50
88.142444
  7
ROMANS
 72
     4
 11
919893.930321
 21
7258511.496652
 31
0.0
210
0.0
220
0.0
230
1.0
  0
TEXT
  8
11
  6
CONTINUOUS
 62
     7
  5
88
 10
919826.447
 20
7258670.801
 30
0.0
 40
8.0
  1
269.03'
 50
88.142444
  7
txt
 72
     4
 11
919823.202486
 21
7258694.160446
 31
0.0
210
0.0
220
0.0
230
1.0
  0
TEXT
  8
11
  6
CONTINUOUS
 62
     7
  5
89
 10
919834.763
 20
7258887.87
 30
0.0
 40
8.0
  1
165.00'
 50
88.142444
  7
txt
 72
     4
 11
919831.477676
 21
7258909.971107
 31
0.0
210
0.0
220
0.0
230
1.0
  0
TEXT
  8
11
  6
CONTINUOUS
 62
     7
  5
8A
 10
919909.989
 20
7258843.821
 30
0.0
 40
8.0
  1
270'
 50
88.142444
  7
txt
 72
     4
 11
919906.433142
 21
7258857.580493
 31
0.0
210
0.0
220
0.0
230
1.0
  0
TEXT
  8
11
  6
CONTINUOUS
 62
     7
  5
8B
 10
919949.515
 20
7258986.175
 30
0.0
 40
8.0
  1
104.99'
 50
358.142444
  7
txt
 72
     4
 11
919971.647091
 21
7258989.459319
 31
0.0
210
0.0
220
0.0
230
1.0
  0
TEXT
  8
11
  6
CONTINUOUS
 62
     7
  5
8C
 10
920420.892
 20
7258343.06
 30
0.0
 40
8.0
  1
70'
 50
358.142444
  7
ROMANS
 72
     1
 11
920430.221095
 21
7258342.75744
 31
0.0
210
0.0
220
0.0
230
1.0
  0
TEXT
  8
11
  6
CONTINUOUS
 62
     7
  5
8D
 10
920233.546
 20
7258341.87
 30
0.0
 40
8.0
  1
8'
 50
88.142444
  7
ROMANS
 72
     4
 11
920229.721002
 21
7258347.330856
 31
0.0
210
0.0
220
0.0
230
1.0
  0
TEXT
  8
11
  6
CONTINUOUS
 62
     7
  5
8E
 10
920255.529
 20
7258341.589
 30
0.0
 40
8.0
  1
100.1'
 50
0.917408
  7
ROMANS
 72
     1
 11
920276.860265
 21
7258341.930581
 31
0.0
210
0.0
220
0.0
230
1.0
  0
TEXT
  8
11
  6
CONTINUOUS
 62
     7
  5
8F
 10
920338.603
 20
7258342.922
 30
0.0
 40
8.0
  1
75.11'
 50
0.917408
  7
ROMANS
 72
     1
 11
920359.934265
 21
7258343.263581
 31
0.0
210
0.0
220
0.0
230
1.0
  0
TEXT
  8
11
  6
CONTINUOUS
 62
     7
  5
90
 10
920138.379
 20
7259004.492
 30
0.0
 40
8.0
  1
R
 50
10.139539
  7
ROMANS
 72
     1
 11
920140.859642
 21
7259004.935636
 31
0.0
210
0.0
220
0.0
230
1.0
  0
TEXT
  8
11
  6
CONTINUOUS
 62
     7
  5
91
 10
920146.19
 20
7259005.89
 30
0.0
 40
8.0
  1
=
 50
10.139539
  7
ROMANS
 72
     1
 11
920149.470945
 21
7259006.476762
 31
0.0
210
0.0
220
0.0
230
1.0
  0
TEXT
  8
11
  6
CONTINUOUS
 62
     7
  5
92
 10
920154.004
 20
7259007.286
 30
0.0
 40
8.0
  1
6
 50
10.139539
  7
ROMANS
 72
     1
 11
920156.484642
 21
7259007.729636
 31
0.0
210
0.0
220
0.0
230
1.0
  0
TEXT
  8
11
  6
CONTINUOUS
 62
     7
  5
93
 10
920161.713
 20
7259008.715
 30
0.0
 40
8.0
  1
1
 50
11.985247
  7
ROMANS
 72
     1
 11
920163.01792
 21
7259008.992018
 31
0.0
210
0.0
220
0.0
230
1.0
  0
TEXT
  8
11
  6
CONTINUOUS
 62
     7
  5
94
 10
920169.476
 20
7259010.364
 30
0.0
 40
8.0
  1
6
 50
11.985247
  7
ROMANS
 72
     1
 11
920171.941067
 21
7259010.887303
 31
0.0
210
0.0
220
0.0
230
1.0
  0
TEXT
  8
11
  6
CONTINUOUS
 62
     7
  5
95
 10
920177.241
 20
7259012.012
 30
0.0
 40
8.0
  1
.
 50
11.985247
  7
ROMANS
 72
     1
 11
920178.534182
 21
7259012.286526
 31
0.0
210
0.0
220
0.0
230
1.0
  0
TEXT
  8
11
  6
CONTINUOUS
 62
     7
  5
96
 10
920184.872
 20
7259013.813
 30
0.0
 40
8.0
  1
7
 50
13.830953
  7
ROMANS
 72
     1
 11
920187.137355
 21
7259014.370722
 31
0.0
210
0.0
220
0.0
230
1.0
  0
TEXT
  8
11
  6
CONTINUOUS
 62
     7
  5
97
 10
920192.578
 20
7259015.71
 30
0.0
 40
8.0
  1
5
 50
13.830953
  7
ROMANS
 72
     1
 11
920194.854036
 21
7259016.270352
 31
0.0
210
0.0
220
0.0
230
1.0
  0
TEXT
  8
11
  6
CONTINUOUS
 62
     7
  5
98
 10
920130.272
 20
7259049.906
 30
0.0
 40
8.0
  1
R
 50
8.82685
  7
ROMANS
 72
     1
 11
920131.534563
 21
7259058.197944
 31
0.0
210
0.0
220
0.0
230
1.0
 73
     3
  0
TEXT
  8
11
  6
CONTINUOUS
 62
     7
  5
99
 10
920138.488
 20
7259051.162
 30
0.0
 40
8.0
  1
=
 50
10.769469
  7
ROMANS
 72
     1
 11
920140.267433
 21
7259059.643893
 31
0.0
210
0.0
220
0.0
230
1.0
 73
     3
  0
TEXT
  8
11
  6
CONTINUOUS
 62
     7
  5
9A
 10
920146.284
 20
7259052.646
 30
0.0
 40
8.0
  1
5
 50
10.769469
  7
ROMANS
 72
     1
 11
920147.091852
 21
7259060.943091
 31
0.0
210
0.0
220
0.0
230
1.0
 73
     3
  0
TEXT
  8
11
  6
CONTINUOUS
 62
     7
  5
9B
 10
920154.08
 20
7259054.129
 30
0.0
 40
8.0
  1
5
 50
10.769469
  7
ROMANS
 72
     1
 11
920154.887852
 21
7259062.426091
 31
0.0
210
0.0
220
0.0
230
1.0
 73
     3
  0
TEXT
  8
11
  6
CONTINUOUS
 62
     7
  5
9C
 10
920162.214
 20
7259055.825
 30
0.0
 40
8.0
  1
6
 50
12.712089
  7
ROMANS
 72
     1
 11
920162.911814
 21
7259064.183436
 31
0.0
210
0.0
220
0.0
230
1.0
 73
     3
  0
TEXT
  8
11
  6
CONTINUOUS
 62
     7
  5
9D
 10
920169.958
 20
7259057.572
 30
0.0
 40
8.0
  1
.
 50
12.712089
  7
ROMANS
 72
     1
 11
920169.487179
 21
7259065.666814
 31
0.0
210
0.0
220
0.0
230
1.0
 73
     3
  0
TEXT
  8
11
  6
CONTINUOUS
 62
     7
  5
9E
 10
920178.053
 20
7259059.445
 30
0.0
 40
8.0
  1
7
 50
14.654708
  7
ROMANS
 72
     1
 11
920178.286157
 21
7259067.774978
 31
0.0
210
0.0
220
0.0
230
1.0
 73
     3
  0
TEXT
  8
11
  6
CONTINUOUS
 62
     7
  5
9F
 10
920185.732
 20
7259061.452
 30
0.0
 40
8.0
  1
5
 50
14.654708
  7
ROMANS
 72
     1
 11
920185.975799
 21
7259069.784761
 31
0.0
210
0.0
220
0.0
230
1.0
 73
     3
  0
TEXT
  8
11
  6
CONTINUOUS
 62
     7
  5
A0
 10
920301.063
 20
7259096.773
 30
0.0
 40
8.0
  1
R
 50
12.497367
  7
ROMANS
 72
     1
 11
920301.792133
 21
7259105.128762
 31
0.0
210
0.0
220
0.0
230
1.0
 73
     3
  0
TEXT
  8
11
  6
CONTINUOUS
 62
     7
  5
A1
 10
920308.815
 20
7259098.49
 30
0.0
 40
8.0
  1
=
 50
12.497367
  7
ROMANS
 72
     1
 11
920310.33787
 21
7259107.021691
 31
0.0
210
0.0
220
0.0
230
1.0
 73
     3
  0
TEXT
  8
11
  6
CONTINUOUS
 62
     7
  5
A2
 10
920316.561
 20
7259100.208
 30
0.0
 40
8.0
  1
5
 50
12.497367
  7
ROMANS
 72
     1
 11
920317.118303
 21
7259108.525677
 31
0.0
210
0.0
220
0.0
230
1.0
 73
     3
  0
TEXT
  8
11
  6
CONTINUOUS
 62
     7
  5
A3
 10
920323.983
 20
7259101.691
 30
0.0
 40
8.0
  1
7
 50
10.583378
  7
ROMANS
 72
     1
 11
920324.806983
 21
7259109.983403
 31
0.0
210
0.0
220
0.0
230
1.0
 73
     3
  0
TEXT
  8
11
  6
CONTINUOUS
 62
     7
  5
A4
 10
920331.786
 20
7259103.149
 30
0.0
 40
8.0
  1
3
 50
10.583378
  7
ROMANS
 72
     1
 11
920332.609983
 21
7259111.441403
 31
0.0
210
0.0
220
0.0
230
1.0
 73
     3
  0
TEXT
  8
11
  6
CONTINUOUS
 62
     7
  5
A5
 10
920339.235
 20
7259104.492
 30
0.0
 40
8.0
  1
.
 50
8.669389
  7
ROMANS
 72
     1
 11
920339.336034
 21
7259112.599865
 31
0.0
210
0.0
220
0.0
230
1.0
 73
     3
  0
TEXT
  8
11
  6
CONTINUOUS
 62
     7
  5
A6
 10
920347.081
 20
7259105.689
 30
0.0
 40
8.0
  1
5
 50
8.669389
  7
ROMANS
 72
     1
 11
920348.192357
 21
7259113.950914
 31
0.0
210
0.0
220
0.0
230
1.0
 73
     3
  0
TEXT
  8
11
  6
CONTINUOUS
 62
     7
  5
A7
 10
920354.556
 20
7259106.891
 30
0.0
 40
8.0
  1
3
 50
6.755397
  7
ROMANS
 72
     1
 11
920355.931755
 21
7259115.109892
 31
0.0
210
0.0
220
0.0
230
1.0
 73
     3
  0
TEXT
  8
11
  6
CONTINUOUS
 62
     7
  5
A8
 10
920310.22
 20
7259051.591
 30
0.0
 40
8.0
  1
R
 50
13.312831
  7
ROMANS
 72
     1
 11
920312.672281
 21
7259052.171275
 31
0.0
210
0.0
220
0.0
230
1.0
  0
TEXT
  8
11
  6
CONTINUOUS
 62
     7
  5
A9
 10
920317.944
 20
7259053.42
 30
0.0
 40
8.0
  1
=
 50
13.312831
  7
ROMANS
 72
     1
 11
920321.187433
 21
7259054.187482
 31
0.0
210
0.0
220
0.0
230
1.0
  0
TEXT
  8
11
  6
CONTINUOUS
 62
     7
  5
AA
 10
920325.801
 20
7259055.131
 30
0.0
 40
8.0
  1
5
 50
11.290111
  7
ROMANS
 72
     1
 11
920328.09964
 21
7259055.589901
 31
0.0
210
0.0
220
0.0
230
1.0
  0
TEXT
  8
11
  6
CONTINUOUS
 62
     7
  5
AB
 10
920333.583
 20
7259056.685
 30
0.0
 40
8.0
  1
1
 50
11.290111
  7
ROMANS
 72
     1
 11
920334.891185
 21
7259056.946166
 31
0.0
210
0.0
220
0.0
230
1.0
  0
TEXT
  8
11
  6
CONTINUOUS
 62
     7
  5
AC
 10
920341.483
 20
7259058.197
 30
0.0
 40
8.0
  1
3
 50
9.267394
  7
ROMANS
 72
     1
 11
920343.785549
 21
7259058.572711
 31
0.0
210
0.0
220
0.0
230
1.0
  0
TEXT
  8
11
  6
CONTINUOUS
 62
     7
  5
AD
 10
920349.316
 20
7259059.476
 30
0.0
 40
8.0
  1
.
 50
9.267394
  7
ROMANS
 72
     1
 11
920350.620745
 21
7259059.688898
 31
0.0
210
0.0
220
0.0
230
1.0
  0
TEXT
  8
11
  6
CONTINUOUS
 62
     7
  5
AE
 10
920357.252
 20
7259060.786
 30
0.0
 40
8.0
  1
5
 50
7.244675
  7
ROMANS
 72
     1
 11
920359.577287
 21
7259061.081594
 31
0.0
210
0.0
220
0.0
230
1.0
  0
TEXT
  8
11
  6
CONTINUOUS
 62
     7
  5
AF
 10
920365.126
 20
7259061.787
 30
0.0
 40
8.0
  1
3
 50
7.244675
  7
ROMANS
 72
     1
 11
920367.441367
 21
7259062.081333
 31
0.0
210
0.0
220
0.0
230
1.0
  0
TEXT
  8
11
  6
CONTINUOUS
 62
     7
  5
B0
 10
920116.844
 20
7259061.99
 30
0.0
 40
8.0
  1
C
 50
8.82685
  7
ROMANS
 72
     1
 11
920119.334155
 21
7259062.376691
 31
0.0
210
0.0
220
0.0
230
1.0
  0
TEXT
  8
11
  6
CONTINUOUS
 62
     7
  5
B1
 10
920124.686
 20
7259063.208
 30
0.0
 40
8.0
  1
H
 50
8.82685
  7
ROMANS
 72
     1
 11
920126.991369
 21
7259063.565996
 31
0.0
210
0.0
220
0.0
230
1.0
  0
TEXT
  8
11
  6
CONTINUOUS
 62
     7
  5
B2
 10
920132.529
 20
7259064.425
 30
0.0
 40
8.0
  1
=
 50
8.82685
  7
ROMANS
 72
     1
 11
920135.822526
 21
7259064.936445
 31
0.0
210
0.0
220
0.0
230
1.0
  0
TEXT
  8
11
  6
CONTINUOUS
 62
     7
  5
B3
 10
920141.241
 20
7259065.936
 30
0.0
 40
8.0
  1
1
 50
10.769469
  7
ROMANS
 72
     1
 11
920142.551504
 21
7259066.185268
 31
0.0
210
0.0
220
0.0
230
1.0
  0
TEXT
  8
11
  6
CONTINUOUS
 62
     7
  5
B4
 10
920147.058
 20
7259067.044
 30
0.0
 40
8.0
  1
5
 50
10.769469
  7
ROMANS
 72
     1
 11
920149.360715
 21
7259067.481995
 31
0.0
210
0.0
220
0.0
230
1.0
  0
TEXT
  8
11
  6
CONTINUOUS
 62
     7
  5
B5
 10
920155.741
 20
7259068.718
 30
0.0
 40
8.0
  1
8
 50
12.712089
  7
ROMANS
 72
     1
 11
920158.016814
 21
7259069.231381
 31
0.0
210
0.0
220
0.0
230
1.0
  0
TEXT
  8
11
  6
CONTINUOUS
 62
     7
  5
B6
 10
920163.485
 20
7259070.464
 30
0.0
 40
8.0
  1
.
 50
12.712089
  7
ROMANS
 72
     1
 11
920164.774595
 21
7259070.754909
 31
0.0
210
0.0
220
0.0
230
1.0
  0
TEXT
  8
11
  6
CONTINUOUS
 62
     7
  5
B7
 10
920172.305
 20
7259072.411
 30
0.0
 40
8.0
  1
1
 50
14.654708
  7
ROMANS
 72
     1
 11
920173.594635
 21
7259072.74824
 31
0.0
210
0.0
220
0.0
230
1.0
  0
TEXT
  8
11
  6
CONTINUOUS
 62
     7
  5
B8
 10
920179.009
 20
7259074.165
 30
0.0
 40
8.0
  1
9
 50
14.654708
  7
ROMANS
 72
     1
 11
920181.266103
 21
7259074.755233
 31
0.0
210
0.0
220
0.0
230
1.0
  0
TEXT
  8
11
  6
CONTINUOUS
 62
     7
  5
B9
 10
920358.581
 20
7259046.842
 30
0.0
 40
8.0
  1
C
 50
7.244675
  7
ROMANS
 72
     1
 11
920360.072028
 21
7259055.095922
 31
0.0
210
0.0
220
0.0
230
1.0
 73
     3
  0
TEXT
  8
11
  6
CONTINUOUS
 62
     7
  5
BA
 10
920366.455
 20
7259047.844
 30
0.0
 40
8.0
  1
H
 50
7.244675
  7
ROMANS
 72
     1
 11
920367.761513
 21
7259056.074467
 31
0.0
210
0.0
220
0.0
230
1.0
 73
     3
  0
TEXT
  8
11
  6
CONTINUOUS
 62
     7
  5
BB
 10
920373.93
 20
7259048.915
 30
0.0
 40
8.0
  1
=
 50
5.221958
  7
ROMANS
 72
     1
 11
920376.521053
 21
7259057.185147
 31
0.0
210
0.0
220
0.0
230
1.0
 73
     3
  0
TEXT
  8
11
  6
CONTINUOUS
 62
     7
  5
BC
 10
920381.834
 20
7259049.638
 30
0.0
 40
8.0
  1
1
 50
5.221958
  7
ROMANS
 72
     1
 11
920382.433354
 21
7259057.726119
 31
0.0
210
0.0
220
0.0
230
1.0
 73
     3
  0
TEXT
  8
11
  6
CONTINUOUS
 62
     7
  5
BD
 10
920389.739
 20
7259050.36
 30
0.0
 40
8.0
  1
1
 50
5.221958
  7
ROMANS
 72
     1
 11
920390.338354
 21
7259058.448119
 31
0.0
210
0.0
220
0.0
230
1.0
 73
     3
  0
TEXT
  8
11
  6
CONTINUOUS
 62
     7
  5
BE
 10
920397.261
 20
7259050.967
 30
0.0
 40
8.0
  1
9
 50
3.199239
  7
ROMANS
 72
     1
 11
920399.143898
 21
7259059.084733
 31
0.0
210
0.0
220
0.0
230
1.0
 73
     3
  0
TEXT
  8
11
  6
CONTINUOUS
 62
     7
  5
BF
 10
920405.187
 20
7259051.409
 30
0.0
 40
8.0
  1
.
 50
3.199239
  7
ROMANS
 72
     1
 11
920406.060474
 21
7259059.470311
 31
0.0
210
0.0
220
0.0
230
1.0
 73
     3
  0
TEXT
  8
11
  6
CONTINUOUS
 62
     7
  5
C0
 10
920412.723
 20
7259051.829
 30
0.0
 40
8.0
  1
3
 50
1.176522
  7
ROMANS
 72
     1
 11
920414.892246
 21
7259059.875237
 31
0.0
210
0.0
220
0.0
230
1.0
 73
     3
  0
TEXT
  8
11
  6
CONTINUOUS
 62
     7
  5
C1
 10
920420.658
 20
7259051.993
 30
0.0
 40
8.0
  1
1
 50
1.176522
  7
ROMANS
 72
     1
 11
920421.827457
 21
7259060.018704
 31
0.0
210
0.0
220
0.0
230
1.0
 73
     3
  0
TEXT
  8
11
  6
CONTINUOUS
 62
     7
  5
C2
 10
920259.883
 20
7259021.83
 30
0.0
 40
8.0
  1
H
 50
19.256033
  7
ROMANS
 72
     1
 11
920259.447158
 21
7259030.151835
 31
0.0
210
0.0
220
0.0
230
1.0
 73
     3
  0
TEXT
  8
11
  6
CONTINUOUS
 62
     7
  5
C3
 10
920267.378
 20
7259024.448
 30
0.0
 40
8.0
  1
=
 50
19.256033
  7
ROMANS
 72
     1
 11
920267.886213
 21
7259033.099625
 31
0.0
210
0.0
220
0.0
230
1.0
 73
     3
  0
TEXT
  8
11
  6
CONTINUOUS
 62
     7
  5
C4
 10
920274.537
 20
7259026.911
 30
0.0
 40
8.0
  1
7
 50
17.358267
  7
ROMANS
 72
     1
 11
920274.376985
 21
7259035.242704
 31
0.0
210
0.0
220
0.0
230
1.0
 73
     3
  0
TEXT
  8
11
  6
CONTINUOUS
 62
     7
  5
C5
 10
920282.113
 20
7259029.279
 30
0.0
 40
8.0
  1
7
 50
17.358267
  7
ROMANS
 72
     1
 11
920281.952985
 21
7259037.610704
 31
0.0
210
0.0
220
0.0
230
1.0
 73
     3
  0
TEXT
  8
11
  6
CONTINUOUS
 62
     7
  5
C6
 10
920289.306
 20
7259031.57
 30
0.0
 40
8.0
  1
.
 50
15.335547
  7
ROMANS
 72
     1
 11
920288.465157
 21
7259039.634779
 31
0.0
210
0.0
220
0.0
230
1.0
 73
     3
  0
TEXT
  8
11
  6
CONTINUOUS
 62
     7
  5
C7
 10
920296.96
 20
7259033.669
 30
0.0
 40
8.0
  1
5
 50
15.335547
  7
ROMANS
 72
     1
 11
920297.104767
 21
7259042.004069
 31
0.0
210
0.0
220
0.0
230
1.0
 73
     3
  0
TEXT
  8
11
  6
CONTINUOUS
 62
     7
  5
C8
 10
920304.615
 20
7259035.767
 30
0.0
 40
8.0
  1
3
 50
15.335547
  7
ROMANS
 72
     1
 11
920304.749159
 21
7259044.09916
 31
0.0
210
0.0
220
0.0
230
1.0
 73
     3
  0
TEXT
  8
11
  6
CONTINUOUS
 62
     7
  5
C9
 10
920128.956
 20
7258989.05
 30
0.0
 40
8.0
  1
C
 50
8.293833
  7
ROMANS
 72
     1
 11
920130.295647
 21
7258997.32984
 31
0.0
210
0.0
220
0.0
230
1.0
 73
     3
  0
TEXT
  8
11
  6
CONTINUOUS
 62
     7
  5
CA
 10
920136.81
 20
7258990.194
 30
0.0
 40
8.0
  1
H
 50
8.293833
  7
ROMANS
 72
     1
 11
920137.964602
 21
7258998.446865
 31
0.0
210
0.0
220
0.0
230
1.0
 73
     3
  0
TEXT
  8
11
  6
CONTINUOUS
 62
     7
  5
CB
 10
920145.005
 20
7258991.455
 30
0.0
 40
8.0
  1
=
 50
10.139539
  7
ROMANS
 72
     1
 11
920146.877576
 21
7258999.916817
 31
0.0
210
0.0
220
0.0
230
1.0
 73
     3
  0
TEXT
  8
11
  6
CONTINUOUS
 62
     7
  5
CC
 10
920152.818
 20
7258992.852
 30
0.0
 40
8.0
  1
2
 50
10.139539
  7
ROMANS
 72
     1
 11
920153.706194
 21
7259001.137771
 31
0.0
210
0.0
220
0.0
230
1.0
 73
     3
  0
TEXT
  8
11
  6
CONTINUOUS
 62
     7
  5
CD
 10
920160.993
 20
7258994.251
 30
0.0
 40
8.0
  1
3
 50
11.985247
  7
ROMANS
 72
     1
 11
920161.614843
 21
7259002.561287
 31
0.0
210
0.0
220
0.0
230
1.0
 73
     3
  0
TEXT
  8
11
  6
CONTINUOUS
 62
     7
  5
CE
 10
920168.756
 20
7258995.899
 30
0.0
 40
8.0
  1
5
 50
11.985247
  7
ROMANS
 72
     1
 11
920169.387625
 21
7259004.211363
 31
0.0
210
0.0
220
0.0
230
1.0
 73
     3
  0
TEXT
  8
11
  6
CONTINUOUS
 62
     7
  5
CF
 10
920176.521
 20
7258997.547
 30
0.0
 40
8.0
  1
.
 50
11.985247
  7
ROMANS
 72
     1
 11
920176.152903
 21
7259005.647135
 31
0.0
210
0.0
220
0.0
230
1.0
 73
     3
  0
TEXT
  8
11
  6
CONTINUOUS
 62
     7
  5
D0
 10
920184.617
 20
7258999.331
 30
0.0
 40
8.0
  1
5
 50
13.830953
  7
ROMANS
 72
     1
 11
920184.980572
 21
7259007.659394
 31
0.0
210
0.0
220
0.0
230
1.0
 73
     3
  0
TEXT
  8
11
  6
CONTINUOUS
 62
     7
  5
D1
 10
920192.323
 20
7259001.229
 30
0.0
 40
8.0
  1
8
 50
13.830953
  7
ROMANS
 72
     1
 11
920192.675891
 21
7259009.554765
 31
0.0
210
0.0
220
0.0
230
1.0
 73
     3
  0
TEXT
  8
11
  6
CONTINUOUS
 62
     7
  5
D2
 10
920170.88
 20
7258343.977
 30
0.0
 40
8.0
  1
94.99'
 50
358.142444
  7
ROMANS
 72
     4
 11
920192.332448
 21
7258347.283361
 31
0.0
210
0.0
220
0.0
230
1.0
  0
TEXT
  8
11
  6
CONTINUOUS
 62
     7
  5
D3
 10
920462.029
 20
7259051.707
 30
0.0
 40
8.0
  1
56.5'
 50
358.142444
  7
ROMANS
 72
     4
 11
920479.48355
 21
7259055.14302
 31
0.0
210
0.0
220
0.0
230
1.0
  0
TEXT
  8
11
  6
CONTINUOUS
 62
     7
  5
D4
 10
919862.528
 20
7258962.487
 30
0.0
 40
8.0
  1
60'
 50
358.142444
  7
txt
 72
     4
 11
919872.068711
 21
7258966.17968
 31
0.0
210
0.0
220
0.0
230
1.0
  0
TEXT
  8
11
  6
CONTINUOUS
 62
     7
  5
D5
 10
919841.028
 20
7258373.991
 30
0.0
 40
8.0
  1
60'
 50
358.142444
  7
txt
 72
     4
 11
919850.568711
 21
7258377.68368
 31
0.0
210
0.0
220
0.0
230
1.0
  0
TEXT
  8
11
  6
CONTINUOUS
 62
     7
  5
D6
 10
919926.446
 20
7258661.648
 30
0.0
 40
8.0
  1
56'
 50
88.142444
  7
txt
 72
     4
 11
919922.754357
 21
7258671.220694
 31
0.0
210
0.0
220
0.0
230
1.0
  0
TEXT
  8
11
  6
CONTINUOUS
 62
     7
  5
D7
 10
920483.277
 20
7258643.703
 30
0.0
 40
8.0
  1
56'
 50
88.142444
  7
ROMANS
 72
     4
 11
920479.581662
 21
7258653.161754
 31
0.0
210
0.0
220
0.0
230
1.0
  0
TEXT
  8
11
  6
CONTINUOUS
 62
     7
  5
D8
 10
919682.474
 20
7259025.763
 30
0.0
 40
8.0
  1
60'
 50
88.142444
  7
txt
 72
     4
 11
919678.78132
 21
7259035.303711
 31
0.0
210
0.0
220
0.0
230
1.0
  0
TEXT
  8
11
  6
CONTINUOUS
 62
     7
  5
D9
 10
919934.373
 20
7259017.593
 30
0.0
 40
8.0
  1
60'
 50
88.142444
  7
txt
 72
     4
 11
919930.68032
 21
7259027.133711
 31
0.0
210
0.0
220
0.0
230
1.0
  0
TEXT
  8
11
  6
CONTINUOUS
 62
     7
  5
DA
 10
920497.409
 20
7259086.169
 30
0.0
 40
8.0
  1
60'
 50
88.142444
  7
ROMANS
 72
     4
 11
920493.713662
 21
7259095.627754
 31
0.0
210
0.0
220
0.0
230
1.0
  0
TEXT
  8
11
  6
CONTINUOUS
 62
     7
  5
DB
 10
919914.091
 20
7258325.414
 30
0.0
 40
8.0
  1
32'
 50
88.142444
  7
txt
 72
     4
 11
919910.405516
 21
7258335.176594
 31
0.0
210
0.0
220
0.0
230
1.0
  0
TEXT
  8
11
  6
CONTINUOUS
 62
     7
  5
DC
 10
920235.621
 20
7258315.094
 30
0.0
 40
8.0
  1
32'
 50
88.142444
  7
ROMANS
 72
     4
 11
920231.925662
 21
7258324.552754
 31
0.0
210
0.0
220
0.0
230
1.0
  0
TEXT
  8
11
  6
CONTINUOUS
 62
     7
  5
DD
 10
920451.36
 20
7258308.097
 30
0.0
 40
8.0
  1
40'
 50
88.142444
  7
ROMANS
 72
     4
 11
920447.664662
 21
7258317.555754
 31
0.0
210
0.0
220
0.0
230
1.0
  0
TEXT
  8
11
  6
CONTINUOUS
 62
     7
  5
DE
 10
919794.178
 20
7258329.303
 30
0.0
 40
8.0
  1
32'
 50
88.142444
  7
txt
 72
     4
 11
919790.492516
 21
7258339.065594
 31
0.0
210
0.0
220
0.0
230
1.0
  0
TEXT
  8
11
  6
CONTINUOUS
 62
     7
  5
DF
 10
918959.906
 20
7258356.665
 30
0.0
 40
8.0
  1
32'
 50
88.142444
  7
ROMANS
 72
     4
 11
918956.210662
 21
7258366.123754
 31
0.0
210
0.0
220
0.0
230
1.0
  0
TEXT
  8
11
  6
CONTINUOUS
 62
     7
  5
E0
 10
918845.096
 20
7258360.388
 30
0.0
 40
8.0
  1
32'
 50
88.142444
  7
ROMANS
 72
     4
 11
918841.400662
 21
7258369.846754
 31
0.0
210
0.0
220
0.0
230
1.0
  0
TEXT
  8
11
  6
CONTINUOUS
 62
     7
  5
E1
 10
918464.689
 20
7258372.325
 30
0.0
 40
8.0
  1
32'
 50
88.142444
  7
txt
 72
     4
 11
918461.003516
 21
7258382.087594
 31
0.0
210
0.0
220
0.0
230
1.0
  0
TEXT
  8
11
  6
CONTINUOUS
 62
     7
  5
E2
 10
917807.847
 20
7258393.374
 30
0.0
 40
8.0
  1
40'
 50
88.142444
  7
txt
 72
     4
 11
917804.166605
 21
7258403.293512
 31
0.0
210
0.0
220
0.0
230
1.0
  0
TEXT
  8
11
  6
CONTINUOUS
 62
     7
  5
E3
 10
915366.68
 20
7258465.972
 30
0.0
 40
8.0
  1
40'
 50
88.189844
  7
ROMANS
 72
     4
 11
915362.976806
 21
7258475.426694
 31
0.0
210
0.0
220
0.0
230
1.0
  0
TEXT
  8
11
  6
CONTINUOUS
 62
     7
  5
E4
 10
917026.411
 20
7258413.519
 30
0.0
 40
8.0
  1
40'
 50
88.189844
  7
ROMANS
 72
     4
 11
917022.707806
 21
7258422.973694
 31
0.0
210
0.0
220
0.0
230
1.0
  0
TEXT
  8
11
  6
CONTINUOUS
 62
     7
  5
E5
 10
919724.235
 20
7258539.703
 30
0.0
 40
8.0
  1
180'
 50
358.142444
  7
txt
 72
     4
 11
919736.546254
 21
7258543.305827
 31
0.0
210
0.0
220
0.0
230
1.0
  0
TEXT
  8
11
  6
CONTINUOUS
 62
     7
  5
E6
 10
919733.372
 20
7258806.453
 30
0.0
 40
8.0
  1
180'
 50
358.142444
  7
ROMANS
 72
     1
 11
919746.958311
 21
7258814.016577
 31
0.0
210
0.0
220
0.0
230
1.0
 73
     3
  0
TEXT
  8
11
  6
CONTINUOUS
 62
     7
  5
E7
 10
919044.47
 20
7258798.916
 30
0.0
 40
8.0
  1
220'
 50
358.142444
  7
ROMANS
 72
     1
 11
919057.796993
 21
7258798.483781
 31
0.0
210
0.0
220
0.0
230
1.0
  0
TEXT
  8
11
  6
CONTINUOUS
 62
     7
  5
E8
 10
918714.473
 20
7258390.368
 30
0.0
 40
8.0
  1
273'
 50
358.142444
  7
ROMANS
 72
     1
 11
918727.799993
 21
7258389.935781
 31
0.0
210
0.0
220
0.0
230
1.0
  0
TEXT
  8
11
  6
CONTINUOUS
 62
     7
  5
E9
 10
919665.545
 20
7258676.043
 30
0.0
 40
8.0
  1
269.03'
 50
88.142444
  7
txt
 72
     4
 11
919662.300486
 21
7258699.402446
 31
0.0
210
0.0
220
0.0
230
1.0
  0
TEXT
  8
11
  6
CONTINUOUS
 62
     7
  5
EA
 10
919602.647
 20
7258905.484
 30
0.0
 40
8.0
  1
180'
 50
88.142444
  7
ROMANS
 72
     4
 11
919599.081321
 21
7258918.940652
 31
0.0
210
0.0
220
0.0
230
1.0
  0
TEXT
  8
11
  6
CONTINUOUS
 62
     7
  5
EB
 10
919166.376
 20
7258900.434
 30
0.0
 40
8.0
  1
230'
 50
88.142444
  7
ROMANS
 72
     4
 11
919162.810321
 21
7258913.890652
 31
0.0
210
0.0
220
0.0
230
1.0
  0
TEXT
  8
11
  6
CONTINUOUS
 62
     7
  5
EC
 10
919036.08
 20
7259015.302
 30
0.0
 40
8.0
  1
204.99'
 50
358.142444
  7
ROMANS
 72
     1
 11
919061.660005
 21
7259022.4766
 31
0.0
210
0.0
220
0.0
230
1.0
 73
     3
  0
TEXT
  8
11
  6
CONTINUOUS
 62
     7
  5
ED
 10
918961.454
 20
7258891.329
 30
0.0
 40
8.0
  1
214.99'
 50
88.142444
  7
ROMANS
 72
     4
 11
918958.277298
 21
7258916.779346
 31
0.0
210
0.0
220
0.0
230
1.0
  0
TEXT
  8
11
  6
CONTINUOUS
 62
     7
  5
EE
 10
918993.951
 20
7259050.736
 30
0.0
 40
8.0
  1
60'
 50
88.142444
  7
ROMANS
 72
     4
 11
918990.255662
 21
7259060.194754
 31
0.0
210
0.0
220
0.0
230
1.0
  0
TEXT
  8
11
  6
CONTINUOUS
 62
     7
  5
EF
 10
918912.231
 20
7258992.862
 30
0.0
 40
8.0
  1
60'
 50
358.142444
  7
ROMANS
 72
     4
 11
918921.689754
 21
7258996.557338
 31
0.0
210
0.0
220
0.0
230
1.0
  0
TEXT
  8
11
  6
CONTINUOUS
 62
     7
  5
F0
 10
918891.755
 20
7258400.94
 30
0.0
 40
8.0
  1
60'
 50
358.142444
  7
ROMANS
 72
     4
 11
918901.213754
 21
7258404.635338
 31
0.0
210
0.0
220
0.0
230
1.0
  0
TEXT
  8
11
  6
CONTINUOUS
 62
     7
  5
F1
 10
918601.523
 20
7258542.185
 30
0.0
 40
8.0
  1
324.5'
 50
88.142444
  7
ROMANS
 72
     4
 11
918598.216639
 21
7258563.637448
 31
0.0
210
0.0
220
0.0
230
1.0
  0
TEXT
  8
11
  6
CONTINUOUS
 62
     7
  5
F2
 10
918873.521
 20
7258529.523
 30
0.0
 40
8.0
  1
309.5'
 50
88.142444
  7
ROMANS
 72
     4
 11
918870.214639
 21
7258550.975448
 31
0.0
210
0.0
220
0.0
230
1.0
  0
TEXT
  8
11
  6
CONTINUOUS
 62
     7
  5
F3
 10
918874.582
 20
7259035.436
 30
0.0
 40
8.0
  1
30'
 50
88.142444
  7
ROMANS
 72
     4
 11
918870.886662
 21
7259044.894754
 31
0.0
210
0.0
220
0.0
230
1.0
  0
TEXT
  8
11
  6
CONTINUOUS
 62
     7
  5
F4
 10
918723.714
 20
7258700.733
 30
0.0
 40
8.0
  1
288'
 50
358.142444
  7
ROMANS
 72
     1
 11
918737.300311
 21
7258708.296577
 31
0.0
210
0.0
220
0.0
230
1.0
 73
     3
  0
TEXT
  8
11
  6
CONTINUOUS
 62
     7
  5
F5
 10
918891.706
 20
7259064.008
 30
0.0
 40
8.0
  1
45'
 50
358.142444
  7
ROMANS
 72
     1
 11
918901.035095
 21
7259063.70544
 31
0.0
210
0.0
220
0.0
230
1.0
  0
TEXT
  8
11
  6
CONTINUOUS
 62
     7
  5
F6
 10
917954.017
 20
7258409.636
 30
0.0
 40
8.0
  1
8'
 50
88.142444
  7
txt
 72
     4
 11
917950.201857
 21
7258415.400696
 31
0.0
210
0.0
220
0.0
230
1.0
  0
TEXT
  8
11
  6
CONTINUOUS
 62
     7
  5
F7
 10
918883.97
 20
7258851.715
 30
0.0
 40
8.0
  1
309.6'
 50
88.142444
  7
ROMANS
 72
     4
 11
918880.663639
 21
7258873.167448
 31
0.0
210
0.0
220
0.0
230
1.0
  0
TEXT
  8
11
  6
CONTINUOUS
 62
     7
  5
F8
 10
919254.606
 20
7259082.254
 30
0.0
 40
8.0
  1
605.23'
 50
358.142444
  7
ROMANS
 72
     1
 11
919279.926687
 21
7259081.432804
 31
0.0
210
0.0
220
0.0
230
1.0
  0
TEXT
  8
11
  6
CONTINUOUS
 62
     7
  5
F9
 10
919830.999
 20
7259062.479
 30
0.0
 40
8.0
  1
359.85'
 50
358.142444
  7
txt
 72
     4
 11
919854.580329
 21
7259065.716318
 31
0.0
210
0.0
220
0.0
230
1.0
  0
TEXT
  8
11
  6
CONTINUOUS
 62
     7
  5
FA
 10
919941.522
 20
7259225.796
 30
0.0
 40
8.0
  1
628.75'
 50
358.142444
  7
ROMANS
 72
     1
 11
919966.842687
 21
7259224.974804
 31
0.0
210
0.0
220
0.0
230
1.0
  0
TEXT
  8
11
  6
CONTINUOUS
 62
     7
  5
FB
 10
920343.599
 20
7259360.058
 30
0.0
 40
8.0
  1
245'
 50
67.618861
  7
ROMANS
 72
     1
 11
920348.675753
 21
7259372.386644
 31
0.0
210
0.0
220
0.0
230
1.0
  0
TEXT
  8
11
  6
CONTINUOUS
 62
     7
  5
FC
 10
920452.751
 20
7259483.61
 30
0.0
 40
8.0
  1
180'
 50
29.652269
  7
ROMANS
 72
     1
 11
920464.338832
 21
7259490.206795
 31
0.0
210
0.0
220
0.0
230
1.0
  0
TEXT
  8
11
  6
CONTINUOUS
 62
     7
  5
FD
 10
920374.167
 20
7259397.52
 30
0.0
 40
8.0
  1
40.62'
 50
67.618861
  7
ROMANS
 72
     1
 11
920374.89251
 21
7259420.292144
 31
0.0
210
0.0
220
0.0
230
1.0
 73
     3
  0
TEXT
  8
11
  6
CONTINUOUS
 62
     7
  5
FE
 10
920426.207
 20
7259387.7
 30
0.0
 40
8.0
  1
168.01'
 50
358.142444
  7
ROMANS
 72
     1
 11
920451.787005
 21
7259394.8746
 31
0.0
210
0.0
220
0.0
230
1.0
 73
     3
  0
TEXT
  8
11
  6
CONTINUOUS
 62
     7
  5
FF
 10
920521.061
 20
7259288.246
 30
0.0
 40
8.0
  1
139.88'
 50
88.142444
  7
ROMANS
 72
     4
 11
920517.884298
 21
7259313.696346
 31
0.0
210
0.0
220
0.0
230
1.0
  0
TEXT
  8
11
  6
CONTINUOUS
 62
     7
  5
100
 10
919664.505
 20
7259136.151
 30
0.0
 40
8.0
  1
151.51'
 50
88.142444
  7
txt
 72
     4
 11
919661.135981
 21
7259155.671464
 31
0.0
210
0.0
220
0.0
230
1.0
  0
TEXT
  8
11
  6
CONTINUOUS
 62
     7
  5
101
 10
920531.672
 20
7259655.443
 30
0.0
 40
8.0
  1
297.14'
 50
88.142444
  7
ROMANS
 72
     4
 11
920528.495298
 21
7259680.893346
 31
0.0
210
0.0
220
0.0
230
1.0
  0
TEXT
  8
11
  6
CONTINUOUS
 62
     7
  5
102
 10
919672.755
 20
7259509.433
 30
0.0
 40
8.0
  1
619.99'
 50
88.142444
  7
ROMANS
 72
     4
 11
919669.578298
 21
7259534.883346
 31
0.0
210
0.0
220
0.0
230
1.0
  0
TEXT
  8
11
  6
CONTINUOUS
 62
     7
  5
103
 10
920086.77
 20
7259845.268
 30
0.0
 40
8.0
  1
840.06'
 50
358.142444
  7
ROMANS
 72
     1
 11
920112.350005
 21
7259852.4426
 31
0.0
210
0.0
220
0.0
230
1.0
 73
     3
  0
TEXT
  8
11
  6
CONTINUOUS
 62
     7
  5
104
 10
919275.683
 20
7259871.573
 30
0.0
 40
8.0
  1
605.23'
 50
358.142444
  7
ROMANS
 72
     1
 11
919301.263005
 21
7259878.7476
 31
0.0
210
0.0
220
0.0
230
1.0
 73
     3
  0
TEXT
  8
11
  6
CONTINUOUS
 62
     7
  5
105
 10
918981.087
 20
7259465.922
 30
0.0
 40
8.0
  1
771.5'
 50
88.142444
  7
ROMANS
 72
     4
 11
918977.780639
 21
7259487.374448
 31
0.0
210
0.0
220
0.0
230
1.0
  0
TEXT
  8
11
  6
CONTINUOUS
 62
     7
  5
106
 10
919597.155
 20
7259444.467
 30
0.0
 40
8.0
  1
771.5'
 50
88.142444
  7
ROMANS
 72
     4
 11
919593.848639
 21
7259465.919448
 31
0.0
210
0.0
220
0.0
230
1.0
  0
TEXT
  8
11
  6
CONTINUOUS
 62
     7
  5
107
 10
918910.909
 20
7259752.955
 30
0.0
 40
8.0
  1
189.98'
 50
88.142444
  7
ROMANS
 72
     4
 11
918907.732298
 21
7259778.405346
 31
0.0
210
0.0
220
0.0
230
1.0
  0
TEXT
  8
11
  6
CONTINUOUS
 62
     7
  5
108
 10
918939.102
 20
7259851.261
 30
0.0
 40
8.0
  1
60'
 50
358.142444
  7
ROMANS
 72
     4
 11
918948.560754
 21
7259854.956338
 31
0.0
210
0.0
220
0.0
230
1.0
  0
TEXT
  8
11
  6
CONTINUOUS
 62
     7
  5
109
 10
918931.293
 20
7259701.257
 30
0.0
 40
8.0
  1
60'
 50
358.142444
  7
ROMANS
 72
     4
 11
918940.751754
 21
7259704.952338
 31
0.0
210
0.0
220
0.0
230
1.0
  0
TEXT
  8
11
  6
CONTINUOUS
 62
     7
  5
10A
 10
918950.734
 20
7259665.272
 30
0.0
 40
8.0
  1
30'
 50
358.142444
  7
ROMANS
 72
     4
 11
918960.192754
 21
7259668.967338
 31
0.0
210
0.0
220
0.0
230
1.0
  0
TEXT
  8
11
  6
CONTINUOUS
 62
     7
  5
10B
 10
918931.558
 20
7259119.37
 30
0.0
 40
8.0
  1
30'
 50
358.142444
  7
ROMANS
 72
     4
 11
918941.016754
 21
7259123.065338
 31
0.0
210
0.0
220
0.0
230
1.0
  0
TEXT
  8
11
  6
CONTINUOUS
 62
     7
  5
10C
 10
919636.092
 20
7259828.656
 30
0.0
 40
8.0
  1
60'
 50
358.142444
  7
ROMANS
 72
     4
 11
919645.550754
 21
7259832.351338
 31
0.0
210
0.0
220
0.0
230
1.0
  0
TEXT
  8
11
  6
CONTINUOUS
 62
     7
  5
10D
 10
919610.819
 20
7259097.34
 30
0.0
 40
8.0
  1
60'
 50
358.142444
  7
txt
 72
     4
 11
919620.359711
 21
7259101.03268
 31
0.0
210
0.0
220
0.0
230
1.0
  0
TEXT
  8
11
  6
CONTINUOUS
 62
     7
  5
10E
 10
919013.395
 20
7259948.717
 30
0.0
 40
8.0
  1
140'
 50
88.189844
  7
ROMANS
 72
     4
 11
919009.818158
 21
7259962.169698
 31
0.0
210
0.0
220
0.0
230
1.0
  0
TEXT
  8
11
  6
CONTINUOUS
 62
     7
  5
10F
 10
919017.768
 20
7260087.047
 30
0.0
 40
8.0
  1
140'
 50
88.189844
  7
ROMANS
 72
     4
 11
919014.191158
 21
7260100.499698
 31
0.0
210
0.0
220
0.0
230
1.0
  0
TEXT
  8
11
  6
CONTINUOUS
 62
     7
  5
110
 10
920500.289
 20
7260038.811
 30
0.0
 40
8.0
  1
140'
 50
88.363344
  7
ROMANS
 72
     4
 11
920496.671438
 21
7260052.252805
 31
0.0
210
0.0
220
0.0
230
1.0
  0
TEXT
  8
11
  6
CONTINUOUS
 62
     7
  5
111
 10
920492.701
 20
7259901.965
 30
0.0
 40
8.0
  1
140'
 50
88.189844
  7
ROMANS
 72
     4
 11
920489.124158
 21
7259915.417698
 31
0.0
210
0.0
220
0.0
230
1.0
  0
TEXT
  8
11
  6
CONTINUOUS
 62
     7
  5
112
 10
920558.404
 20
7259801.493
 30
0.0
 40
8.0
  1
55'
 50
358.142444
  7
ROMANS
 72
     4
 11
920567.862754
 21
7259805.188338
 31
0.0
210
0.0
220
0.0
230
1.0
  0
TEXT
  8
11
  6
CONTINUOUS
 62
     7
  5
113
 10
920538.345
 20
7259153.159
 30
0.0
 40
8.0
  1
55'
 50
358.142444
  7
ROMANS
 72
     4
 11
920547.803754
 21
7259156.854338
 31
0.0
210
0.0
220
0.0
230
1.0
  0
TEXT
  8
11
  6
CONTINUOUS
 62
     7
  5
114
 10
920533.762
 20
7259011.888
 30
0.0
 40
8.0
  1
55'
 50
358.142444
  7
ROMANS
 72
     4
 11
920543.220754
 21
7259015.583338
 31
0.0
210
0.0
220
0.0
230
1.0
  0
TEXT
  8
11
  6
CONTINUOUS
 62
     7
  5
115
 10
920523.866
 20
7258706.721
 30
0.0
 40
8.0
  1
55'
 50
358.142444
  7
ROMANS
 72
     4
 11
920533.324754
 21
7258710.416338
 31
0.0
210
0.0
220
0.0
230
1.0
  0
TEXT
  8
11
  6
CONTINUOUS
 62
     7
  5
116
 10
920520.047
 20
7258588.997
 30
0.0
 40
8.0
  1
55'
 50
358.142444
  7
ROMANS
 72
     4
 11
920529.505754
 21
7258592.692338
 31
0.0
210
0.0
220
0.0
230
1.0
  0
TEXT
  8
11
  6
CONTINUOUS
 62
     7
  5
117
 10
920512.33
 20
7258380.882
 30
0.0
 40
8.0
  1
55'
 50
358.142444
  7
ROMANS
 72
     4
 11
920521.788754
 21
7258384.577338
 31
0.0
210
0.0
220
0.0
230
1.0
  0
TEXT
  8
11
  6
CONTINUOUS
 62
     7
  5
118
 10
918810.46
 20
7259692.91
 30
0.0
 40
8.0
  1
185'
 50
358.142444
  7
ROMANS
 72
     1
 11
918823.786993
 21
7259692.477781
 31
0.0
210
0.0
220
0.0
230
1.0
  0
TEXT
  8
11
  6
CONTINUOUS
 62
     7
  5
119
 10
918744.102
 20
7259772.897
 30
0.0
 40
8.0
  1
195'
 50
88.142444
  7
ROMANS
 72
     4
 11
918740.536321
 21
7259786.353652
 31
0.0
210
0.0
220
0.0
230
1.0
  0
TEXT
  8
11
  6
CONTINUOUS
 62
     7
  5
11A
 10
918797.811
 20
7259878.118
 30
0.0
 40
8.0
  1
169.42'
 50
1.492469
  7
ROMANS
 72
     1
 11
918822.927041
 21
7259886.775098
 31
0.0
210
0.0
220
0.0
230
1.0
 73
     3
  0
TEXT
  8
11
  6
CONTINUOUS
 62
     7
  5
11B
 10
917884.637
 20
7260280.156
 30
0.0
 40
8.0
  1
C
 50
37.490297
  7
ROMANS
 72
     1
 11
917881.767494
 21
7260288.037392
 31
0.0
210
0.0
220
0.0
230
1.0
 73
     3
  0
TEXT
  8
11
  6
CONTINUOUS
 62
     7
  5
11C
 10
917891.466
 20
7260285.286
 30
0.0
 40
8.0
  1
H
 50
40.616425
  7
ROMANS
 72
     1
 11
917888.02901
 21
7260292.877442
 31
0.0
210
0.0
220
0.0
230
1.0
 73
     3
  0
TEXT
  8
11
  6
CONTINUOUS
 62
     7
  5
11D
 10
917897.489
 20
7260290.454
 30
0.0
 40
8.0
  1
=
 50
40.616425
  7
ROMANS
 72
     1
 11
917894.811095
 21
7260298.696434
 31
0.0
210
0.0
220
0.0
230
1.0
 73
     3
  0
TEXT
  8
11
  6
CONTINUOUS
 62
     7
  5
11E
 10
917903.875
 20
7260296.115
 30
0.0
 40
8.0
  1
3
 50
43.742556
  7
ROMANS
 72
     1
 11
917900.029131
 21
7260303.507711
 31
0.0
210
0.0
220
0.0
230
1.0
 73
     3
  0
TEXT
  8
11
  6
CONTINUOUS
 62
     7
  5
11F
 10
917910.09
 20
7260301.972
 30
0.0
 40
8.0
  1
2
 50
46.868683
  7
ROMANS
 72
     1
 11
917905.846699
 21
7260309.143979
 31
0.0
210
0.0
220
0.0
230
1.0
 73
     3
  0
TEXT
  8
11
  6
CONTINUOUS
 62
     7
  5
120
 10
917915.516
 20
7260307.763
 30
0.0
 40
8.0
  1
5
 50
46.868683
  7
ROMANS
 72
     1
 11
917911.280219
 21
7260314.943007
 31
0.0
210
0.0
220
0.0
230
1.0
 73
     3
  0
TEXT
  8
11
  6
CONTINUOUS
 62
     7
  5
121
 10
917921.234
 20
7260314.1
 30
0.0
 40
8.0
  1
.
 50
49.994811
  7
ROMANS
 72
     1
 11
917915.955967
 21
7260320.25549
 31
0.0
210
0.0
220
0.0
230
1.0
 73
     3
  0
TEXT
  8
11
  6
CONTINUOUS
 62
     7
  5
122
 10
917926.759
 20
7260320.612
 30
0.0
 40
8.0
  1
2
 50
53.120942
  7
ROMANS
 72
     1
 11
917921.759866
 21
7260327.279199
 31
0.0
210
0.0
220
0.0
230
1.0
 73
     3
  0
TEXT
  8
11
  6
CONTINUOUS
 62
     7
  5
123
 10
917931.523
 20
7260326.96
 30
0.0
 40
8.0
  1
'
 50
53.120942
  7
ROMANS
 72
     1
 11
917925.923738
 21
7260332.827295
 31
0.0
210
0.0
220
0.0
230
1.0
 73
     3
  0
TEXT
  8
11
  6
CONTINUOUS
 62
     7
  5
124
 10
918093.68
 20
7260332.805
 30
0.0
 40
8.0
  1
C
 50
299.937969
  7
ROMANS
 72
     1
 11
918101.870166
 21
7260334.61375
 31
0.0
210
0.0
220
0.0
230
1.0
 73
     3
  0
TEXT
  8
11
  6
CONTINUOUS
 62
     7
  5
125
 10
918098.008
 20
7260325.449
 30
0.0
 40
8.0
  1
H
 50
303.064097
  7
ROMANS
 72
     1
 11
918105.985317
 21
7260327.85842
 31
0.0
210
0.0
220
0.0
230
1.0
 73
     3
  0
TEXT
  8
11
  6
CONTINUOUS
 62
     7
  5
126
 10
918102.56
 20
7260318.221
 30
0.0
 40
8.0
  1
=
 50
306.190225
  7
ROMANS
 72
     1
 11
918110.984518
 21
7260320.254809
 31
0.0
210
0.0
220
0.0
230
1.0
 73
     3
  0
TEXT
  8
11
  6
CONTINUOUS
 62
     7
  5
127
 10
918107.248
 20
7260311.816
 30
0.0
 40
8.0
  1
3
 50
306.190225
  7
ROMANS
 72
     1
 11
918115.08205
 21
7260314.65687
 31
0.0
210
0.0
220
0.0
230
1.0
 73
     3
  0
TEXT
  8
11
  6
CONTINUOUS
 62
     7
  5
128
 10
918112.367
 20
7260304.985
 30
0.0
 40
8.0
  1
2
 50
309.316356
  7
ROMANS
 72
     1
 11
918120.034468
 21
7260308.248867
 31
0.0
210
0.0
220
0.0
230
1.0
 73
     3
  0
TEXT
  8
11
  6
CONTINUOUS
 62
     7
  5
129
 10
918117.693
 20
7260298.309
 30
0.0
 40
8.0
  1
5
 50
312.442483
  7
ROMANS
 72
     1
 11
918125.178489
 21
7260301.978031
 31
0.0
210
0.0
220
0.0
230
1.0
 73
     3
  0
TEXT
  8
11
  6
CONTINUOUS
 62
     7
  5
12A
 10
918123.05
 20
7260292.452
 30
0.0
 40
8.0
  1
.
 50
312.442483
  7
ROMANS
 72
     1
 11
918129.845793
 21
7260296.875221
 31
0.0
210
0.0
220
0.0
230
1.0
 73
     3
  0
TEXT
  8
11
  6
CONTINUOUS
 62
     7
  5
12B
 10
918128.897
 20
7260286.234
 30
0.0
 40
8.0
  1
2
 50
315.568611
  7
ROMANS
 72
     1
 11
918136.163407
 21
7260290.313487
 31
0.0
210
0.0
220
0.0
230
1.0
 73
     3
  0
TEXT
  8
11
  6
CONTINUOUS
 62
     7
  5
12C
 10
918134.563
 20
7260280.678
 30
0.0
 40
8.0
  1
'
 50
315.568611
  7
ROMANS
 72
     1
 11
918141.115318
 21
7260285.457541
 31
0.0
210
0.0
220
0.0
230
1.0
 73
     3
  0
TEXT
  8
11
  6
CONTINUOUS
 62
     7
  5
12D
 10
917869.651
 20
7259837.895
 30
0.0
 40
8.0
  1
C
 50
318.889392
  7
ROMANS
 72
     1
 11
917871.549673
 21
7259836.238063
 31
0.0
210
0.0
220
0.0
230
1.0
  0
TEXT
  8
11
  6
CONTINUOUS
 62
     7
  5
12E
 10
917875.628
 20
7259832.431
 30
0.0
 40
8.0
  1
H
 50
315.763264
  7
ROMANS
 72
     1
 11
917877.299509
 21
7259830.803442
 31
0.0
210
0.0
220
0.0
230
1.0
  0
TEXT
  8
11
  6
CONTINUOUS
 62
     7
  5
12F
 10
917881.445
 20
7259826.792
 30
0.0
 40
8.0
  1
=
 50
312.637133
  7
ROMANS
 72
     1
 11
917883.702617
 21
7259824.340051
 31
0.0
210
0.0
220
0.0
230
1.0
  0
TEXT
  8
11
  6
CONTINUOUS
 62
     7
  5
130
 10
917887.29
 20
7259823.908
 30
0.0
 40
8.0
  1
3
 50
312.589733
  7
ROMANS
 72
     1
 11
917888.868844
 21
7259822.190403
 31
0.0
210
0.0
220
0.0
230
1.0
  0
TEXT
  8
11
  6
CONTINUOUS
 62
     7
  5
131
 10
917892.615
 20
7259817.809
 30
0.0
 40
8.0
  1
2
 50
309.463606
  7
ROMANS
 72
     1
 11
917894.097827
 21
7259816.007858
 31
0.0
210
0.0
220
0.0
230
1.0
  0
TEXT
  8
11
  6
CONTINUOUS
 62
     7
  5
132
 10
917900.457
 20
7259811.665
 30
0.0
 40
8.0
  1
5
 50
306.337478
  7
ROMANS
 72
     1
 11
917901.845914
 21
7259809.776812
 31
0.0
210
0.0
220
0.0
230
1.0
  0
TEXT
  8
11
  6
CONTINUOUS
 62
     7
  5
133
 10
917905.16
 20
7259805.272
 30
0.0
 40
8.0
  1
.
 50
306.337478
  7
ROMANS
 72
     1
 11
917905.943338
 21
7259804.207075
 31
0.0
210
0.0
220
0.0
230
1.0
  0
TEXT
  8
11
  6
CONTINUOUS
 62
     7
  5
134
 10
917909.774
 20
7259798.617
 30
0.0
 40
8.0
  1
2
 50
303.211347
  7
ROMANS
 72
     1
 11
917911.051852
 21
7259796.665082
 31
0.0
210
0.0
220
0.0
230
1.0
  0
TEXT
  8
11
  6
CONTINUOUS
 62
     7
  5
135
 10
917914.195
 20
7259791.83
 30
0.0
 40
8.0
  1
'
 50
300.085219
  7
ROMANS
 72
     1
 11
917914.863216
 21
7259790.676581
 31
0.0
210
0.0
220
0.0
230
1.0
  0
TEXT
  8
11
  6
CONTINUOUS
 62
     7
  5
136
 10
918002.177
 20
7260460.89
 30
0.0
 40
8.0
  1
110'
 50
358.189844
  7
ROMANS
 72
     1
 11
918015.503347
 21
7260460.468838
 31
0.0
210
0.0
220
0.0
230
1.0
  0
TEXT
  8
11
  6
CONTINUOUS
 62
     7
  5
137
 10
917987.769
 20
7259674.539
 30
0.0
 40
8.0
  1
110'
 50
358.142444
  7
ROMANS
 72
     1
 11
918001.355311
 21
7259682.102577
 31
0.0
210
0.0
220
0.0
230
1.0
 73
     3
  0
TEXT
  8
11
  6
CONTINUOUS
 62
     7
  5
138
 10
917399.059
 20
7259907.504
 30
0.0
 40
8.0
  1
688.7'
 50
354.839861
  7
ROMANS
 72
     1
 11
917421.02506
 21
7259913.552894
 31
0.0
210
0.0
220
0.0
230
1.0
 73
     3
  0
TEXT
  8
11
  6
CONTINUOUS
 62
     7
  5
139
 10
917409.901
 20
7260237.911
 30
0.0
 40
8.0
  1
688.7'
 50
1.539828
  7
ROMANS
 72
     1
 11
917431.226296
 21
7260238.484257
 31
0.0
210
0.0
220
0.0
230
1.0
  0
TEXT
  8
11
  6
CONTINUOUS
 62
     7
  5
13A
 10
918531.032
 20
7260210.118
 30
0.0
 40
8.0
  1
688.7'
 50
354.839861
  7
ROMANS
 72
     1
 11
918552.278542
 21
7260208.199316
 31
0.0
210
0.0
220
0.0
230
1.0
  0
TEXT
  8
11
  6
CONTINUOUS
 62
     7
  5
13B
 10
918488.947
 20
7259869.199
 30
0.0
 40
8.0
  1
398.68'
 50
1.492469
  7
txt
 72
     4
 11
918512.108922
 21
7259873.803827
 31
0.0
210
0.0
220
0.0
230
1.0
  0
TEXT
  8
11
  6
CONTINUOUS
 62
     7
  5
13C
 10
916224.96
 20
7259963.957
 30
0.0
 40
8.0
  1
1740'
 50
358.189844
  7
ROMANS
 72
     1
 11
916242.537054
 21
7259971.405494
 31
0.0
210
0.0
220
0.0
230
1.0
 73
     3
  0
TEXT
  8
11
  6
CONTINUOUS
 62
     7
  5
13D
 10
916242.973
 20
7260255.432
 30
0.0
 40
8.0
  1
1740'
 50
358.189844
  7
ROMANS
 72
     1
 11
916260.29735
 21
7260254.884487
 31
0.0
210
0.0
220
0.0
230
1.0
  0
TEXT
  8
11
  6
CONTINUOUS
 62
     7
  5
13E
 10
915438.104
 20
7260130.88
 30
0.0
 40
8.0
  1
280'
 50
88.189844
  7
ROMANS
 72
     4
 11
915434.527158
 21
7260144.332698
 31
0.0
210
0.0
220
0.0
230
1.0
  0
TEXT
  8
11
  6
CONTINUOUS
 62
     7
  5
13F
 10
917015.157
 20
7260081.039
 30
0.0
 40
8.0
  1
280'
 50
88.189844
  7
ROMANS
 72
     4
 11
917011.580158
 21
7260094.491698
 31
0.0
210
0.0
220
0.0
230
1.0
  0
TEXT
  8
11
  6
CONTINUOUS
 62
     7
  5
140
 10
920328.181
 20
7260130.469
 30
0.0
 40
8.0
  1
366.25'
 50
358.363344
  7
ROMANS
 72
     1
 11
920353.503665
 21
7260129.745461
 31
0.0
210
0.0
220
0.0
230
1.0
  0
TEXT
  8
11
  6
CONTINUOUS
 62
     7
  5
141
 10
920162.45
 20
7260318.591
 30
0.0
 40
8.0
  1
400'
 50
88.363344
  7
ROMANS
 72
     1
 11
920154.834069
 21
7260332.14705
 31
0.0
210
0.0
220
0.0
230
1.0
 73
     3
  0
TEXT
  8
11
  6
CONTINUOUS
 62
     7
  5
142
 10
920018.68
 20
7260615.723
 30
0.0
 40
8.0
  1
200.83'
 50
88.363344
  7
ROMANS
 72
     1
 11
920011.406803
 21
7260641.274154
 31
0.0
210
0.0
220
0.0
230
1.0
 73
     3
  0
TEXT
  8
11
  6
CONTINUOUS
 62
     7
  5
143
 10
920025.972
 20
7260870.898
 30
0.0
 40
8.0
  1
316.74'
 50
88.363344
  7
ROMANS
 72
     1
 11
920018.698803
 21
7260896.449154
 31
0.0
210
0.0
220
0.0
230
1.0
 73
     3
  0
TEXT
  8
11
  6
CONTINUOUS
 62
     7
  5
144
 10
920064.32
 20
7260538.172
 30
0.0
 40
8.0
  1
160'
 50
358.363344
  7
ROMANS
 72
     1
 11
920077.647561
 21
7260537.791194
 31
0.0
210
0.0
220
0.0
230
1.0
  0
TEXT
  8
11
  6
CONTINUOUS
 62
     7
  5
145
 10
920264.428
 20
7260733.366
 30
0.0
 40
8.0
  1
566.25'
 50
358.363344
  7
ROMANS
 72
     1
 11
920289.750665
 21
7260732.642461
 31
0.0
210
0.0
220
0.0
230
1.0
  0
TEXT
  8
11
  6
CONTINUOUS
 62
     7
  5
146
 10
920585.734
 20
7260954.866
 30
0.0
 40
8.0
  1
55'
 50
358.363344
  7
ROMANS
 72
     4
 11
920595.177437
 21
7260958.597807
 31
0.0
210
0.0
220
0.0
230
1.0
  0
TEXT
  8
11
  6
CONTINUOUS
 62
     7
  5
147
 10
920575.932
 20
7260554.97
 30
0.0
 40
8.0
  1
55'
 50
358.363344
  7
ROMANS
 72
     4
 11
920585.375437
 21
7260558.701807
 31
0.0
210
0.0
220
0.0
230
1.0
  0
TEXT
  8
11
  6
CONTINUOUS
 62
     7
  5
148
 10
920562.146
 20
7260356.902
 30
0.0
 40
8.0
  1
65'
 50
358.363344
  7
ROMANS
 72
     4
 11
920571.589437
 21
7260360.633807
 31
0.0
210
0.0
220
0.0
230
1.0
  0
TEXT
  8
11
  6
CONTINUOUS
 62
     7
  5
149
 10
920558.197
 20
7260161.807
 30
0.0
 40
8.0
  1
65'
 50
358.363344
  7
ROMANS
 72
     4
 11
920567.640437
 21
7260165.538807
 31
0.0
210
0.0
220
0.0
230
1.0
  0
TEXT
  8
11
  6
CONTINUOUS
 62
     7
  5
14A
 10
920542.774
 20
7260245.739
 30
0.0
 40
8.0
  1
208'
 50
88.363344
  7
ROMANS
 72
     1
 11
920543.154806
 21
7260259.066561
 31
0.0
210
0.0
220
0.0
230
1.0
  0
TEXT
  8
11
  6
CONTINUOUS
 62
     7
  5
14B
 10
920550.717
 20
7260419.085
 30
0.0
 40
8.0
  1
200.25'
 50
85.500939
  7
ROMANS
 72
     1
 11
920552.70419
 21
7260444.339939
 31
0.0
210
0.0
220
0.0
230
1.0
  0
TEXT
  8
11
  6
CONTINUOUS
 62
     7
  5
14C
 10
920563.527
 20
7260623.652
 30
0.0
 40
8.0
  1
162.83'
 50
88.363344
  7
ROMANS
 72
     4
 11
920560.252171
 21
7260649.08891
 31
0.0
210
0.0
220
0.0
230
1.0
  0
TEXT
  8
11
  6
CONTINUOUS
 62
     7
  5
14D
 10
920569.657
 20
7260838.204
 30
0.0
 40
8.0
  1
251.74'
 50
88.363344
  7
ROMANS
 72
     4
 11
920566.382171
 21
7260863.64091
 31
0.0
210
0.0
220
0.0
230
1.0
  0
TEXT
  8
11
  6
CONTINUOUS
 62
     7
  5
14E
 10
920301.379
 20
7261006.531
 30
0.0
 40
8.0
  1
65'
 50
88.363344
  7
ROMANS
 72
     4
 11
920297.647193
 21
7261015.974437
 31
0.0
210
0.0
220
0.0
230
1.0
  0
TEXT
  8
11
  6
CONTINUOUS
 62
     7
  5
14F
 10
920145.295
 20
7261039.633
 30
0.0
 40
8.0
  1
291'
 50
358.363344
  7
ROMANS
 72
     1
 11
920158.85105
 21
7261047.248931
 31
0.0
210
0.0
220
0.0
230
1.0
 73
     3
  0
TEXT
  8
11
  6
CONTINUOUS
 62
     7
  5
150
 10
920419.02
 20
7260966.786
 30
0.0
 40
8.0
  1
275.25'
 50
358.363344
  7
ROMANS
 72
     1
 11
920444.571154
 21
7260974.059197
 31
0.0
210
0.0
220
0.0
230
1.0
 73
     3
  0
TEXT
  8
11
  6
CONTINUOUS
 62
     7
  5
151
 10
920414.547
 20
7260980.919
 30
0.0
 40
8.0
  1
285.25'
 50
358.363344
  7
ROMANS
 72
     1
 11
920439.869665
 21
7260980.195461
 31
0.0
210
0.0
220
0.0
230
1.0
  0
TEXT
  8
11
  6
CONTINUOUS
 62
     7
  5
152
 10
920296.516
 20
7261208.753
 30
0.0
 40
8.0
  1
30'
 50
88.363344
  7
ROMANS
 72
     4
 11
920292.784193
 21
7261218.196437
 31
0.0
210
0.0
220
0.0
230
1.0
  0
TEXT
  8
11
  6
CONTINUOUS
 62
     7
  5
153
 10
920573.206
 20
7261202.819
 30
0.0
 40
8.0
  1
30'
 50
88.363344
  7
ROMANS
 72
     4
 11
920569.474193
 21
7261212.262437
 31
0.0
210
0.0
220
0.0
230
1.0
  0
TEXT
  8
11
  6
CONTINUOUS
 62
     7
  5
154
 10
920611.519
 20
7261249.386
 30
0.0
 40
8.0
  1
55'
 50
358.363344
  7
ROMANS
 72
     4
 11
920620.962437
 21
7261253.117807
 31
0.0
210
0.0
220
0.0
230
1.0
  0
TEXT
  8
11
  6
CONTINUOUS
 62
     7
  5
155
 10
920620.304
 20
7261591.293
 30
0.0
 40
8.0
  1
55'
 50
358.363344
  7
ROMANS
 72
     4
 11
920629.747437
 21
7261595.024807
 31
0.0
210
0.0
220
0.0
230
1.0
  0
TEXT
  8
11
  6
CONTINUOUS
 62
     7
  5
156
 10
920414.244
 20
7261233.574
 30
0.0
 40
8.0
  1
297.17'
 50
358.363344
  7
ROMANS
 72
     1
 11
920439.566665
 21
7261232.850461
 31
0.0
210
0.0
220
0.0
230
1.0
  0
TEXT
  8
11
  6
CONTINUOUS
 62
     7
  5
157
 10
920441.892
 20
7261611.938
 30
0.0
 40
8.0
  1
312'
 50
358.363344
  7
ROMANS
 72
     1
 11
920455.44805
 21
7261619.553931
 31
0.0
210
0.0
220
0.0
230
1.0
 73
     3
  0
TEXT
  8
11
  6
CONTINUOUS
 62
     7
  5
158
 10
920597.814
 20
7261407.903
 30
0.0
 40
8.0
  1
378.01'
 50
88.363344
  7
ROMANS
 72
     4
 11
920594.539171
 21
7261433.33991
 31
0.0
210
0.0
220
0.0
230
1.0
  0
TEXT
  8
11
  6
CONTINUOUS
 62
     7
  5
159
 10
920303.938
 20
7261421.979
 30
0.0
 40
8.0
  1
393'
 50
88.363344
  7
ROMANS
 72
     4
 11
920300.320438
 21
7261435.420805
 31
0.0
210
0.0
220
0.0
230
1.0
  0
TEXT
  8
11
  6
CONTINUOUS
 62
     7
  5
15A
 10
920576.344
 20
7261065.087
 30
0.0
 40
8.0
  1
225.06'
 50
88.363344
  7
ROMANS
 72
     4
 11
920573.069171
 21
7261090.52391
 31
0.0
210
0.0
220
0.0
230
1.0
  0
TEXT
  8
11
  6
CONTINUOUS
 62
     7
  5
15B
 10
920430.939
 20
7261191.597
 30
0.0
 40
8.0
  1
322'
 50
358.363344
  7
ROMANS
 72
     1
 11
920444.49505
 21
7261199.212931
 31
0.0
210
0.0
220
0.0
230
1.0
 73
     3
  0
TEXT
  8
11
  6
CONTINUOUS
 62
     7
  5
15C
 10
919028.98
 20
7261998.141
 30
0.0
 40
8.0
  1
1417.15'
 50
88.363344
  7
ROMANS
 72
     4
 11
919025.819416
 21
7262027.576278
 31
0.0
210
0.0
220
0.0
230
1.0
  0
TEXT
  8
11
  6
CONTINUOUS
 62
     7
  5
15D
 10
920306.047
 20
7262191.344
 30
0.0
 40
8.0
  1
2025.48'
 50
88.363344
  7
ROMANS
 72
     4
 11
920302.886416
 21
7262220.779278
 31
0.0
210
0.0
220
0.0
230
1.0
  0
TEXT
  8
11
  6
CONTINUOUS
 62
     7
  5
15E
 10
919394.99
 20
7262636.528
 30
0.0
 40
8.0
  1
793.71'
 50
358.363344
  7
ROMANS
 72
     1
 11
919420.541154
 21
7262643.801197
 31
0.0
210
0.0
220
0.0
230
1.0
 73
     3
  0
TEXT
  8
11
  6
CONTINUOUS
 62
     7
  5
15F
 10
919664.107
 20
7262889.853
 30
0.0
 40
8.0
  1
512.4'
 50
304.442528
  7
ROMANS
 72
     1
 11
919682.770054
 21
7262876.784439
 31
0.0
210
0.0
220
0.0
230
1.0
 73
     3
  0
TEXT
  8
11
  6
CONTINUOUS
 62
     7
  5
160
 10
919129.224
 20
7262658.128
 30
0.0
 40
8.0
  1
210'
 50
358.363344
  7
ROMANS
 72
     1
 11
919142.551561
 21
7262657.747194
 31
0.0
210
0.0
220
0.0
230
1.0
  0
TEXT
  8
11
  6
CONTINUOUS
 62
     7
  5
161
 10
919327.293
 20
7262652.469
 30
0.0
 40
8.0
  1
214.77'
 50
358.363344
  7
ROMANS
 72
     1
 11
919352.615665
 21
7262651.745461
 31
0.0
210
0.0
220
0.0
230
1.0
  0
TEXT
  8
11
  6
CONTINUOUS
 62
     7
  5
162
 10
919639.409
 20
7262643.55
 30
0.0
 40
8.0
  1
386.94'
 50
358.363344
  7
ROMANS
 72
     1
 11
919664.731665
 21
7262642.826461
 31
0.0
210
0.0
220
0.0
230
1.0
  0
TEXT
  8
11
  6
CONTINUOUS
 62
     7
  5
163
 10
919779.345
 20
7262746.576
 30
0.0
 40
8.0
  1
212.14'
 50
304.442528
  7
ROMANS
 72
     1
 11
919793.67282
 21
7262725.684029
 31
0.0
210
0.0
220
0.0
230
1.0
  0
TEXT
  8
11
  6
CONTINUOUS
 62
     7
  5
164
 10
919145.435
 20
7263046.063
 30
0.0
 40
8.0
  1
250.83'
 50
358.363344
  7
ROMANS
 72
     1
 11
919170.757665
 21
7263045.339461
 31
0.0
210
0.0
220
0.0
230
1.0
  0
TEXT
  8
11
  6
CONTINUOUS
 62
     7
  5
165
 10
919312.425
 20
7262904.324
 30
0.0
 40
8.0
  1
290.83'
 50
61.701114
  7
ROMANS
 72
     1
 11
919324.435117
 21
7262926.630247
 31
0.0
210
0.0
220
0.0
230
1.0
  0
TEXT
  8
11
  6
CONTINUOUS
 62
     7
  5
166
 10
919249.591
 20
7262702.705
 30
0.0
 40
8.0
  1
140'
 50
88.363344
  7
ROMANS
 72
     1
 11
919249.971806
 21
7262716.032561
 31
0.0
210
0.0
220
0.0
230
1.0
  0
TEXT
  8
11
  6
CONTINUOUS
 62
     7
  5
167
 10
919467.179
 20
7262798.256
 30
0.0
 40
8.0
  1
388.79'
 50
88.363344
  7
ROMANS
 72
     1
 11
919467.902539
 21
7262823.578665
 31
0.0
210
0.0
220
0.0
230
1.0
  0
TEXT
  8
11
  6
CONTINUOUS
 62
     7
  5
168
 10
919073.453
 20
7263400.641
 30
0.0
 40
8.0
  1
962.26'
 50
88.363344
  7
ROMANS
 72
     1
 11
919066.179803
 21
7263426.192154
 31
0.0
210
0.0
220
0.0
230
1.0
 73
     3
  0
TEXT
  8
11
  6
CONTINUOUS
 62
     7
  5
169
 10
920059.063
 20
7263019.667
 30
0.0
 40
8.0
  1
743.06'
 50
34.408339
  7
ROMANS
 72
     1
 11
920075.44282
 21
7263040.582601
 31
0.0
210
0.0
220
0.0
230
1.0
 73
     3
  0
TEXT
  8
11
  6
CONTINUOUS
 62
     7
  5
16A
 10
919157.143
 20
7263615.22
 30
0.0
 40
8.0
  1
200'
 50
358.363344
  7
ROMANS
 72
     1
 11
919170.69905
 21
7263622.835931
 31
0.0
210
0.0
220
0.0
230
1.0
 73
     3
  0
TEXT
  8
11
  6
CONTINUOUS
 62
     7
  5
16B
 10
919259.116
 20
7263392.372
 30
0.0
 40
8.0
  1
721.47'
 50
88.363344
  7
ROMANS
 72
     1
 11
919259.839539
 21
7263417.694665
 31
0.0
210
0.0
220
0.0
230
1.0
  0
TEXT
  8
11
  6
CONTINUOUS
 62
     7
  5
16C
 10
919349.038
 20
7263563.007
 30
0.0
 40
8.0
  1
56.66'
 50
358.363344
  7
ROMANS
 72
     1
 11
919370.590786
 21
7263570.394442
 31
0.0
210
0.0
220
0.0
230
1.0
 73
     3
  0
TEXT
  8
11
  6
CONTINUOUS
 62
     7
  5
16D
 10
919364.146
 20
7263297.466
 30
0.0
 40
8.0
  1
149.67'
 50
358.363344
  7
ROMANS
 72
     1
 11
919389.697154
 21
7263304.739197
 31
0.0
210
0.0
220
0.0
230
1.0
 73
     3
  0
TEXT
  8
11
  6
CONTINUOUS
 62
     7
  5
16E
 10
919365.117
 20
7263331.453
 30
0.0
 40
8.0
  1
143.21'
 50
358.363344
  7
ROMANS
 72
     1
 11
919390.439665
 21
7263330.729461
 31
0.0
210
0.0
220
0.0
230
1.0
  0
TEXT
  8
11
  6
CONTINUOUS
 62
     7
  5
16F
 10
919334.492
 20
7263439.49
 30
0.0
 40
8.0
  1
230'
 50
88.363344
  7
ROMANS
 72
     1
 11
919326.876069
 21
7263453.04605
 31
0.0
210
0.0
220
0.0
230
1.0
 73
     3
  0
TEXT
  8
11
  6
CONTINUOUS
 62
     7
  5
170
 10
919329.313
 20
7263258.233
 30
0.0
 40
8.0
  1
61.71'
 50
88.363344
  7
ROMANS
 72
     1
 11
919321.925558
 21
7263279.785786
 31
0.0
210
0.0
220
0.0
230
1.0
 73
     3
  0
TEXT
  8
11
  6
CONTINUOUS
 62
     7
  5
171
 10
919673.398
 20
7263432.11
 30
0.0
 40
8.0
  1
905.31'
 50
34.442553
  7
ROMANS
 72
     1
 11
919689.765328
 21
7263453.035379
 31
0.0
210
0.0
220
0.0
230
1.0
 73
     3
  0
TEXT
  8
11
  6
CONTINUOUS
 62
     7
  5
172
 10
919650.394
 20
7263457.563
 30
0.0
 40
8.0
  1
905.31'
 50
34.442569
  7
ROMANS
 72
     1
 11
919671.285961
 21
7263471.890835
 31
0.0
210
0.0
220
0.0
230
1.0
  0
TEXT
  8
11
  6
CONTINUOUS
 62
     7
  5
173
 10
919367.611
 20
7263118.082
 30
0.0
 40
8.0
  1
R
 50
322.69375
  7
ROMANS
 72
     1
 11
919374.464028
 21
7263122.91795
 31
0.0
210
0.0
220
0.0
230
1.0
 73
     3
  0
TEXT
  8
11
  6
CONTINUOUS
 62
     7
  5
174
 10
919374.492
 20
7263112.829
 30
0.0
 40
8.0
  1
=
 50
326.436461
  7
ROMANS
 72
     1
 11
919381.692191
 21
7263117.652499
 31
0.0
210
0.0
220
0.0
230
1.0
 73
     3
  0
TEXT
  8
11
  6
CONTINUOUS
 62
     7
  5
175
 10
919381.103
 20
7263108.441
 30
0.0
 40
8.0
  1
1
 50
326.436461
  7
ROMANS
 72
     1
 11
919386.636644
 21
7263114.370222
 31
0.0
210
0.0
220
0.0
230
1.0
 73
     3
  0
TEXT
  8
11
  6
CONTINUOUS
 62
     7
  5
176
 10
919388.52
 20
7263103.984
 30
0.0
 40
8.0
  1
5
 50
330.179172
  7
ROMANS
 72
     1
 11
919394.531934
 21
7263109.759032
 31
0.0
210
0.0
220
0.0
230
1.0
 73
     3
  0
TEXT
  8
11
  6
CONTINUOUS
 62
     7
  5
177
 10
919396.154
 20
7263099.915
 30
0.0
 40
8.0
  1
0
 50
333.921883
  7
ROMANS
 72
     1
 11
919402.051886
 21
7263105.935195
 31
0.0
210
0.0
220
0.0
230
1.0
 73
     3
  0
TEXT
  8
11
  6
CONTINUOUS
 62
     7
  5
178
 10
919347.392
 20
7263075.753
 30
0.0
 40
8.0
  1
R
 50
323.779181
  7
ROMANS
 72
     1
 11
919349.424999
 21
7263074.263935
 31
0.0
210
0.0
220
0.0
230
1.0
  0
TEXT
  8
11
  6
CONTINUOUS
 62
     7
  5
179
 10
919353.792
 20
7263071.351
 30
0.0
 40
8.0
  1
=
 50
326.942308
  7
ROMANS
 72
     1
 11
919356.58546
 21
7263069.532904
 31
0.0
210
0.0
220
0.0
230
1.0
  0
TEXT
  8
11
  6
CONTINUOUS
 62
     7
  5
17A
 10
919360.321
 20
7263067.136
 30
0.0
 40
8.0
  1
2
 50
330.105436
  7
ROMANS
 72
     1
 11
919362.34358
 21
7263065.97322
 31
0.0
210
0.0
220
0.0
230
1.0
  0
TEXT
  8
11
  6
CONTINUOUS
 62
     7
  5
17B
 10
919367.202
 20
7263063.179
 30
0.0
 40
8.0
  1
1
 50
330.105436
  7
ROMANS
 72
     1
 11
919368.357636
 21
7263062.514625
 31
0.0
210
0.0
220
0.0
230
1.0
  0
TEXT
  8
11
  6
CONTINUOUS
 62
     7
  5
17C
 10
919374.064
 20
7263059.538
 30
0.0
 40
8.0
  1
0
 50
333.268564
  7
ROMANS
 72
     1
 11
919376.431674
 21
7263058.345556
 31
0.0
210
0.0
220
0.0
230
1.0
  0
TEXT
  8
11
  6
CONTINUOUS
 62
     7
  5
17D
 10
919363.187
 20
7263140.922
 30
0.0
 40
8.0
  1
C
 50
315.208331
  7
ROMANS
 72
     1
 11
919364.975376
 21
7263139.146582
 31
0.0
210
0.0
220
0.0
230
1.0
  0
TEXT
  8
11
  6
CONTINUOUS
 62
     7
  5
17E
 10
919368.731
 20
7263135.523
 30
0.0
 40
8.0
  1
H
 50
318.951039
  7
ROMANS
 72
     1
 11
919370.490429
 21
7263133.99091
 31
0.0
210
0.0
220
0.0
230
1.0
  0
TEXT
  8
11
  6
CONTINUOUS
 62
     7
  5
17F
 10
919374.541
 20
7263130.403
 30
0.0
 40
8.0
  1
=
 50
322.69375
  7
ROMANS
 72
     1
 11
919377.192093
 21
7263128.382951
 31
0.0
210
0.0
220
0.0
230
1.0
  0
TEXT
  8
11
  6
CONTINUOUS
 62
     7
  5
180
 10
919380.853
 20
7263125.593
 30
0.0
 40
8.0
  1
2
 50
322.69375
  7
ROMANS
 72
     1
 11
919382.708685
 21
7263124.179027
 31
0.0
210
0.0
220
0.0
230
1.0
  0
TEXT
  8
11
  6
CONTINUOUS
 62
     7
  5
181
 10
919387.214
 20
7263121.188
 30
0.0
 40
8.0
  1
6
 50
326.436461
  7
ROMANS
 72
     1
 11
919389.313849
 21
7263119.794789
 31
0.0
210
0.0
220
0.0
230
1.0
  0
TEXT
  8
11
  6
CONTINUOUS
 62
     7
  5
182
 10
919393.785
 20
7263117.102
 30
0.0
 40
8.0
  1
7
 50
330.179172
  7
ROMANS
 72
     1
 11
919395.809075
 21
7263115.941824
 31
0.0
210
0.0
220
0.0
230
1.0
  0
TEXT
  8
11
  6
CONTINUOUS
 62
     7
  5
183
 10
919400.552
 20
7263113.349
 30
0.0
 40
8.0
  1
.
 50
333.921883
  7
ROMANS
 72
     1
 11
919401.739415
 21
7263112.767854
 31
0.0
210
0.0
220
0.0
230
1.0
  0
TEXT
  8
11
  6
CONTINUOUS
 62
     7
  5
184
 10
919407.499
 20
7263109.935
 30
0.0
 40
8.0
  1
3
 50
337.664594
  7
ROMANS
 72
     1
 11
919409.656967
 21
7263109.048395
 31
0.0
210
0.0
220
0.0
230
1.0
  0
TEXT
  8
11
  6
CONTINUOUS
 62
     7
  5
185
 10
919414.612
 20
7263106.866
 30
0.0
 40
8.0
  1
4
 50
341.407306
  7
ROMANS
 72
     1
 11
919416.823239
 21
7263106.12215
 31
0.0
210
0.0
220
0.0
230
1.0
  0
TEXT
  8
11
  6
CONTINUOUS
 62
     7
  5
186
 10
919255.496
 20
7263183.397
 30
0.0
 40
8.0
  1
C
 50
285.821644
  7
ROMANS
 72
     1
 11
919263.879983
 21
7263183.15362
 31
0.0
210
0.0
220
0.0
230
1.0
 73
     3
  0
TEXT
  8
11
  6
CONTINUOUS
 62
     7
  5
187
 10
919257.97
 20
7263175.223
 30
0.0
 40
8.0
  1
H
 50
288.984772
  7
ROMANS
 72
     1
 11
919266.29413
 21
7263175.618493
 31
0.0
210
0.0
220
0.0
230
1.0
 73
     3
  0
TEXT
  8
11
  6
CONTINUOUS
 62
     7
  5
188
 10
919260.704
 20
7263167.125
 30
0.0
 40
8.0
  1
=
 50
292.1479
  7
ROMANS
 72
     1
 11
919269.370247
 21
7263167.053919
 31
0.0
210
0.0
220
0.0
230
1.0
 73
     3
  0
TEXT
  8
11
  6
CONTINUOUS
 62
     7
  5
189
 10
919263.695
 20
7263159.775
 30
0.0
 40
8.0
  1
2
 50
292.1479
  7
ROMANS
 72
     1
 11
919271.984248
 21
7263160.630133
 31
0.0
210
0.0
220
0.0
230
1.0
 73
     3
  0
TEXT
  8
11
  6
CONTINUOUS
 62
     7
  5
18A
 10
919267.088
 20
7263151.935
 30
0.0
 40
8.0
  1
9
 50
295.311031
  7
ROMANS
 72
     1
 11
919275.317434
 21
7263153.246223
 31
0.0
210
0.0
220
0.0
230
1.0
 73
     3
  0
TEXT
  8
11
  6
CONTINUOUS
 62
     7
  5
18B
 10
919270.728
 20
7263144.204
 30
0.0
 40
8.0
  1
6
 50
298.474158
  7
ROMANS
 72
     1
 11
919278.961699
 21
7263145.802938
 31
0.0
210
0.0
220
0.0
230
1.0
 73
     3
  0
TEXT
  8
11
  6
CONTINUOUS
 62
     7
  5
18C
 10
919274.513
 20
7263137.226
 30
0.0
 40
8.0
  1
.
 50
298.474158
  7
ROMANS
 72
     1
 11
919282.175538
 21
7263139.878018
 31
0.0
210
0.0
220
0.0
230
1.0
 73
     3
  0
TEXT
  8
11
  6
CONTINUOUS
 62
     7
  5
18D
 10
919278.777
 20
7263129.828
 30
0.0
 40
8.0
  1
8
 50
301.637286
  7
ROMANS
 72
     1
 11
919286.811838
 21
7263132.038038
 31
0.0
210
0.0
220
0.0
230
1.0
 73
     3
  0
TEXT
  8
11
  6
CONTINUOUS
 62
     7
  5
18E
 10
919283.276
 20
7263122.564
 30
0.0
 40
8.0
  1
3
 50
304.800414
  7
ROMANS
 72
     1
 11
919291.176649
 21
7263125.214025
 31
0.0
210
0.0
220
0.0
230
1.0
 73
     3
  0
TEXT
  8
11
  6
CONTINUOUS
 62
     7
  5
18F
 10
919326.683
 20
7263074.083
 30
0.0
 40
8.0
  1
C
 50
320.616053
  7
ROMANS
 72
     1
 11
919333.706849
 21
7263078.667316
 31
0.0
210
0.0
220
0.0
230
1.0
 73
     3
  0
TEXT
  8
11
  6
CONTINUOUS
 62
     7
  5
190
 10
919333.322
 20
7263068.705
 30
0.0
 40
8.0
  1
H
 50
323.779181
  7
ROMANS
 72
     1
 11
919339.931328
 21
7263073.780398
 31
0.0
210
0.0
220
0.0
230
1.0
 73
     3
  0
TEXT
  8
11
  6
CONTINUOUS
 62
     7
  5
191
 10
919340.133
 20
7263063.537
 30
0.0
 40
8.0
  1
=
 50
326.942308
  7
ROMANS
 72
     1
 11
919347.290326
 21
7263068.423878
 31
0.0
210
0.0
220
0.0
230
1.0
 73
     3
  0
TEXT
  8
11
  6
CONTINUOUS
 62
     7
  5
192
 10
919346.785
 20
7263059.207
 30
0.0
 40
8.0
  1
7
 50
326.942308
  7
ROMANS
 72
     1
 11
919353.104204
 21
7263064.639362
 31
0.0
210
0.0
220
0.0
230
1.0
 73
     3
  0
TEXT
  8
11
  6
CONTINUOUS
 62
     7
  5
193
 10
919353.993
 20
7263054.623
 30
0.0
 40
8.0
  1
4
 50
330.105436
  7
ROMANS
 72
     1
 11
919360.002824
 21
7263060.395772
 31
0.0
210
0.0
220
0.0
230
1.0
 73
     3
  0
TEXT
  8
11
  6
CONTINUOUS
 62
     7
  5
194
 10
919360.874
 20
7263050.667
 30
0.0
 40
8.0
  1
.
 50
330.105436
  7
ROMANS
 72
     1
 11
919366.007344
 21
7263056.94366
 31
0.0
210
0.0
220
0.0
230
1.0
 73
     3
  0
TEXT
  8
11
  6
CONTINUOUS
 62
     7
  5
195
 10
919368.437
 20
7263046.698
 30
0.0
 40
8.0
  1
9
 50
333.268564
  7
ROMANS
 72
     1
 11
919374.119133
 21
7263052.793593
 31
0.0
210
0.0
220
0.0
230
1.0
 73
     3
  0
TEXT
  8
11
  6
CONTINUOUS
 62
     7
  5
196
 10
919376.121
 20
7263042.967
 30
0.0
 40
8.0
  1
5
 50
336.431692
  7
ROMANS
 72
     1
 11
919381.46821
 21
7263049.362442
 31
0.0
210
0.0
220
0.0
230
1.0
 73
     3
  0
TEXT
  8
11
  6
CONTINUOUS
 62
     7
  5
197
 10
919411.955
 20
7263030.214
 30
0.0
 40
8.0
  1
C
 50
345.921078
  7
ROMANS
 72
     1
 11
919416.345369
 21
7263037.360682
 31
0.0
210
0.0
220
0.0
230
1.0
 73
     3
  0
TEXT
  8
11
  6
CONTINUOUS
 62
     7
  5
198
 10
919420.245
 20
7263028.142
 30
0.0
 40
8.0
  1
H
 50
349.084206
  7
ROMANS
 72
     1
 11
919424.051699
 21
7263035.555272
 31
0.0
210
0.0
220
0.0
230
1.0
 73
     3
  0
TEXT
  8
11
  6
CONTINUOUS
 62
     7
  5
199
 10
919428.038
 20
7263026.639
 30
0.0
 40
8.0
  1
=
 50
349.084206
  7
ROMANS
 72
     1
 11
919432.825624
 21
7263033.863095
 31
0.0
210
0.0
220
0.0
230
1.0
 73
     3
  0
TEXT
  8
11
  6
CONTINUOUS
 62
     7
  5
19A
 10
919436.466
 20
7263025.26
 30
0.0
 40
8.0
  1
8
 50
352.247333
  7
ROMANS
 72
     1
 11
919439.856852
 21
7263032.872162
 31
0.0
210
0.0
220
0.0
230
1.0
 73
     3
  0
TEXT
  8
11
  6
CONTINUOUS
 62
     7
  5
19B
 10
919444.938
 20
7263024.148
 30
0.0
 40
8.0
  1
5
 50
355.410461
  7
ROMANS
 72
     1
 11
919447.914619
 21
7263031.934788
 31
0.0
210
0.0
220
0.0
230
1.0
 73
     3
  0
TEXT
  8
11
  6
CONTINUOUS
 62
     7
  5
19C
 10
919487.515
 20
7263023.876
 30
0.0
 40
8.0
  1
C
 50
4.899844
  7
ROMANS
 72
     1
 11
919489.342477
 21
7263032.062008
 31
0.0
210
0.0
220
0.0
230
1.0
 73
     3
  0
TEXT
  8
11
  6
CONTINUOUS
 62
     7
  5
19D
 10
919496.008
 20
7263024.777
 30
0.0
 40
8.0
  1
H
 50
8.062972
  7
ROMANS
 72
     1
 11
919497.195846
 21
7263033.025146
 31
0.0
210
0.0
220
0.0
230
1.0
 73
     3
  0
TEXT
  8
11
  6
CONTINUOUS
 62
     7
  5
19E
 10
919504.474
 20
7263025.949
 30
0.0
 40
8.0
  1
=
 50
11.2261
  7
ROMANS
 72
     1
 11
919506.185779
 21
7263034.444805
 31
0.0
210
0.0
220
0.0
230
1.0
 73
     3
  0
TEXT
  8
11
  6
CONTINUOUS
 62
     7
  5
19F
 10
919512.258
 20
7263027.493
 30
0.0
 40
8.0
  1
8
 50
11.2261
  7
ROMANS
 72
     1
 11
919512.988912
 21
7263035.794124
 31
0.0
210
0.0
220
0.0
230
1.0
 73
     3
  0
TEXT
  8
11
  6
CONTINUOUS
 62
     7
  5
1A0
 10
919520.592
 20
7263029.358
 30
0.0
 40
8.0
  1
8
 50
14.389228
  7
ROMANS
 72
     1
 11
919520.863751
 21
7263037.686808
 31
0.0
210
0.0
220
0.0
230
1.0
 73
     3
  0
TEXT
  8
11
  6
CONTINUOUS
 62
     7
  5
1A1
 10
919528.868
 20
7263031.487
 30
0.0
 40
8.0
  1
.
 50
17.552356
  7
ROMANS
 72
     1
 11
919527.715833
 21
7263039.513219
 31
0.0
210
0.0
220
0.0
230
1.0
 73
     3
  0
TEXT
  8
11
  6
CONTINUOUS
 62
     7
  5
1A2
 10
919536.435
 20
7263033.881
 30
0.0
 40
8.0
  1
9
 50
17.552356
  7
ROMANS
 72
     1
 11
919536.246762
 21
7263042.212114
 31
0.0
210
0.0
220
0.0
230
1.0
 73
     3
  0
TEXT
  8
11
  6
CONTINUOUS
 62
     7
  5
1A3
 10
919544.502
 20
7263036.686
 30
0.0
 40
8.0
  1
6
 50
20.715483
  7
ROMANS
 72
     1
 11
919544.029257
 21
7263045.060181
 31
0.0
210
0.0
220
0.0
230
1.0
 73
     3
  0
TEXT
  8
11
  6
CONTINUOUS
 62
     7
  5
1A4
 10
919784.29
 20
7263282.621
 30
0.0
 40
8.0
  1
807.75'
 50
34.442544
  7
ROMANS
 72
     1
 11
919805.181967
 21
7263296.948826
 31
0.0
210
0.0
220
0.0
230
1.0
  0
TEXT
  8
11
  6
CONTINUOUS
 62
     7
  5
1A5
 10
919360.103
 20
7263597.85
 30
0.0
 40
8.0
  1
60'
 50
88.363344
  7
ROMANS
210
0.0
220
0.0
230
1.0
  0
TEXT
  8
11
  6
CONTINUOUS
 62
     7
  5
1A6
 10
919349.71
 20
7263311.643
 30
0.0
 40
8.0
  1
20'
 50
88.363344
  7
ROMANS
210
0.0
220
0.0
230
1.0
  0
TEXT
  8
11
  6
CONTINUOUS
 62
     7
  5
1A7
 10
919279.77
 20
7263266.113
 30
0.0
 40
8.0
  1
60'
 50
358.363344
  7
ROMANS
210
0.0
220
0.0
230
1.0
  0
TEXT
  8
11
  6
CONTINUOUS
 62
     7
  5
1A8
 10
919580.549
 20
7263117.471
 30
0.0
 40
8.0
  1
60'
 50
297.864306
  7
ROMANS
210
0.0
220
0.0
230
1.0
  0
TEXT
  8
11
  6
CONTINUOUS
 62
     7
  5
1A9
 10
920207.498
 20
7263547.899
 30
0.0
 40
8.0
  1
60'
 50
297.864306
  7
ROMANS
210
0.0
220
0.0
230
1.0
  0
TEXT
  8
11
  6
CONTINUOUS
 62
     7
  5
1AA
 10
919642.135
 20
7262946.644
 30
0.0
 40
8.0
  1
300'
 50
304.442528
  7
ROMANS
 72
     1
 11
919649.675869
 21
7262935.648356
 31
0.0
210
0.0
220
0.0
230
1.0
  0
TEXT
  8
11
  6
CONTINUOUS
 62
     7
  5
1AB
 10
919661.946
 20
7263023.845
 30
0.0
 40
8.0
  1
298.27'
 50
304.44235
  7
ROMANS
 72
     1
 11
919676.274321
 21
7263002.95216
 31
0.0
210
0.0
220
0.0
230
1.0
  0
TEXT
  8
11
  6
CONTINUOUS
 62
     7
  5
1AC
 10
919723.673
 20
7263073.378
 30
0.0
 40
8.0
  1
298.32'
 50
304.44235
  7
ROMANS
 72
     1
 11
919738.001321
 21
7263052.48516
 31
0.0
210
0.0
220
0.0
230
1.0
  0
TEXT
  8
11
  6
CONTINUOUS
 62
     7
  5
1AD
 10
919916.67
 20
7263233.986
 30
0.0
 40
8.0
  1
298.46'
 50
304.44235
  7
ROMANS
 72
     1
 11
919930.998321
 21
7263213.09316
 31
0.0
210
0.0
220
0.0
230
1.0
  0
TEXT
  8
11
  6
CONTINUOUS
 62
     7
  5
1AE
 10
919955.7
 20
7263265.478
 30
0.0
 40
8.0
  1
298.49'
 50
304.44235
  7
ROMANS
 72
     1
 11
919970.028321
 21
7263244.58516
 31
0.0
210
0.0
220
0.0
230
1.0
  0
TEXT
  8
11
  6
CONTINUOUS
 62
     7
  5
1AF
 10
920005.819
 20
7263298.484
 30
0.0
 40
8.0
  1
298.53'
 50
304.442506
  7
ROMANS
 72
     1
 11
920020.146812
 21
7263277.592023
 31
0.0
210
0.0
220
0.0
230
1.0
  0
TEXT
  8
11
  6
CONTINUOUS
 62
     7
  5
1B0
 10
920051.824
 20
7263337.488
 30
0.0
 40
8.0
  1
298.56'
 50
304.442506
  7
ROMANS
 72
     1
 11
920066.151812
 21
7263316.596023
 31
0.0
210
0.0
220
0.0
230
1.0
  0
TEXT
  8
11
  6
CONTINUOUS
 62
     7
  5
1B1
 10
920348.035
 20
7263343.229
 30
0.0
 40
8.0
  1
324.30'
 50
88.363344
  7
ROMANS
 72
     4
 11
920344.760171
 21
7263368.66591
 31
0.0
210
0.0
220
0.0
230
1.0
  0
TEXT
  8
11
  6
CONTINUOUS
 62
     7
  5
1B2
 10
920309.716
 20
7263555.783
 30
0.0
 40
8.0
  1
13.53'
 50
2.568136
  7
ROMANS
 72
     1
 11
920331.028573
 21
7263556.738922
 31
0.0
210
0.0
220
0.0
230
1.0
  0
TEXT
  8
11
  6
CONTINUOUS
 62
     7
  5
1B3
 10
920270.335
 20
7263541.162
 30
0.0
 40
8.0
  1
R
 50
26.433678
  7
ROMANS
 72
     1
 11
920272.591535
 21
7263542.283807
 31
0.0
210
0.0
220
0.0
230
1.0
  0
TEXT
  8
11
  6
CONTINUOUS
 62
     7
  5
1B4
 10
920277.726
 20
7263544.552
 30
0.0
 40
8.0
  1
=
 50
22.690967
  7
ROMANS
 72
     1
 11
920280.801022
 21
7263545.83774
 31
0.0
210
0.0
220
0.0
230
1.0
  0
TEXT
  8
11
  6
CONTINUOUS
 62
     7
  5
1B5
 10
920285.276
 20
7263547.564
 30
0.0
 40
8.0
  1
1
 50
18.948256
  7
ROMANS
 72
     1
 11
920286.537713
 21
7263547.997169
 31
0.0
210
0.0
220
0.0
230
1.0
  0
TEXT
  8
11
  6
CONTINUOUS
 62
     7
  5
1B6
 10
920292.972
 20
7263550.193
 30
0.0
 40
8.0
  1
5
 50
15.205544
  7
ROMANS
 72
     1
 11
920295.233939
 21
7263550.80779
 31
0.0
210
0.0
220
0.0
230
1.0
  0
TEXT
  8
11
  6
CONTINUOUS
 62
     7
  5
1B7
 10
920300.795
 20
7263552.432
 30
0.0
 40
8.0
  1
0
 50
11.462833
  7
ROMANS
 72
     1
 11
920303.393123
 21
7263552.958839
 31
0.0
210
0.0
220
0.0
230
1.0
  0
TEXT
  8
11
  6
CONTINUOUS
 62
     7
  5
1B8
 10
920275.091
 20
7263527.893
 30
0.0
 40
8.0
  1
C
 50
26.433678
  7
ROMANS
 72
     1
 11
920273.786242
 21
7263536.178409
 31
0.0
210
0.0
220
0.0
230
1.0
 73
     3
  0
TEXT
  8
11
  6
CONTINUOUS
 62
     7
  5
1B9
 10
920281.605
 20
7263530.999
 30
0.0
 40
8.0
  1
H
 50
22.690967
  7
ROMANS
 72
     1
 11
920280.671339
 21
7263539.279771
 31
0.0
210
0.0
220
0.0
230
1.0
 73
     3
  0
TEXT
  8
11
  6
CONTINUOUS
 62
     7
  5
1BA
 10
920288.263
 20
7263533.787
 30
0.0
 40
8.0
  1
=
 50
18.948256
  7
ROMANS
 72
     1
 11
920288.817679
 21
7263542.43577
 31
0.0
210
0.0
220
0.0
230
1.0
 73
     3
  0
TEXT
  8
11
  6
CONTINUOUS
 62
     7
  5
1BB
 10
920295.052
 20
7263536.25
 30
0.0
 40
8.0
  1
9
 50
15.205544
  7
ROMANS
 72
     1
 11
920295.205064
 21
7263544.581834
 31
0.0
210
0.0
220
0.0
230
1.0
 73
     3
  0
TEXT
  8
11
  6
CONTINUOUS
 62
     7
  5
1BC
 10
920302.712
 20
7263538.333
 30
0.0
 40
8.0
  1
2
 50
15.205544
  7
ROMANS
 72
     1
 11
920302.865064
 21
7263546.664834
 31
0.0
210
0.0
220
0.0
230
1.0
 73
     3
  0
TEXT
  8
11
  6
CONTINUOUS
 62
     7
  5
1BD
 10
920309.741
 20
7263539.961
 30
0.0
 40
8.0
  1
.
 50
11.462833
  7
ROMANS
 72
     1
 11
920309.446773
 21
7263548.064155
 31
0.0
210
0.0
220
0.0
230
1.0
 73
     3
  0
TEXT
  8
11
  6
CONTINUOUS
 62
     7
  5
1BE
 10
920316.84
 20
7263541.245
 30
0.0
 40
8.0
  1
9
 50
7.720122
  7
ROMANS
 72
     1
 11
920318.07718
 21
7263549.48589
 31
0.0
210
0.0
220
0.0
230
1.0
 73
     3
  0
TEXT
  8
11
  6
CONTINUOUS
 62
     7
  5
1BF
 10
920208.681
 20
7263139.114
 30
0.0
 40
8.0
  1
60'
 50
34.408339
  7
ROMANS
 72
     1
 11
920216.381017
 21
7263144.387958
 31
0.0
210
0.0
220
0.0
230
1.0
  0
TEXT
  8
11
  6
CONTINUOUS
 62
     7
  5
1C0
 10
920159.193
 20
7263105.218
 30
0.0
 40
8.0
  1
60'
 50
34.408339
  7
ROMANS
 72
     1
 11
920166.893017
 21
7263110.491958
 31
0.0
210
0.0
220
0.0
230
1.0
  0
TEXT
  8
11
  6
CONTINUOUS
 62
     7
  5
1C1
 10
920106.389
 20
7263069.051
 30
0.0
 40
8.0
  1
60'
 50
34.408339
  7
ROMANS
 72
     1
 11
920114.089017
 21
7263074.324958
 31
0.0
210
0.0
220
0.0
230
1.0
  0
TEXT
  8
11
  6
CONTINUOUS
 62
     7
  5
1C2
 10
919742.503
 20
7262819.815
 30
0.0
 40
8.0
  1
60'
 50
34.408339
  7
ROMANS
 72
     1
 11
919750.203017
 21
7262825.088958
 31
0.0
210
0.0
220
0.0
230
1.0
  0
TEXT
  8
11
  6
CONTINUOUS
 62
     7
  5
1C3
 10
919794.704
 20
7262855.569
 30
0.0
 40
8.0
  1
78.92'
 50
34.408339
  7
ROMANS
 72
     1
 11
919812.304392
 21
7262867.624003
 31
0.0
210
0.0
220
0.0
230
1.0
  0
TEXT
  8
11
  6
CONTINUOUS
 62
     7
  5
1C4
 10
919632.731
 20
7263088.952
 30
0.0
 40
8.0
  1
78.92'
 50
34.442544
  7
ROMANS
 72
     1
 11
919645.799556
 21
7263107.615058
 31
0.0
210
0.0
220
0.0
230
1.0
 73
     3
  0
TEXT
  8
11
  6
CONTINUOUS
 62
     7
  5
1C5
 10
919948.655
 20
7263305.613
 30
0.0
 40
8.0
  1
60'
 50
34.442544
  7
ROMANS
 72
     1
 11
919951.827231
 21
7263317.489104
 31
0.0
210
0.0
220
0.0
230
1.0
 73
     3
  0
TEXT
  8
11
  6
CONTINUOUS
 62
     7
  5
1C6
 10
919997.717
 20
7263339.261
 30
0.0
 40
8.0
  1
60'
 50
34.442544
  7
ROMANS
 72
     1
 11
920000.889231
 21
7263351.137104
 31
0.0
210
0.0
220
0.0
230
1.0
 73
     3
  0
TEXT
  8
11
  6
CONTINUOUS
 62
     7
  5
1C7
 10
920048.074
 20
7263373.796
 30
0.0
 40
8.0
  1
60'
 50
34.442544
  7
ROMANS
 72
     1
 11
920051.246231
 21
7263385.672104
 31
0.0
210
0.0
220
0.0
230
1.0
 73
     3
  0
TEXT
  8
11
  6
CONTINUOUS
 62
     7
  5
1C8
 10
919904.035
 20
7263275.013
 30
0.0
 40
8.0
  1
50'
 50
34.442544
  7
ROMANS
 72
     1
 11
919907.207231
 21
7263286.889104
 31
0.0
210
0.0
220
0.0
230
1.0
 73
     3
  0
TEXT
  8
11
  6
CONTINUOUS
 62
     7
  5
1C9
 10
920062.563
 20
7263039.034
 30
0.0
 40
8.0
  1
50'
 50
34.408339
  7
ROMANS
 72
     1
 11
920070.263017
 21
7263044.307958
 31
0.0
210
0.0
220
0.0
230
1.0
  0
TEXT
  8
11
  6
CONTINUOUS
 62
     7
  5
1CA
 10
919944.702
 20
7262958.308
 30
0.0
 40
8.0
  1
250'
 50
34.408339
  7
ROMANS
 72
     1
 11
919955.702142
 21
7262965.842306
 31
0.0
210
0.0
220
0.0
230
1.0
  0
TEXT
  8
11
  6
CONTINUOUS
 62
     7
  5
1CB
 10
919785.983
 20
7263194.052
 30
0.0
 40
8.0
  1
250'
 50
34.442544
  7
ROMANS
 72
     1
 11
919792.454006
 21
7263208.190422
 31
0.0
210
0.0
220
0.0
230
1.0
 73
     3
  0
TEXT
  8
11
  6
CONTINUOUS
 62
     7
  5
1CC
 10
919581.32
 20
7263053.693
 30
0.0
 40
8.0
  1
32.76'
 50
34.442544
  7
ROMANS
 72
     1
 11
919594.388556
 21
7263072.356058
 31
0.0
210
0.0
220
0.0
230
1.0
 73
     3
  0
TEXT
  8
11
  6
CONTINUOUS
 62
     7
  5
1CD
 10
918355.857
 20
7262961.263
 30
0.0
 40
8.0
  1
1004.78'
 50
88.189844
  7
ROMANS
 72
     4
 11
918352.785565
 21
7262990.707714
 31
0.0
210
0.0
220
0.0
230
1.0
  0
TEXT
  8
11
  6
CONTINUOUS
 62
     7
  5
1CE
 10
918017.128
 20
7263261.849
 30
0.0
 40
8.0
  1
753.64'
 50
34.195369
  7
ROMANS
 72
     1
 11
918033.585451
 21
7263282.703573
 31
0.0
210
0.0
220
0.0
230
1.0
 73
     3
  0
TEXT
  8
11
  6
CONTINUOUS
 62
     7
  5
1CF
 10
918082.992
 20
7262509.891
 30
0.0
 40
8.0
  1
459.49'
 50
358.189844
  7
ROMANS
 72
     1
 11
918108.312358
 21
7262509.090783
 31
0.0
210
0.0
220
0.0
230
1.0
  0
TEXT
  8
11
  6
CONTINUOUS
 62
     7
  5
1D0
 10
917608.772
 20
7262525.498
 30
0.0
 40
8.0
  1
481.5'
 50
358.189844
  7
ROMANS
 72
     1
 11
917630.094354
 21
7262524.824135
 31
0.0
210
0.0
220
0.0
230
1.0
  0
TEXT
  8
11
  6
CONTINUOUS
 62
     7
  5
1D1
 10
917883.023
 20
7262645.659
 30
0.0
 40
8.0
  1
250'
 50
88.189844
  7
ROMANS
 72
     4
 11
917879.446158
 21
7262659.111698
 31
0.0
210
0.0
220
0.0
230
1.0
  0
TEXT
  8
11
  6
CONTINUOUS
 62
     7
  5
1D2
 10
917814.502
 20
7262987.722
 30
0.0
 40
8.0
  1
346.12'
 50
293.914839
  7
ROMANS
 72
     1
 11
917824.771855
 21
7262964.562949
 31
0.0
210
0.0
220
0.0
230
1.0
  0
TEXT
  8
11
  6
CONTINUOUS
 62
     7
  5
1D3
 10
917421.081
 20
7262674.7
 30
0.0
 40
8.0
  1
321.06'
 50
88.189844
  7
ROMANS
 72
     4
 11
917417.883213
 21
7262700.14671
 31
0.0
210
0.0
220
0.0
230
1.0
  0
TEXT
  8
11
  6
CONTINUOUS
 62
     7
  5
1D4
 10
917729.409
 20
7263069.61
 30
0.0
 40
8.0
  1
43.09'
 50
34.195369
  7
ROMANS
 72
     1
 11
917742.557947
 21
7263088.216507
 31
0.0
210
0.0
220
0.0
230
1.0
 73
     3
  0
TEXT
  8
11
  6
CONTINUOUS
 62
     7
  5
1D5
 10
917539.288
 20
7262926.302
 30
0.0
 40
8.0
  1
366.46'
 50
34.195411
  7
ROMANS
 72
     1
 11
917555.745435
 21
7262947.156585
 31
0.0
210
0.0
220
0.0
230
1.0
 73
     3
  0
TEXT
  8
11
  6
CONTINUOUS
 62
     7
  5
1D6
 10
917714.395
 20
7263068.095
 30
0.0
 40
8.0
  1
12.36
 50
88.189844
  7
ROMANS
 72
     4
 11
917710.982004
 21
7263086.73211
 31
0.0
210
0.0
220
0.0
230
1.0
  0
TEXT
  8
11
  6
CONTINUOUS
 62
     7
  5
1D7
 10
918128.673
 20
7263574.78
 30
0.0
 40
8.0
  1
100'
 50
303.414025
  7
ROMANS
 72
     4
 11
918139.354687
 21
7263565.852676
 31
0.0
210
0.0
220
0.0
230
1.0
  0
TEXT
  8
11
  6
CONTINUOUS
 62
     7
  5
1D8
 10
917612.806
 20
7263226.32
 30
0.0
 40
8.0
  1
100'
 50
303.414025
  7
ROMANS
 72
     4
 11
917623.487687
 21
7263217.392676
 31
0.0
210
0.0
220
0.0
230
1.0
  0
TEXT
  8
11
  6
CONTINUOUS
 62
     7
  5
1D9
 10
916499.278
 20
7262470.148
 30
0.0
 40
8.0
  1
100'
 50
303.414025
  7
ROMANS
 72
     4
 11
916509.959687
 21
7262461.220676
 31
0.0
210
0.0
220
0.0
230
1.0
  0
TEXT
  8
11
  6
CONTINUOUS
 62
     7
  5
1DA
 10
916112.086
 20
7262206.105
 30
0.0
 40
8.0
  1
100'
 50
303.414025
  7
ROMANS
 72
     4
 11
916122.767687
 21
7262197.177676
 31
0.0
210
0.0
220
0.0
230
1.0
  0
TEXT
  8
11
  6
CONTINUOUS
 62
     7
  5
1DB
 10
915446.038
 20
7261751.717
 30
0.0
 40
8.0
  1
100'
 50
303.414025
  7
ROMANS
 72
     4
 11
915456.719687
 21
7261742.789676
 31
0.0
210
0.0
220
0.0
230
1.0
  0
TEXT
  8
11
  6
CONTINUOUS
 62
     7
  5
1DC
 10
915503.997
 20
7261658.456
 30
0.0
 40
8.0
  1
120'
 50
303.414025
  7
ROMANS
 72
     4
 11
915514.678687
 21
7261649.528676
 31
0.0
210
0.0
220
0.0
230
1.0
  0
TEXT
  8
11
  6
CONTINUOUS
 62
     7
  5
1DD
 10
916486.894
 20
7262310.071
 30
0.0
 40
8.0
  1
120'
 50
303.414025
  7
ROMANS
 72
     4
 11
916497.575687
 21
7262301.143676
 31
0.0
210
0.0
220
0.0
230
1.0
  0
TEXT
  8
11
  6
CONTINUOUS
 62
     7
  5
1DE
 10
917588.669
 20
7263061.551
 30
0.0
 40
8.0
  1
120'
 50
303.414025
  7
ROMANS
 72
     4
 11
917599.350687
 21
7263052.623676
 31
0.0
210
0.0
220
0.0
230
1.0
  0
TEXT
  8
11
  6
CONTINUOUS
 62
     7
  5
1DF
 10
917744.436
 20
7263172.441
 30
0.0
 40
8.0
  1
110'
 50
303.414025
  7
ROMANS
 72
     4
 11
917755.117687
 21
7263163.513676
 31
0.0
210
0.0
220
0.0
230
1.0
  0
TEXT
  8
11
  6
CONTINUOUS
 62
     7
  5
1E0
 10
918335.93
 20
7263580.422
 30
0.0
 40
8.0
  1
110'
 50
303.414025
  7
ROMANS
 72
     4
 11
918346.611687
 21
7263571.494676
 31
0.0
210
0.0
220
0.0
230
1.0
  0
TEXT
  8
19
  6
CONTINUOUS
 62
     1
  5
1E3
 10
919286.137
 20
7263173.567
 30
0.0
 40
24.0
  1
HOMESTEAD
 50
88.363344
  7
ROMANC
 72
     4
 11
919277.528562
 21
7263292.43736
 31
0.0
210
0.0
220
0.0
230
1.0
  0
TEXT
  8
19
  6
CONTINUOUS
 62
     1
  5
1E4
 10
919329.583
 20
7263574.567
 30
0.0
 40
24.0
  1
49 TH
 50
358.363344
  7
ROMANC
 72
     4
 11
919390.843872
 21
7263584.821503
 31
0.0
210
0.0
220
0.0
230
1.0
  0
TEXT
  8
19
  6
CONTINUOUS
 62
     1
  5
1E5
 10
919667.724
 20
7263126.288
 30
0.0
 40
24.0
  1
50TH
 50
34.442544
  7
ROMANC
 72
     4
 11
919700.365654
 21
7263163.224682
 31
0.0
210
0.0
220
0.0
230
1.0
  0
TEXT
  8
19
  6
CONTINUOUS
 62
     1
  5
1E6
 10
920077.823
 20
7263407.537
 30
0.0
 40
24.0
  1
ST.
 50
34.442544
  7
ROMANC
 72
     4
 11
920092.464888
 21
7263432.129344
 31
0.0
210
0.0
220
0.0
230
1.0
  0
TEXT
  8
19
  6
CONTINUOUS
 62
     1
  5
1E7
 10
920337.998
 20
7261195.469
 30
0.0
 40
24.0
  1
57TH  ST
 50
358.363344
  7
ROMANC
 72
     4
 11
920441.096797
 21
7261204.528076
 31
0.0
210
0.0
220
0.0
230
1.0
  0
TEXT
  8
19
  6
CONTINUOUS
 62
     1
  5
1E8
 10
915954.191
 20
7260113.712
 30
0.0
 40
24.0
  1
SPUR 327
 50
358.189844
  7
ROMANC
 72
     4
 11
916054.579123
 21
7260122.545356
 31
0.0
210
0.0
220
0.0
230
1.0
  0
TEXT
  8
19
  6
CONTINUOUS
 62
     1
  5
1E9
 10
917914.192
 20
7260053.978
 30
0.0
 40
24.0
  1
SPUR 327
 50
358.189844
  7
ROMANC
 72
     4
 11
918014.580123
 21
7260062.811356
 31
0.0
210
0.0
220
0.0
230
1.0
  0
TEXT
  8
19
  6
CONTINUOUS
 62
     1
  5
1EA
 10
919891.204
 20
7259991.496
 30
0.0
 40
24.0
  1
SPUR 327
 50
358.189844
  7
ROMANC
 72
     4
 11
919991.592123
 21
7260000.329356
 31
0.0
210
0.0
220
0.0
230
1.0
  0
TEXT
  8
19
  6
CONTINUOUS
 62
     1
  5
1EB
 10
918918.303
 20
7258511.142
 30
0.0
 40
24.0
  1
HOMESTEAD   AVE
 50
88.142444
  7
ROMANC
 72
     4
 11
918912.817416
 21
7258712.20147
 31
0.0
210
0.0
220
0.0
230
1.0
  0
TEXT
  8
19
  6
CONTINUOUS
 62
     1
  5
1EC
 10
919867.873
 20
7258433.404
 30
0.0
 40
24.0
  1
GENOA       AVE 
 50
88.142444
  7
ROMANC
 72
     4
 11
919862.960088
 21
7258652.121186
 31
0.0
210
0.0
220
0.0
230
1.0
  0
TEXT
  8
11
  6
CONTINUOUS
 62
     7
  5
1ED
 10
919262.698
 20
7258793.91
 30
0.0
 40
8.0
  1
220'
 50
358.142444
  7
ROMANS
 72
     1
 11
919276.024993
 21
7258793.477781
 31
0.0
210
0.0
220
0.0
230
1.0
  0
TEXT
  8
11
  6
CONTINUOUS
 62
     7
  5
1EE
 10
919266.473
 20
7259006.096
 30
0.0
 40
8.0
  1
220'
 50
358.142444
  7
ROMANS
 72
     1
 11
919279.799993
 21
7259005.663781
 31
0.0
210
0.0
220
0.0
230
1.0
  0
TEXT
  8
11
  6
CONTINUOUS
 62
     7
  5
1EF
 10
919385.528
 20
7258895.119
 30
0.0
 40
8.0
  1
230'
 50
88.142444
  7
ROMANS
 72
     4
 11
919381.962321
 21
7258908.575652
 31
0.0
210
0.0
220
0.0
230
1.0
  0
TEXT
  8
11
  6
CONTINUOUS
 62
     7
  5
1F0
 10
920500.431
 20
7263565.362
 30
0.0
 40
8.0
  1
322.05'
 50
358.363344
  7
ROMANS
 72
     4
 11
920525.86791
 21
7263568.636829
 31
0.0
210
0.0
220
0.0
230
1.0
  0
LINE
  8
21
  6
DASHDOT
 62
     7
  5
1F2
 10
919088.664
 20
7263617.877
 30
0.0
 11
919072.25
 21
7263043.382
 31
0.0
  0
LINE
  8
21
  6
DASHDOT
 62
     7
  5
1F3
 10
919067.958
 20
7263593.458
 30
0.0
 11
919267.876
 21
7263587.746
 31
0.0
  0
LINE
  8
21
  6
DASHDOT
 62
     7
  5
1F4
 10
919067.387
 20
7263573.466
 30
0.0
 11
919267.305
 21
7263567.754
 31
0.0
  0
POLYLINE
  8
21
  6
DASHDOT
 62
     7
  5
1F5
 66
     1
 10
0.0
 20
0.0
 30
0.0
  0
VERTEX
  8
21
  6
DASHDOT
 62
     7
  5
1F6
 10
919080.667
 20
7263337.991
 30
0.0
  0
VERTEX
  8
21
  6
DASHDOT
 62
     7
  5
1F7
 10
919090.377
 20
7263327.709
 30
0.0
  0
VERTEX
  8
21
  6
DASHDOT
 62
     7
  5
1F8
 10
919260.307
 20
7263322.854
 30
0.0
  0
SEQEND
  8
21
  6
DASHDOT
 62
     7
  5
1F9
  0
POLYLINE
  8
21
  6
DASHDOT
 62
     7
  5
1FA
 66
     1
 10
0.0
 20
0.0
 30
0.0
  0
VERTEX
  8
21
  6
DASHDOT
 62
     7
  5
1FB
 10
919259.736
 20
7263302.861
 30
0.0
  0
VERTEX
  8
21
  6
DASHDOT
 62
     7
  5
1FC
 10
919089.806
 20
7263307.718
 30
0.0
  0
VERTEX
  8
21
  6
DASHDOT
 62
     7
  5
1FD
 10
919079.525
 20
7263298.007
 30
0.0
  0
SEQEND
  8
21
  6
DASHDOT
 62
     7
  5
1FE
  0
POLYLINE
  8
21
  6
DASHDOT
 62
     7
  5
1FF
 66
     1
 10
0.0
 20
0.0
 30
0.0
  0
VERTEX
  8
21
  6
DASHDOT
 62
     7
  5
200
 10
919087.243
 20
7263042.954
 30
0.0
  0
VERTEX
  8
21
  6
DASHDOT
 62
     7
  5
201
 10
919115.139
 20
7262793.816
 30
0.0
  0
VERTEX
  8
21
  6
DASHDOT
 62
     7
  5
202
 10
919686.453
 20
7262777.492
 30
0.0
  0
SEQEND
  8
21
  6
DASHDOT
 62
     7
  5
203
  0
LINE
  8
21
  6
DASHDOT
 62
     7
  5
204
 10
919306.06
 20
7262648.302
 30
0.0
 11
919318.804
 21
7263094.286
 31
0.0
  0
LINE
  8
21
  6
DASHDOT
 62
     7
  5
205
 10
919326.052
 20
7262647.732
 30
0.0
 11
919338.316
 21
7263076.919
 31
0.0
  0
LINE
  8
21
  6
DASHDOT
 62
     7
  5
206
 10
919732.566
 20
7262807.639
 30
0.0
 11
919686.453
 21
7262777.492
 31
0.0
  0
LINE
  8
21
  6
DASHDOT
 62
     7
  5
207
 10
919658.779
 20
7263118.42
 30
0.0
 11
919827.339
 21
7262872.635
 31
0.0
  0
LINE
  8
21
  6
DASHDOT
 62
     7
  5
208
 10
919695.065
 20
7263143.306
 30
0.0
 11
919863.625
 21
7262897.52
 31
0.0
  0
LINE
  8
21
  6
DASHDOT
 62
     7
  5
209
 10
919868.252
 20
7263262.076
 30
0.0
 11
920036.811
 21
7263016.291
 31
0.0
  0
LINE
  8
21
  6
DASHDOT
 62
     7
  5
20A
 10
919904.539
 20
7263286.963
 30
0.0
 11
920073.099
 21
7263041.177
 31
0.0
  0
ARC
  8
21
  6
DASHDOT
 62
     7
  5
20B
 10
920337.664025
 20
7263402.115724
 30
0.0
 40
130.0
 50
88.363344
 51
124.440683
210
0.0
220
0.0
230
1.0
  0
LINE
  8
21
  6
DASHDOT
 62
     7
  5
20C
 10
920341.377
 20
7263532.063
 30
0.0
 11
920354.287
 21
7263531.694
 31
0.0
  0
LINE
  8
21
  6
DASHDOT
 62
     7
  5
20D
 10
920264.142
 20
7263509.328
 30
0.0
 11
919597.997
 21
7263052.482
 31
0.0
  0
ARC
  8
21
  6
DASHDOT
 62
     7
  5
20E
 10
919467.910706
 20
7263242.16062
 30
0.0
 40
230.0
 50
268.602283
 51
304.442544
210
0.0
220
0.0
230
1.0
  0
LINE
  8
21
  6
DASHDOT
 62
     7
  5
20F
 10
919462.301
 20
7263012.229
 30
0.0
 11
919051.686
 21
7263023.962
 31
0.0
  0
LINE
  8
21
  6
DASHDOT
 62
     7
  5
210
 10
919762.224
 20
7263140.858
 30
0.0
 11
919749.853
 21
7263132.375
 31
0.0
  0
LINE
  8
21
  6
DASHDOT
 62
     7
  5
211
 10
919673.793
 20
7263601.157
 30
0.0
 11
919735.792
 21
7263510.757
 31
0.0
  0
LINE
  8
21
  6
DASHDOT
 62
     7
  5
212
 10
919747.104
 20
7263494.262
 30
0.0
 11
919860.221
 21
7263329.324
 31
0.0
  0
LINE
  8
21
  6
DASHDOT
 62
     7
  5
213
 10
919647.302
 20
7263604.422
 30
0.0
 11
919719.297
 21
7263499.444
 31
0.0
  0
LINE
  8
21
  6
DASHDOT
 62
     7
  5
214
 10
919730.609
 20
7263482.949
 30
0.0
 11
919843.726
 21
7263318.011
 31
0.0
  0
LINE
  8
21
  6
DASHDOT
 62
     7
  5
215
 10
919996.126
 20
7261184.944
 30
0.0
 11
920582.137
 21
7261168.199
 31
0.0
  0
POLYLINE
  8
21
  6
DASHDOT
 62
     7
  5
216
 66
     1
 10
0.0
 20
0.0
 30
0.0
  0
VERTEX
  8
21
  6
DASHDOT
 62
     7
  5
217
 10
919996.41
 20
7261194.939
 30
0.0
  0
VERTEX
  8
21
  6
DASHDOT
 62
     7
  5
218
 10
920296.289
 20
7261186.37
 30
0.0
  0
VERTEX
  8
21
  6
DASHDOT
 62
     7
  5
219
 10
920294.29
 20
7261116.4
 30
0.0
  0
VERTEX
  8
21
  6
DASHDOT
 62
     7
  5
21A
 10
920289.292
 20
7261116.543
 30
0.0
  0
VERTEX
  8
21
  6
DASHDOT
 62
     7
  5
21B
 10
920291.147
 20
7261181.516
 30
0.0
  0
VERTEX
  8
21
  6
DASHDOT
 62
     7
  5
21C
 10
919996.269
 20
7261189.941
 30
0.0
  0
VERTEX
  8
21
  6
DASHDOT
 62
     7
  5
21D
 10
919996.41
 20
7261194.939
 30
0.0
  0
SEQEND
  8
21
  6
DASHDOT
 62
     7
  5
21E
  0
LINE
  8
21
  6
DASHDOT
 62
     7
  5
21F
 10
919679.235
 20
7259866.293
 30
0.0
 11
920536.844
 21
7259838.478
 31
0.0
  0
LINE
  8
21
  6
DASHDOT
 62
     7
  5
220
 10
919672.589
 20
7259846.498
 30
0.0
 11
920542.193
 21
7259818.294
 31
0.0
  0
POLYLINE
  8
21
  6
DASHDOT
 62
     7
  5
221
 66
     1
 10
0.0
 20
0.0
 30
0.0
  0
VERTEX
  8
21
  6
DASHDOT
 62
     7
  5
222
 10
920276.507
 20
7259221.937
 30
0.0
  0
VERTEX
  8
21
  6
DASHDOT
 62
     7
  5
223
 10
920368.386
 20
7259445.06
 30
0.0
  0
VERTEX
  8
21
  6
DASHDOT
 62
     7
  5
224
 10
920533.129
 20
7259538.848
 30
0.0
  0
SEQEND
  8
21
  6
DASHDOT
 62
     7
  5
225
  0
LINE
  8
21
  6
DASHDOT
 62
     7
  5
226
 10
920276.507
 20
7259221.937
 30
0.0
 11
919655.675
 21
7259242.072
 31
0.0
  0
LINE
  8
21
  6
DASHDOT
 62
     7
  5
227
 10
920289.718
 20
7259201.498
 30
0.0
 11
919655.028
 21
7259222.081
 31
0.0
  0
POLYLINE
  8
21
  6
DASHDOT
 62
     7
  5
228
 66
     1
 10
0.0
 20
0.0
 30
0.0
  0
VERTEX
  8
21
  6
DASHDOT
 62
     7
  5
229
 10
920289.718
 20
7259201.498
 30
0.0
  0
VERTEX
  8
21
  6
DASHDOT
 62
     7
  5
22A
 10
920384.258
 20
7259431.083
 30
0.0
  0
VERTEX
  8
21
  6
DASHDOT
 62
     7
  5
22B
 10
920532.37
 20
7259515.4
 30
0.0
  0
SEQEND
  8
21
  6
DASHDOT
 62
     7
  5
22C
  0
LINE
  8
21
  6
DASHDOT
 62
     7
  5
22D
 10
919609.966
 20
7259868.736
 30
0.0
 11
918987.062
 21
7259888.938
 31
0.0
  0
LINE
  8
21
  6
DASHDOT
 62
     7
  5
22E
 10
919587.207
 20
7259074.468
 30
0.0
 11
919612.964
 21
7259868.639
 31
0.0
  0
LINE
  8
21
  6
DASHDOT
 62
     7
  5
22F
 10
919592.326
 20
7259849.297
 30
0.0
 11
918980.418
 21
7259869.143
 31
0.0
  0
LINE
  8
21
  6
DASHDOT
 62
     7
  5
230
 10
919567.023
 20
7259069.12
 30
0.0
 11
919592.326
 21
7259849.297
 31
0.0
  0
POLYLINE
  8
21
  6
DASHDOT
 62
     7
  5
231
 66
     1
 10
0.0
 20
0.0
 30
0.0
  0
VERTEX
  8
21
  6
DASHDOT
 62
     7
  5
232
 10
919179.997
 20
7259081.671
 30
0.0
  0
VERTEX
  8
21
  6
DASHDOT
 62
     7
  5
233
 10
919180.645
 20
7259101.661
 30
0.0
  0
VERTEX
  8
21
  6
DASHDOT
 62
     7
  5
234
 10
918955.764
 20
7259108.955
 30
0.0
  0
SEQEND
  8
21
  6
DASHDOT
 62
     7
  5
235
  0
LINE
  8
21
  6
DASHDOT
 62
     7
  5
236
 10
919429.262
 20
7259814.565
 30
0.0
 11
918985.118
 21
7259828.97
 31
0.0
  0
LINE
  8
21
  6
DASHDOT
 62
     7
  5
237
 10
919611.91
 20
7259743.608
 30
0.0
 11
919576.929
 21
7259744.742
 31
0.0
  0
LINE
  8
21
  6
DASHDOT
 62
     7
  5
238
 10
919576.929
 20
7259744.742
 30
0.0
 11
919456.047
 21
7259873.728
 31
0.0
  0
LINE
  8
21
  6
DASHDOT
 62
     7
  5
239
 10
919550.145
 20
7259685.579
 30
0.0
 11
919429.262
 21
7259814.565
 31
0.0
  0
LINE
  8
21
  6
DASHDOT
 62
     7
  5
23A
 10
919609.966
 20
7259683.64
 30
0.0
 11
919550.145
 21
7259685.579
 31
0.0
  0
LINE
  8
21
  6
DASHDOT
 62
     7
  5
23B
 10
918733.936
 20
7259827.439
 30
0.0
 11
918919.19
 21
7259832.264
 31
0.0
  0
POLYLINE
  8
21
  6
DASHDOT
 62
     7
  5
23C
 66
     1
 10
0.0
 20
0.0
 30
0.0
  0
VERTEX
  8
21
  6
DASHDOT
 62
     7
  5
23D
 10
918604.118
 20
7258390.976
 30
0.0
  0
VERTEX
  8
21
  6
DASHDOT
 62
     7
  5
23E
 10
918614.832
 20
7258721.303
 30
0.0
  0
VERTEX
  8
21
  6
DASHDOT
 62
     7
  5
23F
 10
918594.842
 20
7258721.95
 30
0.0
  0
VERTEX
  8
21
  6
DASHDOT
 62
     7
  5
240
 10
918594.648
 20
7258715.953
 30
0.0
  0
SEQEND
  8
21
  6
DASHDOT
 62
     7
  5
241
  0
POLYLINE
  8
21
  6
DASHDOT
 62
     7
  5
242
 66
     1
 10
0.0
 20
0.0
 30
0.0
  0
VERTEX
  8
21
  6
DASHDOT
 62
     7
  5
243
 10
919647.668
 20
7259006.473
 30
0.0
  0
VERTEX
  8
21
  6
DASHDOT
 62
     7
  5
244
 10
919647.02
 20
7258986.483
 30
0.0
  0
VERTEX
  8
21
  6
DASHDOT
 62
     7
  5
245
 10
919592.048
 20
7258988.266
 30
0.0
  0
SEQEND
  8
21
  6
DASHDOT
 62
     7
  5
246
  0
LINE
  8
21
  6
DASHDOT
 62
     7
  5
247
 10
919656.663
 20
7258821.084
 30
0.0
 11
919836.569
 21
7258815.249
 31
0.0
  0
LINE
  8
21
  6
DASHDOT
 62
     7
  5
248
 10
919648.429
 20
7258567.188
 30
0.0
 11
919828.334
 21
7258561.353
 31
0.0
  0
POLYLINE
  8
21
  6
DASHDOT
 62
     7
  5
249
 66
     1
 10
0.0
 20
0.0
 30
0.0
  0
VERTEX
  8
21
  6
DASHDOT
 62
     7
  5
24A
 10
919648.106
 20
7258557.193
 30
0.0
  0
VERTEX
  8
21
  6
DASHDOT
 62
     7
  5
24B
 10
919647.781
 20
7258547.198
 30
0.0
  0
VERTEX
  8
21
  6
DASHDOT
 62
     7
  5
24C
 10
919827.686
 20
7258541.363
 30
0.0
  0
SEQEND
  8
21
  6
DASHDOT
 62
     7
  5
24D
  0
LINE
  8
21
  6
DASHDOT
 62
     7
  5
24E
 10
920512.085
 20
7258818.354
 30
0.0
 11
919897.347
 21
7258838.292
 31
0.0
  0
LINE
  8
21
  6
DASHDOT
 62
     7
  5
24F
 10
920512.733
 20
7258838.344
 30
0.0
 11
919897.996
 21
7258858.281
 31
0.0
  0
LINE
  8
21
  6
DASHDOT
 62
     7
  5
250
 10
920502.489
 20
7258522.51
 30
0.0
 11
920317.586
 21
7258528.506
 31
0.0
  0
LINE
  8
21
  6
DASHDOT
 62
     7
  5
251
 10
920311.443
 20
7258338.559
 30
0.0
 11
920317.586
 21
7258528.506
 31
0.0
  0
POLYLINE
  8
21
  6
DASHDOT
 62
     7
  5
252
 66
     1
 10
0.0
 20
0.0
 30
0.0
  0
VERTEX
  8
21
  6
DASHDOT
 62
     7
  5
253
 10
920501.842
 20
7258502.52
 30
0.0
  0
VERTEX
  8
21
  6
DASHDOT
 62
     7
  5
254
 10
920346.923
 20
7258507.545
 30
0.0
  0
VERTEX
  8
21
  6
DASHDOT
 62
     7
  5
255
 10
920336.604
 20
7258497.874
 30
0.0
  0
VERTEX
  8
21
  6
DASHDOT
 62
     7
  5
256
 10
920331.462
 20
7258339.322
 30
0.0
  0
SEQEND
  8
21
  6
DASHDOT
 62
     7
  5
257
  0
LINE
  8
21
  6
DASHDOT
 62
     7
  5
258
 10
918907.569
 20
7259473.937
 30
0.0
 11
918914.464
 21
7259686.535
 31
0.0
  0
POLYLINE
  8
21
  6
DASHDOT
 62
     7
  5
259
 66
     1
 10
0.0
 20
0.0
 30
0.0
  0
VERTEX
  8
21
  6
DASHDOT
 62
     7
  5
25A
 10
918894.474
 20
7259687.184
 30
0.0
  0
VERTEX
  8
21
  6
DASHDOT
 62
     7
  5
25B
 10
918886.931
 20
7259454.595
 30
0.0
  0
VERTEX
  8
21
  6
DASHDOT
 62
     7
  5
25C
 10
918926.911
 20
7259453.299
 30
0.0
  0
VERTEX
  8
21
  6
DASHDOT
 62
     7
  5
25D
 10
918927.558
 20
7259473.288
 30
0.0
  0
VERTEX
  8
21
  6
DASHDOT
 62
     7
  5
25E
 10
918907.569
 20
7259473.937
 30
0.0
  0
SEQEND
  8
21
  6
DASHDOT
 62
     7
  5
25F
  0
LINE
  8
21
  6
DASHDOT
 62
     7
  5
260
 10
918934.406
 20
7259685.889
 30
0.0
 11
918913.977
 21
7259060.283
 31
0.0
  0
LINE
  8
21
  6
DASHDOT
 62
     7
  5
261
 10
919165.574
 20
7258796.99
 30
0.0
 11
919655.367
 21
7258781.105
 31
0.0
  0
LINE
  8
21
  6
DASHDOT
 62
     7
  5
262
 10
919385.297
 20
7258784.861
 30
0.0
 11
919655.205
 21
7258776.107
 31
0.0
  0
TEXT
  8
10
  6
CONTINUOUS
 62
   134
  5
263
 10
919470.182
 20
7258665.692
 30
0.0
 40
13.999
  1
7
 50
358.142444
  7
ROMANS
 11
919470.635775
 21
7258679.683644
 31
0.0
210
0.0
220
0.0
230
1.0
 73
     3
  0
TEXT
  8
11
  6
CONTINUOUS
 62
     7
  5
264
 10
919533.067
 20
7258363.456
 30
0.0
 40
8.0
  1
60'
 50
358.142444
  7
txt
 72
     4
 11
919542.607711
 21
7258367.14868
 31
0.0
210
0.0
220
0.0
230
1.0
  0
TEXT
  8
11
  6
CONTINUOUS
 62
     7
  5
265
 10
919397.098
 20
7258568.552
 30
0.0
 40
8.0
  1
210'
 50
358.142444
  7
txt
 72
     4
 11
919409.409254
 21
7258572.154827
 31
0.0
210
0.0
220
0.0
230
1.0
  0
TEXT
  8
11
  6
CONTINUOUS
 62
     7
  5
266
 10
919471.987
 20
7258770.768
 30
0.0
 40
8.0
  1
340'
 50
358.142444
  7
txt
 72
     4
 11
919485.90441
 21
7258774.318736
 31
0.0
210
0.0
220
0.0
230
1.0
  0
TEXT
  8
11
  6
CONTINUOUS
 62
     7
  5
267
 10
919322.357
 20
7258656.773
 30
0.0
 40
8.0
  1
219.03'
 50
88.142444
  7
ROMANS
 72
     4
 11
919319.180298
 21
7258682.223346
 31
0.0
210
0.0
220
0.0
230
1.0
  0
TEXT
  8
11
  6
CONTINUOUS
 62
     7
  5
268
 10
919646.834
 20
7258652.212
 30
0.0
 40
8.0
  1
219.03'
 50
88.142444
  7
txt
 72
     4
 11
919643.549681
 21
7258674.344091
 31
0.0
210
0.0
220
0.0
230
1.0
  0
TEXT
  8
11
  6
CONTINUOUS
 62
     7
  5
269
 10
919571.35
 20
7258440.547
 30
0.0
 40
8.0
  1
200.02'
 50
88.142444
  7
txt
 72
     4
 11
919568.115729
 21
7258464.222279
 31
0.0
210
0.0
220
0.0
230
1.0
  0
TEXT
  8
11
  6
CONTINUOUS
 62
     7
  5
26A
 10
919526.487
 20
7258440.681
 30
0.0
 40
8.0
  1
200.03'
 50
88.142444
  7
txt
 72
     4
 11
919523.252729
 21
7258464.356279
 31
0.0
210
0.0
220
0.0
230
1.0
  0
TEXT
  8
11
  6
CONTINUOUS
 62
     7
  5
26B
 10
919652.752
 20
7258793.969
 30
0.0
 40
8.0
  1
50'
 50
88.142444
  7
ROMANS
 72
     4
 11
919649.056662
 21
7258803.427754
 31
0.0
210
0.0
220
0.0
230
1.0
  0
TEXT
  8
11
  6
CONTINUOUS
 62
     7
  5
26C
 10
919612.415
 20
7258813.744
 30
0.0
 40
8.0
  1
70'
 50
358.142444
  7
ROMANS
 72
     4
 11
919621.873754
 21
7258817.439338
 31
0.0
210
0.0
220
0.0
230
1.0
  0
LINE
  8
21
  6
DASHDOT
 62
     7
  5
26D
 10
919648.106
 20
7258557.193
 30
0.0
 11
919308.284
 21
7258568.214
 31
0.0
  0
LINE
  8
21
  6
DASHDOT
 62
     7
  5
26E
 10
919188.134
 20
7258567.108
 30
0.0
 11
919647.943
 21
7258552.196
 31
0.0
  0
LINE
  8
21
  6
DASHDOT
 62
     7
  5
26F
 10
919647.943
 20
7258552.196
 30
0.0
 11
919648.106
 21
7258557.193
 31
0.0
  0
TEXT
  8
11
  6
CONTINUOUS
 62
     7
  5
270
 10
919046.708
 20
7258380.852
 30
0.0
 40
8.0
  1
235'
 50
358.142444
  7
ROMANS
 72
     4
 11
919060.164652
 21
7258384.417679
 31
0.0
210
0.0
220
0.0
230
1.0
  0
TEXT
  8
11
  6
CONTINUOUS
 62
     7
  5
271
 10
919047.74
 20
7258565.648
 30
0.0
 40
8.0
  1
250'
 50
358.142444
  7
ROMANS
 72
     4
 11
919061.196652
 21
7258569.213679
 31
0.0
210
0.0
220
0.0
230
1.0
  0
TEXT
  8
11
  6
CONTINUOUS
 62
     7
  5
272
 10
918948.676
 20
7258467.56
 30
0.0
 40
8.0
  1
185.07'
 50
88.142444
  7
ROMANS
 72
     4
 11
918945.499298
 21
7258493.010346
 31
0.0
210
0.0
220
0.0
230
1.0
  0
TEXT
  8
11
  6
CONTINUOUS
 62
     7
  5
273
 10
919180.32
 20
7258450.618
 30
0.0
 40
8.0
  1
200.05'
 50
88.142444
  7
ROMANS
 72
     4
 11
919177.143298
 21
7258476.068346
 31
0.0
210
0.0
220
0.0
230
1.0
  0
TEXT
  8
10
  6
CONTINUOUS
 62
   134
  5
274
 10
919048.982
 20
7258481.507
 30
0.0
 40
13.999
  1
11
 50
358.142444
  7
ROMANS
 72
     4
 11
919058.536
 21
7258488.200827
 31
0.0
210
0.0
220
0.0
230
1.0
  0
TEXT
  8
11
  6
CONTINUOUS
 62
     7
  5
275
 10
919707.671
 20
7258993.151
 30
0.0
 40
8.0
  1
235'
 50
358.142444
  7
txt
 72
     4
 11
919721.431492
 21
7258996.706825
 31
0.0
210
0.0
220
0.0
230
1.0
  0
TEXT
  8
10
  6
CONTINUOUS
 62
   134
  5
276
 10
919941.524
 20
7258940.003
 30
0.0
 40
13.999
  1
NOT
 50
358.142444
  7
ROMANS
 72
     4
 11
919960.406095
 21
7258946.3943
 31
0.0
210
0.0
220
0.0
230
1.0
  0
TEXT
  8
10
  6
CONTINUOUS
 62
   134
  5
277
 10
919952.411
 20
7258918.641
 30
0.0
 40
13.999
  1
 
 50
358.142444
  7
ROMANS
 72
     4
 11
919957.301452
 21
7258925.486074
 31
0.0
210
0.0
220
0.0
230
1.0
  0
TEXT
  8
10
  6
CONTINUOUS
 62
   134
  5
278
 10
919891.797
 20
7258899.598
 30
0.0
 40
13.999
  1
SUBDIVIDED
 50
358.142444
  7
ROMANS
 72
     4
 11
919959.438459
 21
7258904.407945
 31
0.0
210
0.0
220
0.0
230
1.0
  0
TEXT
  8
11
  6
CONTINUOUS
 62
     7
  5
279
 10
919820.665
 20
7258435.604
 30
0.0
 40
8.0
  1
185.00'
 50
88.142444
  7
txt
 72
     4
 11
919817.385803
 21
7258457.894008
 31
0.0
210
0.0
220
0.0
230
1.0
  0
TEXT
  8
11
  6
CONTINUOUS
 62
     7
  5
27A
 10
919156.074
 20
7258657.776
 30
0.0
 40
8.0
  1
219.03'
 50
88.142444
  7
ROMANS
 72
     4
 11
919152.897298
 21
7258683.226346
 31
0.0
210
0.0
220
0.0
230
1.0
  0
TEXT
  8
10
  6
CONTINUOUS
 62
   134
  5
27B
 10
919218.539
 20
7258675.687
 30
0.0
 40
13.999
  1
14
 50
358.142444
  7
ROMANS
 72
     4
 11
919229.84208
 21
7258682.324101
 31
0.0
210
0.0
220
0.0
230
1.0
  0
LINE
  8
21
  6
DASHDOT
 62
     7
  5
27C
 10
919315.06
 20
7258777.133
 30
0.0
 11
918945.204
 21
7258789.129
 31
0.0
  0
LINE
  8
21
  6
DASHDOT
 62
     7
  5
27D
 10
919185.565
 20
7258796.342
 30
0.0
 11
919192.857
 21
7259021.223
 31
0.0
  0
TEXT
  8
11
  6
CONTINUOUS
 62
     7
  5
27E
 10
919205.66
 20
7258575.686
 30
0.0
 40
8.0
  1
150.05'
 50
358.142444
  7
ROMANS
 72
     4
 11
919231.110346
 21
7258578.862702
 31
0.0
210
0.0
220
0.0
230
1.0
  0
TEXT
  8
11
  6
CONTINUOUS
 62
     7
  5
27F
 10
919326.094
 20
7258550.461
 30
0.0
 40
8.0
  1
330.05'
 50
358.142444
  7
ROMANS
 72
     4
 11
919351.544346
 21
7258553.637702
 31
0.0
210
0.0
220
0.0
230
1.0
  0
TEXT
  8
11
  6
CONTINUOUS
 62
     7
  5
280
 10
919327.674
 20
7258371.462
 30
0.0
 40
8.0
  1
330.05'
 50
358.142444
  7
ROMANS
 72
     4
 11
919353.124346
 21
7258374.638702
 31
0.0
210
0.0
220
0.0
230
1.0
  0
TEXT
  8
10
  6
CONTINUOUS
 62
   134
  5
281
 10
919333.226
 20
7258461.03
 30
0.0
 40
13.999
  1
13
 50
358.142444
  7
ROMANS
 11
919333.679775
 21
7258475.021644
 31
0.0
210
0.0
220
0.0
230
1.0
 73
     3
  0
TEXT
  8
11
  6
CONTINUOUS
 62
     7
  5
282
 10
920225.388
 20
7258618.509
 30
0.0
 40
8.0
  1
170'
 50
358.142444
  7
ROMANS
 72
     4
 11
920238.844652
 21
7258622.074679
 31
0.0
210
0.0
220
0.0
230
1.0
  0
TEXT
  8
11
  6
CONTINUOUS
 62
     7
  5
283
 10
920168.458
 20
7258555.78
 30
0.0
 40
8.0
  1
138'
 50
88.142444
  7
ROMANS
 72
     4
 11
920164.892321
 21
7258569.236652
 31
0.0
210
0.0
220
0.0
230
1.0
  0
TEXT
  8
11
  6
CONTINUOUS
 62
     7
  5
284
 10
920325.562
 20
7258552.441
 30
0.0
 40
8.0
  1
138'
 50
88.142444
  7
ROMANS
 72
     4
 11
920321.996321
 21
7258565.897652
 31
0.0
210
0.0
220
0.0
230
1.0
  0
TEXT
  8
10
  6
CONTINUOUS
 62
   134
  5
285
 10
920222.873
 20
7258558.489
 30
0.0
 40
13.999
  1
15
 50
358.142444
  7
ROMANS
 72
     4
 11
920234.19407
 21
7258565.125517
 31
0.0
210
0.0
220
0.0
230
1.0
  0
TEXT
  8
11
  6
CONTINUOUS
 62
     7
  5
286
 10
920451.918
 20
7262520.908
 30
0.0
 40
8.0
  1
311.62'
 50
358.363344
  7
ROMANS
 72
     4
 11
920477.35491
 21
7262524.182829
 31
0.0
210
0.0
220
0.0
230
1.0
  0
TEXT
  8
11
  6
CONTINUOUS
 62
     7
  5
287
 10
920449.528
 20
7262340.309
 30
0.0
 40
8.0
  1
311.70'
 50
358.363344
  7
ROMANS
 72
     4
 11
920474.96491
 21
7262343.583829
 31
0.0
210
0.0
220
0.0
230
1.0
  0
TEXT
  8
11
  6
CONTINUOUS
 62
     7
  5
288
 10
920334.409
 20
7262429.084
 30
0.0
 40
8.0
  1
198'
 50
88.363344
  7
ROMANS
 72
     4
 11
920330.791438
 21
7262442.525805
 31
0.0
210
0.0
220
0.0
230
1.0
  0
TEXT
  8
11
  6
CONTINUOUS
 62
     7
  5
289
 10
920629.594
 20
7262419.773
 30
0.0
 40
8.0
  1
198'
 50
88.363344
  7
ROMANS
 72
     4
 11
920625.976438
 21
7262433.214805
 31
0.0
210
0.0
220
0.0
230
1.0
  0
TEXT
  8
11
  6
CONTINUOUS
 62
     7
  5
28A
 10
919457.192
 20
7258789.251
 30
0.0
 40
8.0
  1
180.05'
 50
358.142444
  7
txt
 72
     4
 11
919479.482008
 21
7258792.530197
 31
0.0
210
0.0
220
0.0
230
1.0
  0
TEXT
  8
11
  6
CONTINUOUS
 62
     7
  5
28B
 10
919458.981
 20
7259001.062
 30
0.0
 40
8.0
  1
180.05'
 50
358.142444
  7
txt
 72
     4
 11
919481.271008
 21
7259004.341197
 31
0.0
210
0.0
220
0.0
230
1.0
  0
TEXT
  8
11
  6
CONTINUOUS
 62
     7
  5
28C
 10
919601.781
 20
7258785.001
 30
0.0
 40
8.0
  1
90'
 50
358.142444
  7
ROMANS
 72
     4
 11
919611.239754
 21
7258788.696338
 31
0.0
210
0.0
220
0.0
230
1.0
  0
TEXT
  8
11
  6
CONTINUOUS
 62
     7
  5
28D
 10
919575.376
 20
7258995.532
 30
0.0
 40
8.0
  1
20'
 50
358.142444
  7
ROMANS
 72
     4
 11
919584.834754
 21
7258999.227338
 31
0.0
210
0.0
220
0.0
230
1.0
  0
TEXT
  8
10
  6
CONTINUOUS
 62
   134
  5
28E
 10
919462.445
 20
7258894.832
 30
0.0
 40
13.999
  1
17
 50
358.142444
  7
ROMANS
 72
     4
 11
919473.74808
 21
7258901.469101
 31
0.0
210
0.0
220
0.0
230
1.0
  0
TEXT
  8
11
  6
CONTINUOUS
 62
     7
  5
28F
 10
919567.111
 20
7258886.597
 30
0.0
 40
8.0
  1
230'
 50
88.142444
  7
ROMANS
 72
     4
 11
919563.545321
 21
7258900.053652
 31
0.0
210
0.0
220
0.0
230
1.0
  0
TEXT
  8
10
  6
CONTINUOUS
 62
   134
  5
290
 10
919584.376
 20
7258855.205
 30
0.0
 40
13.999
  1
SUBDIVIDED
 50
88.142444
  7
ROMANS
 72
     4
 11
919579.566055
 21
7258922.846459
 31
0.0
210
0.0
220
0.0
230
1.0
  0
TEXT
  8
10
  6
CONTINUOUS
 62
   134
  5
291
 10
919583.416
 20
7258802.727
 30
0.0
 40
13.999
  1
NOT
 50
88.142444
  7
ROMANS
 72
     4
 11
919577.0247
 21
7258821.609095
 31
0.0
210
0.0
220
0.0
230
1.0
  0
TEXT
  8
11
  6
CONTINUOUS
 62
     7
  5
292
 10
918953.48
 20
7258666.804
 30
0.0
 40
8.0
  1
219.03'
 50
88.142444
  7
ROMANS
 72
     4
 11
918950.303298
 21
7258692.254346
 31
0.0
210
0.0
220
0.0
230
1.0
  0
TEXT
  8
11
  6
CONTINUOUS
 62
     7
  5
293
 10
919037.163
 20
7258585.019
 30
0.0
 40
8.0
  1
220'
 50
358.142444
  7
ROMANS
 72
     1
 11
919050.489993
 21
7258584.586781
 31
0.0
210
0.0
220
0.0
230
1.0
  0
TEXT
  8
10
  6
CONTINUOUS
 62
   134
  5
294
 10
919038.077
 20
7258682.244
 30
0.0
 40
13.999
  1
16
 50
358.142444
  7
ROMANS
 72
     4
 11
919049.707908
 21
7258688.870469
 31
0.0
210
0.0
220
0.0
230
1.0
  0
LINE
  8
21
  6
DASHDOT
 62
     7
  5
295
 10
918938.593
 20
7258585.287
 30
0.0
 11
919158.477
 21
7258578.155
 31
0.0
  0
LINE
  8
7
  6
CONTINUOUS
 62
     7
  5
297
 10
919041.168
 20
7262655.871
 30
0.0
 11
919852.547
 21
7262632.688
 31
0.0
  0
LINE
  8
7
  6
CONTINUOUS
 62
     7
  5
298
 10
919465.714
 20
7262643.741
 30
0.0
 11
919476.819
 21
7263032.373
 31
0.0
  0
TEXT
  8
11
  6
CONTINUOUS
 62
     7
  5
299
 10
919060.69
 20
7262809.87
 30
0.0
 40
8.0
  1
388.24'
 50
88.363344
  7
ROMANS
 72
     1
 11
919061.413539
 21
7262835.192665
 31
0.0
210
0.0
220
0.0
230
1.0
  0
LINE
  8
6
  6
CONTINUOUS
 62
     7
  5
29A
 10
920519.683
 20
7259134.796
 30
0.0
 11
920542.124
 21
7259823.619
 31
0.0
  0
ARC
  8
6
  6
CONTINUOUS
 62
     7
  5
29B
 10
920527.13243
 20
7259824.106811
 30
0.0
 40
15.0
 50
358.134806
 51
88.123347
210
0.0
220
0.0
230
1.0
  0
LINE
  8
6
  6
CONTINUOUS
 62
     7
  5
29C
 10
920527.624
 20
7259839.099
 30
0.0
 11
919688.015
 21
7259866.633
 31
0.0
  0
LINE
  8
7
  6
CONTINUOUS
 62
     7
  5
29D
 10
920212.644
 20
7258687.489
 30
0.0
 11
920217.529
 21
7258837.424
 31
0.0
  0
LINE
  8
6
  6
CONTINUOUS
 62
     7
  5
29E
 10
919907.734
 20
7258697.482
 30
0.0
 11
920492.495
 21
7258678.346
 31
0.0
  0
ARC
  8
6
  6
CONTINUOUS
 62
     7
  5
29F
 10
920492.985116
 20
7258693.338611
 30
0.0
 40
15.000001
 50
268.127167
 51
358.134806
210
0.0
220
0.0
230
1.0
  0
LINE
  8
6
  6
CONTINUOUS
 62
     7
  5
2A0
 10
920507.977
 20
7258692.851
 30
0.0
 11
920519.453
 21
7259045.123
 31
0.0
  0
ARC
  8
6
  6
CONTINUOUS
 62
     7
  5
2A1
 10
920504.461003
 20
7259045.611741
 30
0.0
 40
15.0
 50
358.134806
 51
88.142444
210
0.0
220
0.0
230
1.0
  0
LINE
  8
6
  6
CONTINUOUS
 62
     7
  5
2A2
 10
920504.948
 20
7259060.604
 30
0.0
 11
920448.477
 21
7259062.435
 31
0.0
  0
ARC
  8
6
  6
CONTINUOUS
 62
     7
  5
2A3
 10
920431.828699
 20
7258549.175225
 30
0.0
 40
513.53
 50
88.142192
 51
110.142317
210
0.0
220
0.0
230
1.0
  0
ARC
  8
6
  6
CONTINUOUS
 62
     7
  5
2A4
 10
920490.181453
 20
7258607.384322
 30
0.0
 40
15.000001
 50
358.134808
 51
88.127167
210
0.0
220
0.0
230
1.0
  0
ARC
  8
6
  6
CONTINUOUS
 62
     7
  5
2A5
 10
919827.025247
 20
7258985.306983
 30
0.0
 40
15.000001
 50
358.142444
 51
88.123347
210
0.0
220
0.0
230
1.0
  0
LINE
  8
6
  6
CONTINUOUS
 62
     7
  5
2A6
 10
919842.018
 20
7258984.821
 30
0.0
 11
919821.952
 21
7258366.115
 31
0.0
  0
ARC
  8
6
  6
CONTINUOUS
 62
     7
  5
2A7
 10
918880.389173
 20
7259106.559702
 30
0.0
 40
15.000001
 50
268.157722
 51
358.157719
210
0.0
220
0.0
230
1.0
  0
LINE
  8
6
  6
CONTINUOUS
 62
     7
  5
2A8
 10
919041.168
 20
7262655.871
 30
0.0
 11
919067.906
 21
7263618.654
 31
0.0
  0
LINE
  8
7
  6
CONTINUOUS
 62
     7
  5
2A9
 10
919051.946
 20
7263043.963
 30
0.0
 11
919302.674
 21
7263036.798
 31
0.0
  0
LINE
  8
6
  6
CONTINUOUS
 62
     7
  5
2AA
 10
919852.547
 20
7262632.688
 30
0.0
 11
919732.566
 21
7262807.639
 31
0.0
  0
LINE
  8
7
  6
CONTINUOUS
 62
     7
  5
2AB
 10
919732.566
 20
7262807.639
 30
0.0
 11
919562.892
 21
7263055.048
 31
0.0
  0
LINE
  8
7
  6
CONTINUOUS
 62
     7
  5
2AC
 10
919302.674
 20
7263036.798
 30
0.0
 11
919328.778
 21
7263084.605
 31
0.0
  0
LINE
  8
7
  6
CONTINUOUS
 62
     7
  5
2AD
 10
919251.082
 20
7262649.874
 30
0.0
 11
919255.082
 21
7262789.817
 31
0.0
  0
LINE
  8
7
  6
CONTINUOUS
 62
     7
  5
2AE
 10
919255.082
 20
7262789.817
 30
0.0
 11
919392.955
 21
7263045.888
 31
0.0
  0
LINE
  8
6
  6
CONTINUOUS
 62
     7
  5
2AF
 10
919257.624
 20
7263245.645
 30
0.0
 11
919267.829
 21
7263613.101
 31
0.0
  0
ARC
  8
6
  6
CONTINUOUS
 62
     7
  5
2B0
 10
919467.595498
 20
7263242.180405
 30
0.0
 40
210.0
 50
179.0547
 51
304.443514
210
0.0
220
0.0
230
1.0
  0
LINE
  8
6
  6
CONTINUOUS
 62
     7
  5
2B1
 10
919586.37
 20
7263068.997
 30
0.0
 11
920252.516
 21
7263525.843
 31
0.0
  0
LINE
  8
6
  6
CONTINUOUS
 62
     7
  5
2B2
 10
919732.566
 20
7262807.639
 30
0.0
 11
920345.597
 21
7263227.521
 31
0.0
  0
LINE
  8
7
  6
CONTINUOUS
 62
     7
  5
2B3
 10
919782.066
 20
7262841.544
 30
0.0
 11
919613.378
 21
7263087.518
 31
0.0
  0
LINE
  8
7
  6
CONTINUOUS
 62
     7
  5
2B4
 10
919847.178
 20
7262886.14
 30
0.0
 11
919678.463
 21
7263132.153
 31
0.0
  0
LINE
  8
7
  6
CONTINUOUS
 62
     7
  5
2B5
 10
920053.436
 20
7263027.411
 30
0.0
 11
919884.636
 21
7263273.548
 31
0.0
  0
LINE
  8
7
  6
CONTINUOUS
 62
     7
  5
2B6
 10
920094.687
 20
7263055.666
 30
0.0
 11
919925.869
 21
7263301.826
 31
0.0
  0
LINE
  8
7
  6
CONTINUOUS
 62
     7
  5
2B7
 10
920144.19
 20
7263089.57
 30
0.0
 11
919975.351
 21
7263335.761
 31
0.0
  0
LINE
  8
7
  6
CONTINUOUS
 62
     7
  5
2B8
 10
920193.69
 20
7263123.477
 30
0.0
 11
920024.833
 21
7263369.696
 31
0.0
  0
LINE
  8
7
  6
CONTINUOUS
 62
     7
  5
2B9
 10
920243.193
 20
7263157.382
 30
0.0
 11
920074.316
 21
7263403.63
 31
0.0
  0
LINE
  8
6
  6
CONTINUOUS
 62
     7
  5
2BA
 10
920355.142
 20
7263551.68
 30
0.0
 11
920341.617
 21
7263552.066
 31
0.0
  0
ARC
  8
6
  6
CONTINUOUS
 62
     7
  5
2BB
 10
920337.495335
 20
7263401.593434
 30
0.0
 40
150.53
 50
88.430828
 51
124.369453
210
0.0
220
0.0
230
1.0
  0
LINE
  8
6
  6
CONTINUOUS
 62
     7
  5
2BC
 10
919552.436
 20
7263118.479
 30
0.0
 11
920218.582
 21
7263575.324
 31
0.0
  0
ARC
  8
6
  6
CONTINUOUS
 62
     7
  5
2BD
 10
919467.595498
 20
7263242.180405
 30
0.0
 40
150.0
 50
179.0547
 51
304.443514
210
0.0
220
0.0
230
1.0
  0
ARC
  8
6
  6
CONTINUOUS
 62
     7
  5
2BE
 10
920337.495335
 20
7263401.593434
 30
0.0
 40
210.53
 50
119.230211
 51
124.369453
210
0.0
220
0.0
230
1.0
  0
LINE
  8
6
  6
CONTINUOUS
 62
     7
  5
2BF
 10
919465.664
 20
7263301.484
 30
0.0
 11
919887.097
 21
7263590.505
 31
0.0
  0
LINE
  8
6
  6
CONTINUOUS
 62
     7
  5
2C0
 10
919459.725
 20
7263321.662
 30
0.0
 11
919853.153
 21
7263591.475
 31
0.0
  0
LINE
  8
6
  6
CONTINUOUS
 62
     7
  5
2C1
 10
919317.602
 20
7263243.979
 30
0.0
 11
919319.315
 21
7263305.666
 31
0.0
  0
LINE
  8
6
  6
CONTINUOUS
 62
     7
  5
2C2
 10
919319.87
 20
7263325.658
 30
0.0
 11
919326.254
 21
7263555.569
 31
0.0
  0
LINE
  8
6
  6
CONTINUOUS
 62
     7
  5
2C3
 10
919319.315
 20
7263305.666
 30
0.0
 11
919465.664
 21
7263301.484
 31
0.0
  0
LINE
  8
6
  6
CONTINUOUS
 62
     7
  5
2C4
 10
919319.87
 20
7263325.658
 30
0.0
 11
919459.725
 21
7263321.662
 31
0.0
  0
ARC
  8
6
  6
CONTINUOUS
 62
     7
  5
2C5
 10
919341.248452
 20
7263555.152925
 30
0.0
 40
15.0
 50
88.363344
 51
178.409181
210
0.0
220
0.0
230
1.0
  0
LINE
  8
6
  6
CONTINUOUS
 62
     7
  5
2C6
 10
919341.677
 20
7263570.147
 30
0.0
 11
919394.995
 21
7263568.624
 31
0.0
  0
ARC
  8
6
  6
CONTINUOUS
 62
     7
  5
2C7
 10
919400.992886
 20
7263778.537686
 30
0.0
 40
210.0
 50
268.363344
 51
304.539622
210
0.0
220
0.0
230
1.0
  0
LINE
  8
6
  6
CONTINUOUS
 62
     7
  5
2C8
 10
920318.233
 20
7262339.73
 30
0.0
 11
920628.195
 21
7262330.444
 31
0.0
  0
LINE
  8
6
  6
CONTINUOUS
 62
     7
  5
2C9
 10
920599.968
 20
7261193.372
 30
0.0
 11
918994.899
 21
7261241.461
 31
0.0
  0
LINE
  8
6
  6
CONTINUOUS
 62
     7
  5
2CA
 10
918994.899
 20
7261241.461
 30
0.0
 11
919041.168
 21
7262655.871
 31
0.0
  0
LINE
  8
6
  6
CONTINUOUS
 62
     7
  5
2CB
 10
920517.183
 20
7260117.613
 30
0.0
 11
920151.1
 21
7260128.735
 31
0.0
  0
LINE
  8
6
  6
CONTINUOUS
 62
     7
  5
2CC
 10
920151.1
 20
7260128.735
 30
0.0
 11
920163.277
 21
7260528.549
 31
0.0
  0
LINE
  8
6
  6
CONTINUOUS
 62
     7
  5
2CD
 10
920163.277
 20
7260528.549
 30
0.0
 11
920003.35
 21
7260533.407
 31
0.0
  0
LINE
  8
6
  6
CONTINUOUS
 62
     7
  5
2CE
 10
920019.106
 20
7261050.737
 30
0.0
 11
920309.972
 21
7261041.901
 31
0.0
  0
LINE
  8
6
  6
CONTINUOUS
 62
     7
  5
2CF
 10
920309.972
 20
7261041.901
 30
0.0
 11
920307.994
 21
7260976.932
 31
0.0
  0
LINE
  8
6
  6
CONTINUOUS
 62
     7
  5
2D0
 10
920307.994
 20
7260976.932
 30
0.0
 11
920593.112
 21
7260968.269
 31
0.0
  0
LINE
  8
6
  6
CONTINUOUS
 62
     7
  5
2D1
 10
920583.117
 20
7260968.573
 30
0.0
 11
920570.495
 21
7260554.199
 31
0.0
  0
LINE
  8
6
  6
CONTINUOUS
 62
     7
  5
2D2
 10
920554.412
 20
7260354.591
 30
0.0
 11
920548.08
 21
7260146.686
 31
0.0
  0
ARC
  8
6
  6
CONTINUOUS
 62
     7
  5
2D3
 10
920518.094288
 20
7260147.599591
 30
0.0
 40
30.0
 50
268.259994
 51
358.25555
210
0.0
220
0.0
230
1.0
  0
LINE
  8
7
  6
CONTINUOUS
 62
     7
  5
2D4
 10
920575.452
 20
7260716.953
 30
0.0
 11
920009.464
 21
7260734.147
 31
0.0
  0
LINE
  8
6
  6
CONTINUOUS
 62
     7
  5
2D5
 10
920554.412
 20
7260354.591
 30
0.0
 11
920570.495
 21
7260554.199
 31
0.0
  0
LINE
  8
6
  6
CONTINUOUS
 62
     7
  5
2D6
 10
920599.968
 20
7261193.372
 30
0.0
 11
920593.112
 21
7260968.269
 31
0.0
  0
LINE
  8
7
  6
CONTINUOUS
 62
     7
  5
2D7
 10
920017.635
 20
7258843.964
 30
0.0
 11
920512.373
 21
7258827.777
 31
0.0
  0
LINE
  8
7
  6
CONTINUOUS
 62
     7
  5
2D8
 10
920317.589
 20
7258684.07
 30
0.0
 11
920329.589
 21
7259052.424
 31
0.0
  0
TEXT
  8
10
  6
CONTINUOUS
 62
   134
  5
2D9
 10
920259.244
 20
7258761.154
 30
0.0
 40
13.999
  1
10
 50
358.142444
  7
ROMANS
 11
920259.697775
 21
7258775.145644
 31
0.0
210
0.0
220
0.0
230
1.0
 73
     3
  0
TEXT
  8
11
  6
CONTINUOUS
 62
     7
  5
2DA
 10
920256.589
 20
7258689.569
 30
0.0
 40
8.0
  1
105'
 50
358.142444
  7
ROMANS
 72
     1
 11
920269.915993
 21
7258689.136781
 31
0.0
210
0.0
220
0.0
230
1.0
  0
TEXT
  8
11
  6
CONTINUOUS
 62
     7
  5
2DB
 10
920229.532
 20
7258754.491
 30
0.0
 40
8.0
  1
150'
 50
88.142444
  7
ROMANS
 72
     4
 11
920225.966321
 21
7258767.947652
 31
0.0
210
0.0
220
0.0
230
1.0
  0
TEXT
  8
11
  6
CONTINUOUS
 62
     7
  5
2DC
 10
920260.994
 20
7258825.387
 30
0.0
 40
8.0
  1
105'
 50
358.142444
  7
ROMANS
 72
     1
 11
920274.320993
 21
7258824.954781
 31
0.0
210
0.0
220
0.0
230
1.0
  0
LINE
  8
7
  6
CONTINUOUS
 62
     7
  5
2DD
 10
919836.663
 20
7258819.902
 30
0.0
 11
919586.798
 21
7258828.097
 31
0.0
  0
LINE
  8
7
  6
CONTINUOUS
 62
     7
  5
2DE
 10
919586.798
 20
7258828.097
 30
0.0
 11
919592.633
 21
7259008.002
 31
0.0
  0
LINE
  8
6
  6
CONTINUOUS
 62
     7
  5
2DF
 10
918967.929
 20
7259028.488
 30
0.0
 11
919827.516
 21
7259000.3
 31
0.0
  0
LINE
  8
6
  6
CONTINUOUS
 62
     7
  5
2E0
 10
919901.984
 20
7258982.819
 30
0.0
 11
919893.233
 21
7258712.961
 31
0.0
  0
ARC
  8
6
  6
CONTINUOUS
 62
     7
  5
2E1
 10
919908.224114
 20
7258712.474567
 30
0.0
 40
15.0
 50
178.142444
 51
268.125697
210
0.0
220
0.0
230
1.0
  0
LINE
  8
6
  6
CONTINUOUS
 62
     7
  5
2E2
 10
919917.466
 20
7258997.325
 30
0.0
 11
920022.4
 21
7258993.89
 31
0.0
  0
ARC
  8
6
  6
CONTINUOUS
 62
     7
  5
2E3
 10
919916.976105
 20
7258982.332706
 30
0.0
 40
15.0
 50
88.125697
 51
178.142444
210
0.0
220
0.0
230
1.0
  0
ARC
  8
6
  6
CONTINUOUS
 62
     7
  5
2E4
 10
920042.567531
 20
7259610.310639
 30
0.0
 40
616.75
 50
268.126125
 51
290.146825
210
0.0
220
0.0
230
1.0
  0
LINE
  8
7
  6
CONTINUOUS
 62
     7
  5
2E5
 10
919656.765
 20
7258825.802
 30
0.0
 11
919648.043
 21
7258556.844
 31
0.0
  0
LINE
  8
6
  6
CONTINUOUS
 62
     7
  5
2E6
 10
919806.468
 20
7258351.61
 30
0.0
 11
918946.88
 21
7258379.8
 31
0.0
  0
ARC
  8
6
  6
CONTINUOUS
 62
     7
  5
2E7
 10
919806.959504
 20
7258366.601639
 30
0.0
 40
15.0
 50
268.121742
 51
358.142444
210
0.0
220
0.0
230
1.0
  0
LINE
  8
7
  6
CONTINUOUS
 62
     7
  5
2E8
 10
919578.082
 20
7258559.207
 30
0.0
 11
919571.599
 21
7258359.311
 31
0.0
  0
LINE
  8
7
  6
CONTINUOUS
 62
     7
  5
2E9
 10
919315.328
 20
7258786.97
 30
0.0
 11
919308.228
 21
7258568.056
 31
0.0
  0
LINE
  8
7
  6
CONTINUOUS
 62
     7
  5
2EA
 10
919518.115
 20
7258561.173
 30
0.0
 11
919511.632
 21
7258361.279
 31
0.0
  0
LINE
  8
7
  6
CONTINUOUS
 62
     7
  5
2EB
 10
919655.145
 20
7258775.828
 30
0.0
 11
918945.476
 21
7258799.099
 31
0.0
  0
LINE
  8
7
  6
CONTINUOUS
 62
     7
  5
2EC
 10
919827.845
 20
7258551.016
 30
0.0
 11
919578.082
 21
7258559.207
 31
0.0
  0
LINE
  8
7
  6
CONTINUOUS
 62
     7
  5
2ED
 10
919518.115
 20
7258561.173
 30
0.0
 11
918938.377
 21
7258580.183
 31
0.0
  0
LINE
  8
6
  6
CONTINUOUS
 62
     7
  5
2EE
 10
918952.445
 20
7259013.983
 30
0.0
 11
918932.379
 21
7258395.278
 31
0.0
  0
ARC
  8
6
  6
CONTINUOUS
 62
     7
  5
2EF
 10
918947.371571
 20
7258394.791797
 30
0.0
 40
15.0
 50
178.142444
 51
268.121636
210
0.0
220
0.0
230
1.0
  0
LINE
  8
7
  6
CONTINUOUS
 62
     7
  5
2F0
 10
919165.357
 20
7258791.834
 30
0.0
 11
919158.256
 21
7258572.919
 31
0.0
  0
ARC
  8
6
  6
CONTINUOUS
 62
     7
  5
2F1
 10
918967.437284
 20
7259013.496222
 30
0.0
 40
15.0
 50
88.121722
 51
178.142444
210
0.0
220
0.0
230
1.0
  0
LINE
  8
7
  6
CONTINUOUS
 62
     7
  5
2F2
 10
919172.813
 20
7259021.769
 30
0.0
 11
919165.358
 21
7258791.888
 31
0.0
  0
LINE
  8
7
  6
CONTINUOUS
 62
     7
  5
2F3
 10
919392.695
 20
7259014.558
 30
0.0
 11
919385.24
 21
7258784.678
 31
0.0
  0
LINE
  8
7
  6
CONTINUOUS
 62
     7
  5
2F4
 10
919572.649
 20
7259008.656
 30
0.0
 11
919565.193
 21
7258778.778
 31
0.0
  0
LINE
  8
6
  6
CONTINUOUS
 62
     7
  5
2F5
 10
918895.382
 20
7259106.078
 30
0.0
 11
918920.29
 21
7259874.13
 31
0.0
  0
LINE
  8
6
  6
CONTINUOUS
 62
     7
  5
2F6
 10
918878.945
 20
7259061.423
 30
0.0
 11
918606.093
 21
7259070.352
 31
0.0
  0
LINE
  8
6
  6
CONTINUOUS
 62
     7
  5
2F7
 10
918027.774
 20
7259118.957
 30
0.0
 11
918879.907
 21
7259091.568
 31
0.0
  0
LINE
  8
6
  6
CONTINUOUS
 62
     7
  5
2F8
 10
918877.972
 20
7259031.405
 30
0.0
 11
918878.945
 21
7259061.423
 31
0.0
  0
ARC
  8
6
  6
CONTINUOUS
 62
     7
  5
2F9
 10
918905.298676
 20
7259874.617124
 30
0.0
 40
15.0
 50
358.142444
 51
91.492392
210
0.0
220
0.0
230
1.0
  0
LINE
  8
6
  6
CONTINUOUS
 62
     7
  5
2FA
 10
918914.133
 20
7259684.256
 30
0.0
 11
918729.316
 21
7259690.304
 31
0.0
  0
LINE
  8
6
  6
CONTINUOUS
 62
     7
  5
2FB
 10
918729.316
 20
7259690.304
 30
0.0
 11
918735.637
 21
7259885.202
 31
0.0
  0
LINE
  8
6
  6
CONTINUOUS
 62
     7
  5
2FC
 10
918735.637
 20
7259885.202
 30
0.0
 11
918904.908
 21
7259889.612
 31
0.0
  0
LINE
  8
6
  6
CONTINUOUS
 62
     7
  5
2FD
 10
920505.173
 20
7258606.896
 30
0.0
 11
920497.365
 21
7258367.027
 31
0.0
  0
LINE
  8
7
  6
CONTINUOUS
 62
     7
  5
2FE
 10
920502.082
 20
7258511.944
 30
0.0
 11
920327.176
 21
7258517.668
 31
0.0
  0
LINE
  8
6
  6
CONTINUOUS
 62
     7
  5
2FF
 10
920330.757
 20
7258627.609
 30
0.0
 11
920490.672
 21
7258622.376
 31
0.0
  0
LINE
  8
7
  6
CONTINUOUS
 62
     7
  5
300
 10
920330.757
 20
7258627.609
 30
0.0
 11
920321.347
 21
7258338.763
 31
0.0
  0
LINE
  8
7
  6
CONTINUOUS
 62
     7
  5
301
 10
920326.264
 20
7258489.683
 30
0.0
 11
919971.453
 21
7258501.293
 31
0.0
  0
LINE
  8
7
  6
CONTINUOUS
 62
     7
  5
302
 10
920151.309
 20
7258340.323
 30
0.0
 11
920160.849
 21
7258633.17
 31
0.0
  0
LINE
  8
6
  6
CONTINUOUS
 62
     7
  5
303
 10
919905.927
 20
7258641.511
 30
0.0
 11
920330.757
 21
7258627.609
 31
0.0
  0
LINE
  8
7
  6
CONTINUOUS
 62
     7
  5
304
 10
920445.693
 20
7258623.848
 30
0.0
 11
920442.114
 21
7258513.906
 31
0.0
  0
LINE
  8
7
  6
CONTINUOUS
 62
     7
  5
305
 10
920392.622
 20
7258625.576
 30
0.0
 11
920389.043
 21
7258515.634
 31
0.0
  0
LINE
  8
6
  6
CONTINUOUS
 62
     7
  5
306
 10
919890.445
 20
7258627.005
 30
0.0
 11
919881.919
 21
7258364.144
 31
0.0
  0
ARC
  8
6
  6
CONTINUOUS
 62
     7
  5
307
 10
919905.436394
 20
7258626.518278
 30
0.0
 40
15.0
 50
88.125931
 51
178.142444
210
0.0
220
0.0
230
1.0
  0
LINE
  8
6
  6
CONTINUOUS
 62
     7
  5
308
 10
919896.421
 20
7258348.666
 30
0.0
 11
920246.248
 21
7258337.217
 31
0.0
  0
ARC
  8
6
  6
CONTINUOUS
 62
     7
  5
309
 10
919896.911361
 20
7258363.658137
 30
0.0
 40
15.0
 50
178.142444
 51
268.125556
210
0.0
220
0.0
230
1.0
  0
LINE
  8
6
  6
CONTINUOUS
 62
     7
  5
30A
 10
920246.248
 20
7258337.217
 30
0.0
 11
920396.442
 21
7258340.308
 31
0.0
  0
LINE
  8
6
  6
CONTINUOUS
 62
     7
  5
30B
 10
920396.442
 20
7258340.308
 30
0.0
 11
920466.399
 21
7258338.018
 31
0.0
  0
ARC
  8
6
  6
CONTINUOUS
 62
     7
  5
30C
 10
920467.379665
 20
7258368.003044
 30
0.0
 40
30.0
 50
268.125583
 51
358.135206
210
0.0
220
0.0
230
1.0
  0
LINE
  8
6
  6
CONTINUOUS
 62
     7
  5
30D
 10
919675.223
 20
7259852.238
 30
0.0
 11
919650.214
 21
7259081.106
 31
0.0
  0
LINE
  8
7
  6
CONTINUOUS
 62
     7
  5
30E
 10
919655.127
 20
7259232.574
 30
0.0
 11
920283.539
 21
7259211.964
 31
0.0
  0
LINE
  8
7
  6
CONTINUOUS
 62
     7
  5
30F
 10
920283.539
 20
7259211.964
 30
0.0
 11
920378.707
 21
7259437.726
 31
0.0
  0
LINE
  8
7
  6
CONTINUOUS
 62
     7
  5
310
 10
920376.014
 20
7259437.616
 30
0.0
 11
920532.457
 21
7259526.641
 31
0.0
  0
ARC
  8
6
  6
CONTINUOUS
 62
     7
  5
311
 10
919690.215978
 20
7259851.751941
 30
0.0
 40
15.0
 50
88.121642
 51
178.142444
210
0.0
220
0.0
230
1.0
  0
LINE
  8
7
  6
CONTINUOUS
 62
     7
  5
312
 10
920528.152
 20
7259394.706
 30
0.0
 11
920360.233
 21
7259400.177
 31
0.0
  0
LINE
  8
6
  6
CONTINUOUS
 62
     7
  5
313
 10
920506.904
 20
7259120.573
 30
0.0
 11
920450.422
 21
7259122.403
 31
0.0
  0
ARC
  8
6
  6
CONTINUOUS
 62
     7
  5
314
 10
920431.828699
 20
7258549.175225
 30
0.0
 40
573.53
 50
88.142192
 51
110.142317
210
0.0
220
0.0
230
1.0
  0
ARC
  8
6
  6
CONTINUOUS
 62
     7
  5
315
 10
920042.567531
 20
7259610.310639
 30
0.0
 40
556.75
 50
268.126125
 51
290.146825
210
0.0
220
0.0
230
1.0
  0
LINE
  8
6
  6
CONTINUOUS
 62
     7
  5
316
 10
919664.716
 20
7259065.628
 30
0.0
 11
920024.363
 21
7259053.859
 31
0.0
  0
ARC
  8
6
  6
CONTINUOUS
 62
     7
  5
317
 10
919665.206783
 20
7259080.620628
 30
0.0
 40
15.0
 50
178.142444
 51
268.125528
210
0.0
220
0.0
230
1.0
  0
ARC
  8
6
  6
CONTINUOUS
 62
     7
  5
318
 10
920507.390781
 20
7259135.564043
 30
0.0
 40
15.0
 50
268.142444
 51
358.134167
210
0.0
220
0.0
230
1.0
  0
LINE
  8
6
  6
CONTINUOUS
 62
     7
  5
319
 10
918969.86
 20
7259088.457
 30
0.0
 11
919574.765
 21
7259068.62
 31
0.0
  0
LINE
  8
6
  6
CONTINUOUS
 62
     7
  5
31A
 10
919615.256
 20
7259854.219
 30
0.0
 11
919590.248
 21
7259083.126
 31
0.0
  0
LINE
  8
6
  6
CONTINUOUS
 62
     7
  5
31B
 10
918995.851
 20
7259889.536
 30
0.0
 11
919600.756
 21
7259869.698
 31
0.0
  0
LINE
  8
6
  6
CONTINUOUS
 62
     7
  5
31C
 10
918980.367
 20
7259875.03
 30
0.0
 11
918955.359
 21
7259103.935
 31
0.0
  0
ARC
  8
6
  6
CONTINUOUS
 62
     7
  5
31D
 10
918995.359621
 20
7259874.543648
 30
0.0
 40
15.0
 50
88.121725
 51
178.142444
210
0.0
220
0.0
230
1.0
  0
ARC
  8
6
  6
CONTINUOUS
 62
     7
  5
31E
 10
918970.351614
 20
7259103.448966
 30
0.0
 40
15.0
 50
178.142444
 51
268.121725
210
0.0
220
0.0
230
1.0
  0
ARC
  8
6
  6
CONTINUOUS
 62
     7
  5
31F
 10
919575.256473
 20
7259083.611824
 30
0.0
 40
15.0
 50
268.121728
 51
358.142444
210
0.0
220
0.0
230
1.0
  0
ARC
  8
6
  6
CONTINUOUS
 62
     7
  5
320
 10
919600.264479
 20
7259854.706476
 30
0.0
 40
15.0
 50
358.142444
 51
88.121733
210
0.0
220
0.0
230
1.0
  0
LINE
  8
6
  6
CONTINUOUS
 62
     7
  5
321
 10
917890.305
 20
7262535.242
 30
0.0
 11
917898.166
 21
7262785.118
 31
0.0
  0
LINE
  8
6
  6
CONTINUOUS
 62
     7
  5
322
 10
917898.166
 20
7262785.118
 30
0.0
 11
917757.856
 21
7263101.524
 31
0.0
  0
LINE
  8
6
  6
CONTINUOUS
 62
     7
  5
323
 10
917757.649
 20
7263101.989
 30
0.0
 11
918550.719
 21
7263640.866
 31
0.0
  0
LINE
  8
6
  6
CONTINUOUS
 62
     7
  5
324
 10
918381.212
 20
7263525.082
 30
0.0
 11
918349.473
 21
7262520.804
 31
0.0
  0
LINE
  8
6
  6
CONTINUOUS
 62
     7
  5
325
 10
918349.493
 20
7262521.423
 30
0.0
 11
917408.969
 21
7262551.01
 31
0.0
  0
LINE
  8
6
  6
CONTINUOUS
 62
     7
  5
326
 10
917409.064
 20
7262551.002
 30
0.0
 11
917419.138
 21
7262871.25
 31
0.0
  0
LINE
  8
6
  6
CONTINUOUS
 62
     7
  5
327
 10
915374.443
 20
7261471.688
 30
0.0
 11
917418.758
 21
7262859.125
 31
0.0
  0
LINE
  8
6
  6
CONTINUOUS
 62
     7
  5
328
 10
917722.134
 20
7263069.889
 30
0.0
 11
917722.236
 21
7263077.926
 31
0.0
  0
LINE
  8
6
  6
CONTINUOUS
 62
     7
  5
329
 10
917419.138
 20
7262871.25
 30
0.0
 11
917722.236
 21
7263077.926
 31
0.0
  0
LINE
  8
6
  6
CONTINUOUS
 62
     7
  5
32A
 10
917722.236
 20
7263077.926
 30
0.0
 11
917721.904
 21
7263064.885
 31
0.0
  0
LINE
  8
6
  6
CONTINUOUS
 62
     7
  5
32B
 10
917721.904
 20
7263064.885
 30
0.0
 11
917757.545
 21
7263089.102
 31
0.0
  0
LINE
  8
6
  6
CONTINUOUS
 62
     7
  5
32C
 10
915256.848
 20
7258511.633
 30
0.0
 11
917957.673
 21
7258420.107
 31
0.0
  0
TEXT
  8
19
  6
CONTINUOUS
 62
     1
  5
32D
 10
919281.282
 20
7258338.737
 30
0.0
 40
24.0
  1
66TH ST
 50
358.142444
  7
ROMANC
 72
     4
 11
919369.117001
 21
7258347.89466
 31
0.0
210
0.0
220
0.0
230
1.0
  0
TEXT
  8
19
  6
CONTINUOUS
 62
     1
  5
32E
 10
920554.5
 20
7259012.858
 30
0.0
 40
24.0
  1
FRANKFORD  AVE
 50
88.142444
  7
ROMANC
 72
     4
 11
920548.610139
 21
7259201.452024
 31
0.0
210
0.0
220
0.0
230
1.0
  0
TEXT
  8
19
  6
CONTINUOUS
 62
     1
  5
32F
 10
920079.029
 20
7258652.566
 30
0.0
 40
24.0
  1
64TH   ST
 50
358.142444
  7
ROMANC
 72
     4
 11
920198.593318
 21
7258660.69462
 31
0.0
210
0.0
220
0.0
230
1.0
  0
TEXT
  8
19
  6
CONTINUOUS
 62
     1
  5
330
 10
916463.437
 20
7262292.283
 30
0.0
 40
24.0
  1
BROWNFIELD  HWY   (U.S. 62)
 50
33.868183
  7
ROMANC
 72
     4
 11
916729.288631
 21
7262485.165899
 31
0.0
210
0.0
220
0.0
230
1.0
  0
TEXT
  8
19
  6
CONTINUOUS
 62
     1
  5
331
 10
920643.713
 20
7261513.573
 30
0.0
 40
24.0
  1
FRANKFORD  AVE
 50
88.363344
  7
ROMANC
 72
     4
 11
920637.096073
 21
7261702.142915
 31
0.0
210
0.0
220
0.0
230
1.0
  0
TEXT
  8
15
  6
CONTINUOUS
 62
    30
  5
333
 10
917791.26
 20
7262837.951
 30
0.0
 40
50.0
  1
CITY
 50
28.189844
  7
ROMANC
 72
     4
 11
917859.602607
 21
7262902.944768
 31
0.0
210
0.0
220
0.0
230
1.0
  0
TEXT
  8
15
  6
CONTINUOUS
 62
    30
  5
334
 10
917866.248
 20
7262793.049
 30
0.0
 40
50.0
  1
OF
 50
28.189844
  7
ROMANC
 72
     4
 11
917895.034831
 21
7262836.842173
 31
0.0
210
0.0
220
0.0
230
1.0
  0
TEXT
  8
15
  6
CONTINUOUS
 62
    30
  5
335
 10
917774.674
 20
7262658.875
 30
0.0
 40
50.0
  1
LUBBOCK
 50
28.189844
  7
ROMANC
 72
     4
 11
917930.630901
 21
7262770.827148
 31
0.0
210
0.0
220
0.0
230
1.0
  0
TEXT
  8
15
  6
CONTINUOUS
 62
    30
  5
336
 10
919393.705
 20
7263356.158
 30
0.0
 40
35.0
  1
SOUTHWEST
 50
28.363344
  7
ROMANC
 72
     4
 11
919536.948316
 21
7263453.378413
 31
0.0
210
0.0
220
0.0
230
1.0
  0
TEXT
  8
15
  6
CONTINUOUS
 62
    30
  5
337
 10
919548.309
 20
7263188.158
 30
0.0
 40
35.0
  1
COMMERCIAL
 50
28.363344
  7
ROMANC
 72
     4
 11
919703.19321
 21
7263291.663
 31
0.0
210
0.0
220
0.0
230
1.0
  0
TEXT
  8
15
  6
CONTINUOUS
 62
    30
  5
338
 10
919797.195
 20
7263095.613
 30
0.0
 40
35.0
  1
PARK
 50
28.363344
  7
ROMANC
 72
     4
 11
919855.930301
 21
7263147.209946
 31
0.0
210
0.0
220
0.0
230
1.0
  0
TEXT
  8
15
  6
CONTINUOUS
 62
    30
  5
339
 10
919471.787
 20
7262174.29
 30
0.0
 40
50.0
  1
CITY
 50
28.363344
  7
ROMANC
 72
     4
 11
919539.932483
 21
7262239.490421
 31
0.0
210
0.0
220
0.0
230
1.0
  0
TEXT
  8
15
  6
CONTINUOUS
 62
    30
  5
33A
 10
919546.911
 20
7262129.615
 30
0.0
 40
50.0
  1
OF
 50
28.363344
  7
ROMANC
 72
     4
 11
919575.565087
 21
7262173.495143
 31
0.0
210
0.0
220
0.0
230
1.0
  0
TEXT
  8
15
  6
CONTINUOUS
 62
    30
  5
33B
 10
919455.743
 20
7261995.165
 30
0.0
 40
50.0
  1
LUBBOCK
 50
28.363344
  7
ROMANC
 72
     4
 11
919611.360179
 21
7262107.588894
 31
0.0
210
0.0
220
0.0
230
1.0
  0
TEXT
  8
15
  6
CONTINUOUS
 62
    30
  5
33C
 10
920343.484
 20
7262385.404
 30
0.0
 40
32.5
  1
LUSKEY
 50
33.363344
  7
ROMANC
 72
     4
 11
920423.134513
 21
7262457.307176
 31
0.0
210
0.0
220
0.0
230
1.0
  0
TEXT
  8
15
  6
CONTINUOUS
 62
    30
  5
33D
 10
920419.841
 20
7262336.947
 30
0.0
 40
32.5
  1
ADDITION
 50
33.363344
  7
ROMANC
 72
     4
 11
920516.69496
 21
7262420.177974
 31
0.0
210
0.0
220
0.0
230
1.0
  0
TEXT
  8
15
  6
CONTINUOUS
 62
    30
  5
33E
 10
920123.507
 20
7260856.12
 30
0.0
 40
20.0
  1
WOMBLE
 50
28.363344
  7
ROMANC
 72
     4
 11
920177.993921
 21
7260896.900182
 31
0.0
210
0.0
220
0.0
230
1.0
  0
TEXT
  8
15
  6
CONTINUOUS
 62
    30
  5
33F
 10
919707.534
 20
7259280.319
 30
0.0
 40
50.0
  1
AUTOPLEX
 50
28.142444
  7
ROMANC
 72
     4
 11
919887.3606
 21
7259404.860541
 31
0.0
210
0.0
220
0.0
230
1.0
  0
TEXT
  8
15
  6
CONTINUOUS
 62
    30
  5
340
 10
919101.88
 20
7259656.913
 30
0.0
 40
50.0
  1
SPUR
 50
28.142444
  7
ROMANC
 72
     4
 11
919183.814285
 21
7259729.091683
 31
0.0
210
0.0
220
0.0
230
1.0
  0
TEXT
  8
15
  6
CONTINUOUS
 62
    30
  5
341
 10
919406.952
 20
7259453.204
 30
0.0
 40
50.0
  1
327
 50
28.142444
  7
ROMANC
 72
     4
 11
919454.003159
 21
7259506.723606
 31
0.0
210
0.0
220
0.0
230
1.0
  0
TEXT
  8
15
  6
CONTINUOUS
 62
    30
  5
342
 10
919111.211
 20
7258678.472
 30
0.0
 40
50.0
  1
SPUR 327
 50
28.142444
  7
ROMANC
 72
     4
 11
919283.231222
 21
7258798.837889
 31
0.0
210
0.0
220
0.0
230
1.0
  0
TEXT
  8
15
  6
CONTINUOUS
 62
    30
  5
343
 10
919191.737
 20
7258544.48
 30
0.0
 40
50.0
  1
BUSINESS
 50
28.142444
  7
ROMANC
 72
     4
 11
919356.984287
 21
7258661.223029
 31
0.0
210
0.0
220
0.0
230
1.0
  0
TEXT
  8
15
  6
CONTINUOUS
 62
    30
  5
344
 10
918592.022
 20
7258519.848
 30
0.0
 40
50.0
  1
FAITH
 50
28.142444
  7
ROMANC
 72
     4
 11
918688.536479
 21
7258599.825667
 31
0.0
210
0.0
220
0.0
230
1.0
  0
TEXT
  8
15
  6
CONTINUOUS
 62
    30
  5
345
 10
918610.187
 20
7259717.872
 30
0.0
 40
50.0
  1
THOMAS L
 50
28.142444
  7
ROMANC
 72
     4
 11
918788.106314
 21
7259841.39333
 31
0.0
210
0.0
220
0.0
230
1.0
  0
TEXT
  8
15
  6
CONTINUOUS
 62
    30
  5
346
 10
918610.045
 20
7259623.631
 30
0.0
 40
50.0
  1
WILLIAMS
 50
28.142444
  7
ROMANC
 72
     4
 11
918773.730659
 21
7259739.538709
 31
0.0
210
0.0
220
0.0
230
1.0
  0
TEXT
  8
15
  6
CONTINUOUS
 62
    30
  5
347
 10
919344.045
 20
7258495.739
 30
0.0
 40
50.0
  1
PARK
 50
28.142444
  7
ROMANC
 72
     4
 11
919428.237517
 21
7258569.125618
 31
0.0
210
0.0
220
0.0
230
1.0
  0
TEXT
  8
15
  6
CONTINUOUS
 62
    30
  5
348
 10
920025.359
 20
7258733.223
 30
0.0
 40
50.0
  1
SPUR 327
 50
28.142444
  7
ROMANC
 72
     4
 11
920197.379222
 21
7258853.588889
 31
0.0
210
0.0
220
0.0
230
1.0
  0
TEXT
  8
15
  6
CONTINUOUS
 62
    30
  5
349
 10
920094.696
 20
7258487.882
 30
0.0
 40
50.0
  1
AUTOPLEX
 50
28.142444
  7
ROMANC
 72
     4
 11
920274.5226
 21
7258612.423541
 31
0.0
210
0.0
220
0.0
230
1.0
  0
TEXT
  8
15
  6
CONTINUOUS
 62
    30
  5
34A
 10
920284.96
 20
7258363.277
 30
0.0
 40
50.0
  1
STRONG
 50
28.142444
  7
ROMANC
 72
     4
 11
920412.716745
 21
7258459.966238
 31
0.0
210
0.0
220
0.0
230
1.0
  0
TEXT
  8
15
  6
CONTINUOUS
 62
    30
  5
34B
 10
920336.428
 20
7258315.124
 30
0.0
 40
50.0
  1
DAVIS
 50
28.142444
  7
ROMANC
 72
     4
 11
920430.858838
 21
7258393.987122
 31
0.0
210
0.0
220
0.0
230
1.0
  0
TEXT
  8
15
  6
CONTINUOUS
 62
    30
  5
34C
 10
918575.616
 20
7258426.664
 30
0.0
 40
50.0
  1
BAPTIST
 50
28.142444
  7
ROMANC
 72
     4
 11
918714.827919
 21
7258529.480641
 31
0.0
210
0.0
220
0.0
230
1.0
  0
TEXT
  8
15
  6
CONTINUOUS
 62
    30
  5
34D
 10
918596.552
 20
7258352.835
 30
0.0
 40
50.0
  1
CHURCH
 50
28.142444
  7
ROMANC
 72
     4
 11
918732.63978
 21
7258453.980531
 31
0.0
210
0.0
220
0.0
230
1.0
  0
LINE
  8
7
  6
CONTINUOUS
 62
     7
  5
34E
 10
920056.408
 20
7258498.513
 30
0.0
 11
920060.902
 21
7258636.424
 31
0.0
  0
TEXT
  8
11
  6
CONTINUOUS
 62
     7
  5
34F
 10
920093.889
 20
7258624.809
 30
0.0
 40
8.0
  1
100'
 50
358.142444
  7
ROMANS
 72
     1
 11
920107.475311
 21
7258632.372577
 31
0.0
210
0.0
220
0.0
230
1.0
 73
     3
  0
TEXT
  8
10
  6
CONTINUOUS
 62
   134
  5
350
 10
920092.789
 20
7258563.354
 30
0.0
 40
13.999
  1
18
 50
358.142444
  7
ROMANS
 72
     4
 11
920104.09208
 21
7258569.991101
 31
0.0
210
0.0
220
0.0
230
1.0
  0
TEXT
  8
11
  6
CONTINUOUS
 62
     7
  5
351
 10
919867.678
 20
7259215.291
 30
0.0
 40
8.0
  1
430.00'
 50
358.142444
  7
ROMANS
 72
     1
 11
919892.998687
 21
7259214.469804
 31
0.0
210
0.0
220
0.0
230
1.0
  0
TEXT
  8
11
  6
CONTINUOUS
 62
     7
  5
352
 10
920077.817
 20
7259116.812
 30
0.0
 40
8.0
  1
163.76'
 50
88.142444
  7
ROMANS
 72
     4
 11
920074.640266
 21
7259142.261347
 31
0.0
210
0.0
220
0.0
230
1.0
  0
TEXT
  8
11
  6
CONTINUOUS
 62
     7
  5
353
 10
920013.156
 20
7259055.48
 30
0.0
 40
8.0
  1
CH=55.23'
 50
1.288594
  7
ROMANS
 72
     1
 11
920046.48157
 21
7259056.229626
 31
0.0
210
0.0
220
0.0
230
1.0
  0
TEXT
  8
10
  6
CONTINUOUS
 62
   134
  5
354
 10
919847.827
 20
7259137.628
 30
0.0
 40
13.999
  1
19
 50
358.142444
  7
ROMANS
 72
     4
 11
919859.13008
 21
7259144.265101
 31
0.0
210
0.0
220
0.0
230
1.0
  0
LINE
  8
7
  6
CONTINUOUS
 62
     7
  5
355
 10
920112.696
 20
7258690.746
 30
0.0
 11
920117.583
 21
7258840.681
 31
0.0
  0
TEXT
  8
11
  6
CONTINUOUS
 62
     7
  5
356
 10
920127.232
 20
7258757.81
 30
0.0
 40
8.0
  1
150'
 50
88.142444
  7
ROMANS
 72
     4
 11
920123.666321
 21
7258771.266652
 31
0.0
210
0.0
220
0.0
230
1.0
  0
TEXT
  8
11
  6
CONTINUOUS
 62
     7
  5
357
 10
920157.629
 20
7258828.739
 30
0.0
 40
8.0
  1
100'
 50
358.142444
  7
ROMANS
 72
     1
 11
920170.955993
 21
7258828.306781
 31
0.0
210
0.0
220
0.0
230
1.0
  0
TEXT
  8
11
  6
CONTINUOUS
 62
     7
  5
358
 10
920153.203
 20
7258692.273
 30
0.0
 40
8.0
  1
100'
 50
358.142444
  7
ROMANS
 72
     1
 11
920166.529993
 21
7258691.840781
 31
0.0
210
0.0
220
0.0
230
1.0
  0
TEXT
  8
10
  6
CONTINUOUS
 62
   134
  5
359
 10
920153.748
 20
7258764.576
 30
0.0
 40
13.999
  1
20
 50
358.142444
  7
ROMANS
 11
920154.201775
 21
7258778.567644
 31
0.0
210
0.0
220
0.0
230
1.0
 73
     3
  0
TEXT
  8
11
  6
CONTINUOUS
 62
     7
  5
35A
 10
920457.868
 20
7259246.411
 30
0.0
 40
8.0
  1
120'
 50
358.142444
  7
ROMANS
 72
     4
 11
920471.324652
 21
7259249.976679
 31
0.0
210
0.0
220
0.0
230
1.0
  0
TEXT
  8
11
  6
CONTINUOUS
 62
     7
  5
35B
 10
920522.226
 20
7259182.89
 30
0.0
 40
8.0
  1
120'
 50
88.142444
  7
ROMANS
 72
     4
 11
920518.660321
 21
7259196.346652
 31
0.0
210
0.0
220
0.0
230
1.0
  0
TEXT
  8
11
  6
CONTINUOUS
 62
     7
  5
35C
 10
920461.09
 20
7259123.938
 30
0.0
 40
8.0
  1
56.51'
 50
358.142444
  7
ROMANS
 72
     4
 11
920482.542448
 21
7259127.244361
 31
0.0
210
0.0
220
0.0
230
1.0
  0
TEXT
  8
11
  6
CONTINUOUS
 62
     7
  5
35D
 10
920405.409
 20
7259125.745
 30
0.0
 40
8.0
  1
48.54'
 50
358.142444
  7
ROMANS
 72
     4
 11
920426.861448
 21
7259129.051361
 31
0.0
210
0.0
220
0.0
230
1.0
  0
TEXT
  8
11
  6
CONTINUOUS
 62
     7
  5
35E
 10
920400.945
 20
7259166.929
 30
0.0
 40
8.0
  1
137.05'
 50
88.142444
  7
ROMANS
 72
     4
 11
920397.768298
 21
7259192.379346
 31
0.0
210
0.0
220
0.0
230
1.0
  0
LINE
  8
7
  6
CONTINUOUS
 62
     7
  5
35F
 10
920523.596
 20
7259254.902
 30
0.0
 11
920403.66
 21
7259258.792
 31
0.0
  0
LINE
  8
7
  6
CONTINUOUS
 62
     7
  5
360
 10
920406.352
 20
7259258.902
 30
0.0
 11
920401.889
 21
7259121.924
 31
0.0
  0
LINE
  8
21
  6
DASHDOT
 62
     7
  5
361
 10
920406.028
 20
7259248.908
 30
0.0
 11
920313.129
 21
7259251.92
 31
0.0
  0
LINE
  8
21
  6
DASHDOT
 62
     7
  5
362
 10
920406.352
 20
7259258.902
 30
0.0
 11
920317.195
 21
7259261.793
 31
0.0
  0
POLYLINE
  8
21
  6
DASHDOT
 62
     7
  5
363
 66
     1
 10
0.0
 20
0.0
 30
0.0
  0
VERTEX
  8
21
  6
DASHDOT
 62
     7
  5
364
 10
917509.734
 20
7258429.322
 30
0.0
  0
VERTEX
  8
21
  6
DASHDOT
 62
     7
  5
365
 10
917530.932
 20
7259100.088
 30
0.0
  0
VERTEX
  8
21
  6
DASHDOT
 62
     7
  5
366
 10
917551.2
 20
7259741.377
 30
0.0
  0
SEQEND
  8
21
  6
DASHDOT
 62
     7
  5
367
  0
LINE
  8
21
  6
DASHDOT
 62
     7
  5
368
 10
917551.2
 20
7259741.377
 30
0.0
 11
917801.657
 21
7259875.615
 31
0.0
  0
LINE
  8
21
  6
DASHDOT
 62
     7
  5
369
 10
917521.761
 20
7259759.636
 30
0.0
 11
917755.41
 21
7259884.864
 31
0.0
  0
POLYLINE
  8
21
  6
DASHDOT
 62
     7
  5
36A
 66
     1
 10
0.0
 20
0.0
 30
0.0
  0
VERTEX
  8
21
  6
DASHDOT
 62
     7
  5
36B
 10
917479.749
 20
7258430.27
 30
0.0
  0
VERTEX
  8
21
  6
DASHDOT
 62
     7
  5
36C
 10
917500.947
 20
7259101.035
 30
0.0
  0
VERTEX
  8
21
  6
DASHDOT
 62
     7
  5
36D
 10
917521.761
 20
7259759.636
 30
0.0
  0
SEQEND
  8
21
  6
DASHDOT
 62
     7
  5
36E
  0
TEXT
  8
13
  6
CONTINUOUS
 62
    14
  5
370
 10
917519.55
 20
7259015.37
 30
0.0
 40
8.0
  1
V5746 P346
 50
88.189844
  7
ROMANS
 72
     4
 11
917516.768763
 21
7259053.997129
 31
0.0
210
0.0
220
0.0
230
1.0
  0
TEXT
  8
13
  6
CONTINUOUS
 62
    14
  5
371
 10
919169.25
 20
7258456.767
 30
0.0
 40
8.0
  1
V6036 P279
 50
88.142444
  7
ROMANS
 72
     4
 11
919166.494658
 21
7258495.209515
 31
0.0
210
0.0
220
0.0
230
1.0
  0
TEXT
  8
13
  6
CONTINUOUS
 62
    14
  5
372
 10
919224.715
 20
7258454.953
 30
0.0
 40
8.0
  1
V6036 P281
 50
88.142444
  7
ROMANS
 72
     4
 11
919221.927275
 21
7258492.39704
 31
0.0
210
0.0
220
0.0
230
1.0
  0
TEXT
  8
13
  6
CONTINUOUS
 62
    14
  5
373
 10
918975.482
 20
7258390.378
 30
0.0
 40
8.0
  1
V5622 P207
 50
358.142444
  7
ROMANS
 72
     4
 11
919013.924515
 21
7258393.133342
 31
0.0
210
0.0
220
0.0
230
1.0
  0
TEXT
  8
13
  6
CONTINUOUS
 62
    14
  5
374
 10
919245.476
 20
7258381.271
 30
0.0
 40
8.0
  1
V5768 P249
 50
358.142444
  7
ROMANS
 72
     4
 11
919283.918515
 21
7258384.026342
 31
0.0
210
0.0
220
0.0
230
1.0
  0
POLYLINE
  8
25
  6
CONTINUOUS
 62
   212
  5
376
 66
     1
 10
0.0
 20
0.0
 30
0.0
  0
VERTEX
  8
25
  6
CONTINUOUS
 62
   212
  5
377
 10
919181.749
 20
7258380.129
 30
0.0
  0
VERTEX
  8
25
  6
CONTINUOUS
 62
   212
  5
378
 10
918933.88
 20
7258388.167
 30
0.0
  0
VERTEX
  8
25
  6
CONTINUOUS
 62
   212
  5
379
 10
918933.87975
 20
7258388.167303
 30
0.0
 42
0.278285
  0
VERTEX
  8
25
  6
CONTINUOUS
 62
   212
  5
37A
 10
918946.883328
 20
7258379.737366
 30
0.0
  0
VERTEX
  8
25
  6
CONTINUOUS
 62
   212
  5
37B
 10
918946.884
 20
7258379.738
 30
0.0
  0
VERTEX
  8
25
  6
CONTINUOUS
 62
   212
  5
37C
 10
919181.49
 20
7258372.133
 30
0.0
  0
VERTEX
  8
25
  6
CONTINUOUS
 62
   212
  5
37D
 10
919181.749
 20
7258380.129
 30
0.0
  0
SEQEND
  8
25
  6
CONTINUOUS
 62
   212
  5
37E
  0
SOLID
  8
25
  6
CONTINUOUS
 62
   212
  5
37F
 10
919511.632
 20
7258361.279
 30
0.0
 11
919181.759
 21
7258372.073
 31
0.0
 12
919511.891
 22
7258369.273
 32
0.0
 13
919182.018
 23
7258380.068
 33
0.0
  0
POLYLINE
  8
21
  6
DASHDOT
 62
     7
  5
380
 66
     1
 10
0.0
 20
0.0
 30
0.0
  0
VERTEX
  8
21
  6
DASHDOT
 62
     7
  5
381
 10
919188.243
 20
7258571.99
 30
0.0
  0
VERTEX
  8
21
  6
DASHDOT
 62
     7
  5
382
 10
919208.231
 20
7258571.342
 30
0.0
  0
VERTEX
  8
21
  6
DASHDOT
 62
     7
  5
383
 10
919201.749
 20
7258371.448
 30
0.0
  0
SEQEND
  8
21
  6
DASHDOT
 62
     7
  5
384
  0
POLYLINE
  8
21
  6
DASHDOT
 62
     7
  5
385
 66
     1
 10
0.0
 20
0.0
 30
0.0
  0
VERTEX
  8
21
  6
DASHDOT
 62
     7
  5
386
 10
919213.229
 20
7258571.18
 30
0.0
  0
VERTEX
  8
21
  6
DASHDOT
 62
     7
  5
387
 10
919233.219
 20
7258570.531
 30
0.0
  0
VERTEX
  8
21
  6
DASHDOT
 62
     7
  5
388
 10
919226.734
 20
7258370.586
 30
0.0
  0
VERTEX
  8
21
  6
DASHDOT
 62
     7
  5
389
 10
919206.744
 20
7258371.235
 30
0.0
  0
VERTEX
  8
21
  6
DASHDOT
 62
     7
  5
38A
 10
919213.229
 20
7258571.18
 30
0.0
  0
SEQEND
  8
21
  6
DASHDOT
 62
     7
  5
38B
  0
POLYLINE
  8
25
  6
CONTINUOUS
 62
   212
  5
38C
 66
     1
 10
0.0
 20
0.0
 30
0.0
  0
VERTEX
  8
25
  6
CONTINUOUS
 62
   212
  5
38D
 10
919346.739471
 20
7258366.652656
 30
0.0
 42
-0.369189
  0
VERTEX
  8
25
  6
CONTINUOUS
 62
   212
  5
38E
 10
919359.88068
 20
7258381.051801
 30
0.0
  0
VERTEX
  8
25
  6
CONTINUOUS
 62
   212
  5
38F
 10
919359.881
 20
7258381.052
 30
0.0
  0
VERTEX
  8
25
  6
CONTINUOUS
 62
   212
  5
390
 10
919424.515
 20
7258378.933
 30
0.0
  0
VERTEX
  8
25
  6
CONTINUOUS
 62
   212
  5
391
 10
919424.515092
 20
7258378.9332
 30
0.0
 42
-0.369189
  0
VERTEX
  8
25
  6
CONTINUOUS
 62
   212
  5
392
 10
919436.691333
 20
7258363.70934
 30
0.0
  0
VERTEX
  8
25
  6
CONTINUOUS
 62
   212
  5
393
 10
919436.692
 20
7258363.709
 30
0.0
  0
VERTEX
  8
25
  6
CONTINUOUS
 62
   212
  5
394
 10
919346.739
 20
7258366.652
 30
0.0
  0
SEQEND
  8
25
  6
CONTINUOUS
 62
   212
  5
395
  0
POLYLINE
  8
25
  6
CONTINUOUS
 62
   212
  5
396
 66
     1
 10
0.0
 20
0.0
 30
0.0
  0
VERTEX
  8
25
  6
CONTINUOUS
 62
   212
  5
397
 10
919806.468273
 20
7258351.609326
 30
0.0
 42
0.278293
  0
VERTEX
  8
25
  6
CONTINUOUS
 62
   212
  5
398
 10
919819.986042
 20
7258359.188133
 30
0.0
  0
VERTEX
  8
25
  6
CONTINUOUS
 62
   212
  5
399
 10
919819.986
 20
7258359.189
 30
0.0
  0
VERTEX
  8
25
  6
CONTINUOUS
 62
   212
  5
39A
 10
919571.859
 20
7258367.308
 30
0.0
  0
VERTEX
  8
25
  6
CONTINUOUS
 62
   212
  5
39B
 10
919571.599
 20
7258359.311
 30
0.0
  0
VERTEX
  8
25
  6
CONTINUOUS
 62
   212
  5
39C
 10
919806.468
 20
7258351.61
 30
0.0
  0
SEQEND
  8
25
  6
CONTINUOUS
 62
   212
  5
39D
  0
TEXT
  8
13
  6
CONTINUOUS
 62
    14
  5
39E
 10
920342.218
 20
7262228.155
 30
0.0
 40
8.0
  1
V6020 P123
 50
358.363344
  7
ROMANS
 72
     4
 11
920380.649607
 21
7262231.058534
 31
0.0
210
0.0
220
0.0
230
1.0
  0
POLYLINE
  8
21
  6
DASHDOT
 62
     7
  5
39F
 66
     1
 10
0.0
 20
0.0
 30
0.0
  0
VERTEX
  8
21
  6
DASHDOT
 62
     7
  5
3A0
 10
920355.142
 20
7263551.68
 30
0.0
  0
VERTEX
  8
21
  6
DASHDOT
 62
     7
  5
3A1
 10
920345.594
 20
7263227.421
 30
0.0
  0
VERTEX
  8
21
  6
DASHDOT
 62
     7
  5
3A2
 10
920342.194
 20
7263225.094
 30
0.0
  0
VERTEX
  8
21
  6
DASHDOT
 62
     7
  5
3A3
 10
920335.781
 20
7263234.444
 30
0.0
  0
VERTEX
  8
21
  6
DASHDOT
 62
     7
  5
3A4
 10
920345.129
 20
7263551.868
 30
0.0
  0
VERTEX
  8
21
  6
DASHDOT
 62
     7
  5
3A5
 10
920355.124
 20
7263551.582
 30
0.0
  0
SEQEND
  8
21
  6
DASHDOT
 62
     7
  5
3A6
  0
TEXT
  8
13
  6
CONTINUOUS
 62
    14
  5
3A7
 10
920350.159
 20
7263420.9
 30
0.0
 40
8.0
  1
V6036 P284
 50
88.363344
  7
ROMANS
 72
     4
 11
920347.255466
 21
7263459.331607
 31
0.0
210
0.0
220
0.0
230
1.0
  0
POLYLINE
  8
21
  6
DASHDOT
 62
     7
  5
3A8
 66
     1
 10
0.0
 20
0.0
 30
0.0
  0
VERTEX
  8
21
  6
DASHDOT
 62
     7
  5
3A9
 10
920342.212
 20
7263225.207
 30
0.0
  0
VERTEX
  8
21
  6
DASHDOT
 62
     7
  5
3AA
 10
920335.388
 20
7263220.534
 30
0.0
  0
VERTEX
  8
21
  6
DASHDOT
 62
     7
  5
3AB
 10
920335.802
 20
7263234.557
 30
0.0
  0
VERTEX
  8
21
  6
DASHDOT
 62
     7
  5
3AC
 10
920342.216
 20
7263225.206
 30
0.0
  0
SEQEND
  8
21
  6
DASHDOT
 62
     7
  5
3AD
  0
LINE
  8
6
  6
CONTINUOUS
 62
     7
  5
3AE
 10
920023.976
 20
7261210.63
 30
0.0
 11
919991.174
 21
7260133.593
 31
0.0
  0
LINE
  8
6
  6
CONTINUOUS
 62
     7
  5
3AF
 10
919503.296
 20
7261196.248
 30
0.0
 11
919718.194
 21
7261189.81
 31
0.0
  0
LINE
  8
6
  6
CONTINUOUS
 62
     7
  5
3B0
 10
919808.153
 20
7261187.115
 30
0.0
 11
920023.064
 21
7261180.676
 31
0.0
  0
LINE
  8
6
  6
CONTINUOUS
 62
     7
  5
3B1
 10
919732.737
 20
7261174.361
 30
0.0
 11
919701.764
 21
7260157.392
 31
0.0
  0
LINE
  8
6
  6
CONTINUOUS
 62
     7
  5
3B2
 10
920151.101
 20
7260128.737
 30
0.0
 11
919776.274
 21
7260140.124
 31
0.0
  0
LINE
  8
6
  6
CONTINUOUS
 62
     7
  5
3B3
 10
919686.315
 20
7260142.856
 30
0.0
 11
918917.064
 21
7260168.557
 31
0.0
  0
ARC
  8
6
  6
CONTINUOUS
 62
     7
  5
3B4
 10
919717.7438
 20
7261174.817275
 30
0.0
 40
15.0
 50
358.255503
 51
88.283925
210
0.0
220
0.0
230
1.0
  0
ARC
  8
6
  6
CONTINUOUS
 62
     7
  5
3B5
 10
919686.770376
 20
7260157.849
 30
0.0
 40
15.0
 50
268.259944
 51
358.2555
210
0.0
220
0.0
230
1.0
  0
ARC
  8
6
  6
CONTINUOUS
 62
     7
  5
3B6
 10
919776.700071
 20
7260155.117416
 30
0.0
 40
15.0
 50
178.367164
 51
268.363344
210
0.0
220
0.0
230
1.0
  0
LINE
  8
6
  6
CONTINUOUS
 62
     7
  5
3B7
 10
919792.71
 20
7261172.578
 30
0.0
 11
919761.736
 21
7260155.573
 31
0.0
  0
ARC
  8
6
  6
CONTINUOUS
 62
     7
  5
3B8
 10
919807.703694
 20
7261172.121818
 30
0.0
 40
15.0
 50
88.283933
 51
178.255497
210
0.0
220
0.0
230
1.0
  0
LINE
  8
7
  6
CONTINUOUS
 62
     7
  5
3B9
 10
919498.06
 20
7261024.327
 30
0.0
 11
919727.954
 21
7261017.327
 31
0.0
  0
LINE
  8
7
  6
CONTINUOUS
 62
     7
  5
3BA
 10
919493.037
 20
7260859.404
 30
0.0
 11
919722.931
 21
7260852.403
 31
0.0
  0
LINE
  8
7
  6
CONTINUOUS
 62
     7
  5
3BB
 10
919488.015
 20
7260694.48
 30
0.0
 11
919717.908
 21
7260687.479
 31
0.0
  0
LINE
  8
7
  6
CONTINUOUS
 62
     7
  5
3BC
 10
919482.991
 20
7260529.557
 30
0.0
 11
919712.885
 21
7260522.556
 31
0.0
  0
LINE
  8
7
  6
CONTINUOUS
 62
     7
  5
3BD
 10
919477.968
 20
7260364.633
 30
0.0
 11
919707.862
 21
7260357.631
 31
0.0
  0
LINE
  8
7
  6
CONTINUOUS
 62
     7
  5
3BE
 10
919787.918
 20
7261015.191
 30
0.0
 11
920017.81
 21
7261008.189
 31
0.0
  0
LINE
  8
7
  6
CONTINUOUS
 62
     7
  5
3BF
 10
919782.894
 20
7260850.267
 30
0.0
 11
920012.788
 21
7260843.265
 31
0.0
  0
LINE
  8
7
  6
CONTINUOUS
 62
     7
  5
3C0
 10
919777.872
 20
7260685.345
 30
0.0
 11
920007.764
 21
7260678.342
 31
0.0
  0
LINE
  8
7
  6
CONTINUOUS
 62
     7
  5
3C1
 10
919772.848
 20
7260520.42
 30
0.0
 11
920002.742
 21
7260513.418
 31
0.0
  0
LINE
  8
7
  6
CONTINUOUS
 62
     7
  5
3C2
 10
919767.824
 20
7260355.496
 30
0.0
 11
919997.719
 21
7260348.494
 31
0.0
  0
TEXT
  8
11
  6
CONTINUOUS
 62
     7
  5
3C3
 10
919509.601
 20
7261103.444
 30
0.0
 40
8.0
  1
172'
 50
88.363344
  7
ROMANS
 72
     4
 11
919505.983438
 21
7261116.885805
 31
0.0
210
0.0
220
0.0
230
1.0
  0
TEXT
  8
11
  6
CONTINUOUS
 62
     7
  5
3C4
 10
920018.161
 20
7261077.003
 30
0.0
 40
8.0
  1
172.57'
 50
88.363344
  7
ROMANS
 72
     4
 11
920014.886171
 21
7261102.43991
 31
0.0
210
0.0
220
0.0
230
1.0
  0
TEXT
  8
11
  6
CONTINUOUS
 62
     7
  5
3C5
 10
919727.36
 20
7261085.311
 30
0.0
 40
8.0
  1
157.11'
 50
88.363344
  7
ROMANS
 72
     4
 11
919724.085171
 21
7261110.74791
 31
0.0
210
0.0
220
0.0
230
1.0
  0
TEXT
  8
11
  6
CONTINUOUS
 62
     7
  5
3C6
 10
919798.786
 20
7261083.27
 30
0.0
 40
8.0
  1
157.46'
 50
88.363344
  7
ROMANS
 72
     4
 11
919795.511171
 21
7261108.70691
 31
0.0
210
0.0
220
0.0
230
1.0
  0
TEXT
  8
11
  6
CONTINUOUS
 62
     7
  5
3C7
 10
919723.906
 20
7260919.753
 30
0.0
 40
8.0
  1
165'
 50
88.363344
  7
ROMANS
 72
     4
 11
919720.288438
 21
7260933.194805
 31
0.0
210
0.0
220
0.0
230
1.0
  0
TEXT
  8
11
  6
CONTINUOUS
 62
     7
  5
3C8
 10
919796.607
 20
7260917.676
 30
0.0
 40
8.0
  1
165'
 50
88.363344
  7
ROMANS
 72
     4
 11
919792.989438
 21
7260931.117805
 31
0.0
210
0.0
220
0.0
230
1.0
  0
TEXT
  8
11
  6
CONTINUOUS
 62
     7
  5
3C9
 10
919791.793
 20
7260749.189
 30
0.0
 40
8.0
  1
165'
 50
88.363344
  7
ROMANS
 72
     4
 11
919788.175438
 21
7260762.630805
 31
0.0
210
0.0
220
0.0
230
1.0
  0
TEXT
  8
11
  6
CONTINUOUS
 62
     7
  5
3CA
 10
919719.092
 20
7260751.266
 30
0.0
 40
8.0
  1
165'
 50
88.363344
  7
ROMANS
 72
     4
 11
919715.474438
 21
7260764.707805
 31
0.0
210
0.0
220
0.0
230
1.0
  0
TEXT
  8
11
  6
CONTINUOUS
 62
     7
  5
3CB
 10
919714.518
 20
7260591.204
 30
0.0
 40
8.0
  1
165'
 50
88.363344
  7
ROMANS
 72
     4
 11
919710.900438
 21
7260604.645805
 31
0.0
210
0.0
220
0.0
230
1.0
  0
TEXT
  8
11
  6
CONTINUOUS
 62
     7
  5
3CC
 10
919783.393
 20
7260589.235
 30
0.0
 40
8.0
  1
165'
 50
88.363344
  7
ROMANS
 72
     4
 11
919779.775438
 21
7260602.676805
 31
0.0
210
0.0
220
0.0
230
1.0
  0
TEXT
  8
11
  6
CONTINUOUS
 62
     7
  5
3CD
 10
919778.542
 20
7260419.472
 30
0.0
 40
8.0
  1
165'
 50
88.363344
  7
ROMANS
 72
     4
 11
919774.924438
 21
7260432.913805
 31
0.0
210
0.0
220
0.0
230
1.0
  0
TEXT
  8
11
  6
CONTINUOUS
 62
     7
  5
3CE
 10
919707.117
 20
7260421.513
 30
0.0
 40
8.0
  1
165'
 50
88.363344
  7
ROMANS
 72
     4
 11
919703.499438
 21
7260434.954805
 31
0.0
210
0.0
220
0.0
230
1.0
  0
TEXT
  8
11
  6
CONTINUOUS
 62
     7
  5
3CF
 10
919701.471
 20
7260223.893
 30
0.0
 40
8.0
  1
200.34'
 50
88.363344
  7
ROMANS
 72
     4
 11
919698.196171
 21
7260249.32991
 31
0.0
210
0.0
220
0.0
230
1.0
  0
TEXT
  8
11
  6
CONTINUOUS
 62
     7
  5
3D0
 10
919772.895
 20
7260221.851
 30
0.0
 40
8.0
  1
200.02'
 50
88.363344
  7
ROMANS
 72
     4
 11
919769.620171
 21
7260247.28791
 31
0.0
210
0.0
220
0.0
230
1.0
  0
TEXT
  8
11
  6
CONTINUOUS
 62
     7
  5
3D1
 10
919991.7
 20
7260240.286
 30
0.0
 40
8.0
  1
215'
 50
88.363344
  7
ROMANS
 72
     4
 11
919988.082438
 21
7260253.727805
 31
0.0
210
0.0
220
0.0
230
1.0
  0
TEXT
  8
11
  6
CONTINUOUS
 62
     7
  5
3D2
 10
919483.736
 20
7260242.889
 30
0.0
 40
8.0
  1
215.35'
 50
88.363344
  7
ROMANS
 72
     4
 11
919480.461171
 21
7260268.32591
 31
0.0
210
0.0
220
0.0
230
1.0
  0
TEXT
  8
11
  6
CONTINUOUS
 62
     7
  5
3D3
 10
919574.873
 20
7260149.011
 30
0.0
 40
8.0
  1
215'
 50
358.363344
  7
ROMANS
 72
     4
 11
919588.314805
 21
7260152.628562
 31
0.0
210
0.0
220
0.0
230
1.0
  0
TEXT
  8
11
  6
CONTINUOUS
 62
     7
  5
3D4
 10
919873.324
 20
7260140.483
 30
0.0
 40
8.0
  1
215'
 50
358.363344
  7
ROMANS
 72
     4
 11
919886.765805
 21
7260144.100562
 31
0.0
210
0.0
220
0.0
230
1.0
  0
TEXT
  8
11
  6
CONTINUOUS
 62
     7
  5
3D5
 10
919770.311
 20
7260142.649
 30
0.0
 40
8.0
  1
R=15'
 50
43.363344
  7
ROMANS
 72
     4
 11
919780.165845
 21
7260157.458285
 31
0.0
210
0.0
220
0.0
230
1.0
  0
TEXT
  8
11
  6
CONTINUOUS
 62
     7
  5
3D6
 10
919674.173
 20
7260166.074
 30
0.0
 40
8.0
  1
R=15'
 50
313.363344
  7
ROMANS
 72
     4
 11
919688.982285
 21
7260156.219155
 31
0.0
210
0.0
220
0.0
230
1.0
  0
TEXT
  8
11
  6
CONTINUOUS
 62
     7
  5
3D7
 10
919707.221
 20
7261159.909
 30
0.0
 40
8.0
  1
R=15'
 50
43.363344
  7
ROMANS
 72
     4
 11
919717.075845
 21
7261174.718285
 31
0.0
210
0.0
220
0.0
230
1.0
  0
TEXT
  8
11
  6
CONTINUOUS
 62
     7
  5
3D8
 10
919794.799
 20
7261179.562
 30
0.0
 40
8.0
  1
R=15'
 50
313.363344
  7
ROMANS
 72
     4
 11
919809.608285
 21
7261169.707155
 31
0.0
210
0.0
220
0.0
230
1.0
  0
TEXT
  8
11
  6
CONTINUOUS
 62
     7
  5
3D9
 10
919599.305
 20
7261183.22
 30
0.0
 40
8.0
  1
214.99'
 50
358.363344
  7
ROMANS
 72
     4
 11
919624.74191
 21
7261186.494829
 31
0.0
210
0.0
220
0.0
230
1.0
  0
TEXT
  8
11
  6
CONTINUOUS
 62
     7
  5
3DA
 10
919891.505
 20
7261175.794
 30
0.0
 40
8.0
  1
215.01'
 50
358.363344
  7
ROMANS
 72
     4
 11
919916.94191
 21
7261179.068829
 31
0.0
210
0.0
220
0.0
230
1.0
  0
TEXT
  8
11
  6
CONTINUOUS
 62
     7
  5
3DB
 10
919598.688
 20
7261023.263
 30
0.0
 40
8.0
  1
230'
 50
358.363344
  7
ROMANS
 72
     4
 11
919612.129805
 21
7261026.880562
 31
0.0
210
0.0
220
0.0
230
1.0
  0
TEXT
  8
11
  6
CONTINUOUS
 62
     7
  5
3DC
 10
919894.308
 20
7261014.816
 30
0.0
 40
8.0
  1
230'
 50
358.363344
  7
ROMANS
 72
     4
 11
919907.749805
 21
7261018.433562
 31
0.0
210
0.0
220
0.0
230
1.0
  0
TEXT
  8
11
  6
CONTINUOUS
 62
     7
  5
3DD
 10
919590.818
 20
7260350.394
 30
0.0
 40
8.0
  1
230'
 50
358.363344
  7
ROMANS
 72
     4
 11
919604.259805
 21
7260354.011562
 31
0.0
210
0.0
220
0.0
230
1.0
  0
TEXT
  8
11
  6
CONTINUOUS
 62
     7
  5
3DE
 10
919876.786
 20
7260342.223
 30
0.0
 40
8.0
  1
230'
 50
358.363344
  7
ROMANS
 72
     4
 11
919890.227805
 21
7260345.840562
 31
0.0
210
0.0
220
0.0
230
1.0
  0
TEXT
  8
10
  6
CONTINUOUS
 62
   134
  5
3DF
 10
919879.232
 20
7260246.257
 30
0.0
 40
13.999
  1
1
 50
358.363344
  7
ROMANS
 72
     4
 11
919881.763976
 21
7260253.187511
 31
0.0
210
0.0
220
0.0
230
1.0
  0
TEXT
  8
10
  6
CONTINUOUS
 62
   134
  5
3E0
 10
919882.567
 20
7260424.274
 30
0.0
 40
14.0
  1
2
 50
358.363344
  7
ROMANS
 72
     4
 11
919886.849262
 21
7260431.154501
 31
0.0
210
0.0
220
0.0
230
1.0
  0
TEXT
  8
10
  6
CONTINUOUS
 62
   134
  5
3E1
 10
919887.301
 20
7260589.966
 30
0.0
 40
14.0
  1
3
 50
358.363344
  7
ROMANS
 72
     4
 11
919891.583262
 21
7260596.846501
 31
0.0
210
0.0
220
0.0
230
1.0
  0
TEXT
  8
10
  6
CONTINUOUS
 62
   134
  5
3E2
 10
919891.976
 20
7260753.613
 30
0.0
 40
14.0
  1
4
 50
358.363344
  7
ROMANS
 72
     4
 11
919896.258262
 21
7260760.493501
 31
0.0
210
0.0
220
0.0
230
1.0
  0
TEXT
  8
10
  6
CONTINUOUS
 62
   134
  5
3E3
 10
919896.81
 20
7260923.397
 30
0.0
 40
14.0
  1
5
 50
358.363344
  7
ROMANS
 72
     4
 11
919901.110255
 21
7260930.276987
 31
0.0
210
0.0
220
0.0
230
1.0
  0
TEXT
  8
10
  6
CONTINUOUS
 62
   134
  5
3E4
 10
919901.351
 20
7261093.19
 30
0.0
 40
14.0
  1
6
 50
358.363344
  7
ROMANS
 72
     4
 11
919905.961128
 21
7261100.061133
 31
0.0
210
0.0
220
0.0
230
1.0
  0
TEXT
  8
10
  6
CONTINUOUS
 62
   134
  5
3E5
 10
919613.488
 20
7261101.414
 30
0.0
 40
14.0
  1
7
 50
358.363344
  7
ROMANS
 72
     4
 11
919617.770262
 21
7261108.294501
 31
0.0
210
0.0
220
0.0
230
1.0
  0
TEXT
  8
10
  6
CONTINUOUS
 62
   134
  5
3E6
 10
919608.287
 20
7260919.358
 30
0.0
 40
14.0
  1
8
 50
358.363344
  7
ROMANS
 72
     4
 11
919612.569262
 21
7260926.238501
 31
0.0
210
0.0
220
0.0
230
1.0
  0
TEXT
  8
10
  6
CONTINUOUS
 62
   134
  5
3E7
 10
919603.669
 20
7260757.759
 30
0.0
 40
14.0
  1
9
 50
358.363344
  7
ROMANS
 72
     4
 11
919607.951262
 21
7260764.639501
 31
0.0
210
0.0
220
0.0
230
1.0
  0
TEXT
  8
10
  6
CONTINUOUS
 62
   134
  5
3E8
 10
919591.499
 20
7260596.374
 30
0.0
 40
14.0
  1
10
 50
358.363344
  7
ROMANS
 72
     4
 11
919603.334179
 21
7260603.038693
 31
0.0
210
0.0
220
0.0
230
1.0
  0
TEXT
  8
10
  6
CONTINUOUS
 62
   134
  5
3E9
 10
919589.129
 20
7260432.662
 30
0.0
 40
14.0
  1
11
 50
358.363344
  7
ROMANS
 72
     4
 11
919598.65912
 21
7260439.392555
 31
0.0
210
0.0
220
0.0
230
1.0
  0
TEXT
  8
10
  6
CONTINUOUS
 62
   134
  5
3EA
 10
919582.237
 20
7260252.702
 30
0.0
 40
14.0
  1
12
 50
358.363344
  7
ROMANS
 72
     4
 11
919593.516406
 21
7260259.382573
 31
0.0
210
0.0
220
0.0
230
1.0
  0
TEXT
  8
11
  6
CONTINUOUS
 62
     7
  5
3EB
 10
919727.984
 20
7260161.966
 30
0.0
 40
8.0
  1
60'
 50
358.363344
  7
ROMANS
 72
     4
 11
919737.427437
 21
7260165.697807
 31
0.0
210
0.0
220
0.0
230
1.0
  0
TEXT
  8
11
  6
CONTINUOUS
 62
     7
  5
3EC
 10
919742.865
 20
7261209.462
 30
0.0
 40
8.0
  1
520'
 50
358.363344
  7
ROMANS
 72
     4
 11
919756.306805
 21
7261213.079562
 31
0.0
210
0.0
220
0.0
230
1.0
  0
TEXT
  8
11
  6
CONTINUOUS
 62
     7
  5
3ED
 10
919756.596
 20
7261163.304
 30
0.0
 40
8.0
  1
60'
 50
358.363344
  7
ROMANS
 72
     4
 11
919766.039437
 21
7261167.035807
 31
0.0
210
0.0
220
0.0
230
1.0
  0
TEXT
  8
11
  6
CONTINUOUS
 62
     7
  5
3EE
 10
919523.784
 20
7261200.821
 30
0.0
 40
8.0
  1
30'
 50
88.363344
  7
ROMANS
 72
     4
 11
919520.052193
 21
7261210.264437
 31
0.0
210
0.0
220
0.0
230
1.0
  0
TEXT
  8
11
  6
CONTINUOUS
 62
     7
  5
3EF
 10
920052.809
 20
7260135.334
 30
0.0
 40
8.0
  1
160'
 50
358.363344
  7
ROMANS
 72
     1
 11
920066.136561
 21
7260134.953194
 31
0.0
210
0.0
220
0.0
230
1.0
  0
LINE
  8
21
  6
DASHDOT
 62
     7
  5
3F0
 10
919772.696
 20
7260515.424
 30
0.0
 11
920002.589
 21
7260508.422
 31
0.0
  0
LINE
  8
21
  6
DASHDOT
 62
     7
  5
3F1
 10
919773.0
 20
7260525.418
 30
0.0
 11
920002.893
 21
7260518.416
 31
0.0
  0
LINE
  8
21
  6
DASHDOT
 62
     7
  5
3F2
 10
919773.0
 20
7260525.418
 30
0.0
 11
919772.696
 21
7260515.424
 31
0.0
  0
LINE
  8
21
  6
DASHDOT
 62
     7
  5
3F3
 10
920002.893
 20
7260518.416
 30
0.0
 11
920002.589
 21
7260508.422
 31
0.0
  0
LINE
  8
21
  6
DASHDOT
 62
     7
  5
3F4
 10
919483.144
 20
7260534.555
 30
0.0
 11
919713.037
 21
7260527.553
 31
0.0
  0
LINE
  8
21
  6
DASHDOT
 62
     7
  5
3F5
 10
919482.839
 20
7260524.559
 30
0.0
 11
919712.732
 21
7260517.557
 31
0.0
  0
LINE
  8
21
  6
DASHDOT
 62
     7
  5
3F6
 10
919713.037
 20
7260527.553
 30
0.0
 11
919712.732
 21
7260517.557
 31
0.0
  0
LINE
  8
21
  6
DASHDOT
 62
     7
  5
3F7
 10
919483.144
 20
7260534.555
 30
0.0
 11
919482.839
 21
7260524.559
 31
0.0
  0
LINE
  8
21
  6
DASHDOT
 62
     7
  5
3F8
 10
919503.296
 20
7261196.248
 30
0.0
 11
919471.413
 21
7260149.385
 31
0.0
  0
LINE
  8
21
  6
DASHDOT
 62
     7
  5
3F9
 10
919513.139
 20
7261190.952
 30
0.0
 11
919481.408
 21
7260149.081
 31
0.0
  0
LINE
  8
21
  6
DASHDOT
 62
     7
  5
3FA
 10
919503.296
 20
7261196.248
 30
0.0
 11
919513.292
 21
7261195.949
 31
0.0
  0
LINE
  8
21
  6
DASHDOT
 62
     7
  5
3FB
 10
919481.408
 20
7260149.081
 30
0.0
 11
919471.413
 21
7260149.385
 31
0.0
  0
LINE
  8
21
  6
DASHDOT
 62
     7
  5
3FC
 10
919727.954
 20
7261017.327
 30
0.0
 11
919727.802
 21
7261012.329
 31
0.0
  0
LINE
  8
21
  6
DASHDOT
 62
     7
  5
3FD
 10
919727.954
 20
7261017.327
 30
0.0
 11
919508.056
 21
7261024.024
 31
0.0
  0
LINE
  8
21
  6
DASHDOT
 62
     7
  5
3FE
 10
919727.802
 20
7261012.329
 30
0.0
 11
919507.904
 21
7261019.026
 31
0.0
  0
LINE
  8
21
  6
DASHDOT
 62
     7
  5
3FF
 10
920017.81
 20
7261008.189
 30
0.0
 11
919787.918
 21
7261015.191
 31
0.0
  0
LINE
  8
21
  6
DASHDOT
 62
     7
  5
400
 10
920017.659
 20
7261003.191
 30
0.0
 11
919787.765
 21
7261010.193
 31
0.0
  0
LINE
  8
21
  6
DASHDOT
 62
     7
  5
401
 10
919787.765
 20
7261010.193
 30
0.0
 11
919787.918
 21
7261015.191
 31
0.0
  0
LINE
  8
21
  6
DASHDOT
 62
     7
  5
402
 10
920023.064
 20
7261180.676
 30
0.0
 11
919991.174
 21
7260133.596
 31
0.0
  0
LINE
  8
21
  6
DASHDOT
 62
     7
  5
403
 10
920002.921
 20
7261176.278
 30
0.0
 11
919971.182
 21
7260134.202
 31
0.0
  0
LINE
  8
21
  6
DASHDOT
 62
     7
  5
404
 10
920003.073
 20
7261181.275
 30
0.0
 11
920023.064
 21
7261180.676
 31
0.0
  0
LINE
  8
21
  6
DASHDOT
 62
     7
  5
405
 10
919971.182
 20
7260134.202
 30
0.0
 11
919991.174
 21
7260133.593
 31
0.0
  0
LINE
  8
21
  6
DASHDOT
 62
     7
  5
406
 10
919503.296
 20
7261196.248
 30
0.0
 11
919718.201
 21
7261189.81
 31
0.0
  0
LINE
  8
21
  6
DASHDOT
 62
     7
  5
407
 10
920023.064
 20
7261180.676
 30
0.0
 11
919808.153
 21
7261187.115
 31
0.0
  0
LINE
  8
21
  6
DASHDOT
 62
     7
  5
408
 10
919513.139
 20
7261190.952
 30
0.0
 11
919729.219
 21
7261184.478
 31
0.0
  0
LINE
  8
21
  6
DASHDOT
 62
     7
  5
409
 10
920002.921
 20
7261176.278
 30
0.0
 11
919796.827
 21
7261182.452
 31
0.0
  0
ARC
  8
21
  6
DASHDOT
 62
     7
  5
40A
 10
919717.74384
 20
7261174.817278
 30
0.0
 40
15.0
 50
40.092972
 51
88.283925
210
0.0
220
0.0
230
1.0
  0
ARC
  8
21
  6
DASHDOT
 62
     7
  5
40B
 10
919807.703502
 20
7261172.121827
 30
0.0
 40
15.0
 50
88.283933
 51
136.474417
210
0.0
220
0.0
230
1.0
  0
LINE
  8
21
  6
DASHDOT
 62
     7
  5
40C
 10
919471.413
 20
7260149.385
 30
0.0
 11
919686.315
 21
7260142.856
 31
0.0
  0
LINE
  8
21
  6
DASHDOT
 62
     7
  5
40D
 10
919991.174
 20
7260133.593
 30
0.0
 11
919776.272
 21
7260140.124
 31
0.0
  0
LINE
  8
21
  6
DASHDOT
 62
     7
  5
40E
 10
919472.023
 20
7260169.375
 30
0.0
 11
919701.916
 21
7260162.391
 31
0.0
  0
LINE
  8
21
  6
DASHDOT
 62
     7
  5
40F
 10
919991.783
 20
7260153.582
 30
0.0
 11
919761.888
 21
7260160.569
 31
0.0
  0
ARC
  8
21
  6
DASHDOT
 62
     7
  5
410
 10
919686.770427
 20
7260157.849
 30
0.0
 40
15.0
 50
268.259947
 51
358.255506
210
0.0
220
0.0
230
1.0
  0
ARC
  8
21
  6
DASHDOT
 62
     7
  5
411
 10
919776.729045
 20
7260155.116561
 30
0.0
 40
15.0
 50
178.255508
 51
268.259944
210
0.0
220
0.0
230
1.0
  0
LINE
  8
21
  6
DASHDOT
 62
     7
  5
412
 10
919701.916
 20
7260162.391
 30
0.0
 11
919701.764
 21
7260157.392
 31
0.0
  0
LINE
  8
21
  6
DASHDOT
 62
     7
  5
413
 10
919761.888
 20
7260160.569
 30
0.0
 11
919761.736
 21
7260155.572
 31
0.0
  0
LINE
  8
21
  6
DASHDOT
 62
     7
  5
414
 10
919488.076
 20
7260696.48
 30
0.0
 11
919717.969
 21
7260689.478
 31
0.0
  0
LINE
  8
21
  6
DASHDOT
 62
     7
  5
415
 10
919777.872
 20
7260685.345
 30
0.0
 11
920007.764
 21
7260678.342
 31
0.0
  0
LINE
  8
21
  6
DASHDOT
 62
     7
  5
416
 10
919777.932
 20
7260687.343
 30
0.0
 11
920007.825
 21
7260680.341
 31
0.0
  0
LINE
  8
21
  6
DASHDOT
 62
     7
  5
417
 10
919717.969
 20
7260689.478
 30
0.0
 11
919717.908
 21
7260687.479
 31
0.0
  0
LINE
  8
21
  6
DASHDOT
 62
     7
  5
418
 10
919777.932
 20
7260687.343
 30
0.0
 11
919777.872
 21
7260685.345
 31
0.0
  0
TEXT
  8
19
  6
CONTINUOUS
 62
     1
  5
419
 10
919750.615
 20
7260525.122
 30
0.0
 40
24.0
  1
GENOA AVE
 50
88.363344
  7
ROMANC
 72
     4
 11
919742.068596
 21
7260646.163474
 31
0.0
210
0.0
220
0.0
230
1.0
  0
TEXT
  8
19
  6
CONTINUOUS
 62
     1
  5
41A
 10
919689.028
 20
7261192.556
 30
0.0
 40
24.0
  1
57TH ST
 50
358.363344
  7
ROMANC
 72
     4
 11
919776.827041
 21
7261202.052233
 31
0.0
210
0.0
220
0.0
230
1.0
  0
SOLID
  8
21
  6
DASHDOT
 62
     7
  5
41B
 10
919482.222
 20
7260175.01
 30
0.0
 11
919482.05
 21
7260169.013
 31
0.0
 12
919488.219
 22
7260174.839
 32
0.0
 13
919488.047
 23
7260168.841
 33
0.0
  0
POLYLINE
  8
21
  6
DASHDOT
 62
     7
  5
41C
 66
     1
 10
0.0
 20
0.0
 30
0.0
 70
     1
  0
VERTEX
  8
21
  6
DASHDOT
 62
     7
  5
41D
 10
919964.114
 20
7260162.336
 30
0.0
  0
VERTEX
  8
21
  6
DASHDOT
 62
     7
  5
41E
 10
919963.886
 20
7260154.338
 30
0.0
  0
VERTEX
  8
21
  6
DASHDOT
 62
     7
  5
41F
 10
919971.882
 20
7260154.11
 30
0.0
  0
VERTEX
  8
21
  6
DASHDOT
 62
     7
  5
420
 10
919972.112
 20
7260162.107
 30
0.0
  0
VERTEX
  8
21
  6
DASHDOT
 62
     7
  5
421
 10
919964.114
 20
7260162.336
 30
0.0
  0
SEQEND
  8
21
  6
DASHDOT
 62
     7
  5
422
  0
POLYLINE
  8
21
  6
DASHDOT
 62
     7
  5
423
 66
     1
 10
0.0
 20
0.0
 30
0.0
 70
     1
  0
VERTEX
  8
21
  6
DASHDOT
 62
     7
  5
424
 10
919974.844
 20
7260522.38
 30
0.0
  0
VERTEX
  8
21
  6
DASHDOT
 62
     7
  5
425
 10
919974.615
 20
7260514.383
 30
0.0
  0
VERTEX
  8
21
  6
DASHDOT
 62
     7
  5
426
 10
919982.612
 20
7260514.155
 30
0.0
  0
VERTEX
  8
21
  6
DASHDOT
 62
     7
  5
427
 10
919982.84
 20
7260522.151
 30
0.0
  0
VERTEX
  8
21
  6
DASHDOT
 62
     7
  5
428
 10
919974.844
 20
7260522.38
 30
0.0
  0
SEQEND
  8
21
  6
DASHDOT
 62
     7
  5
429
  0
SOLID
  8
21
  6
DASHDOT
 62
     7
  5
42A
 10
919976.614
 20
7260514.326
 30
0.0
 11
919976.442
 21
7260508.329
 31
0.0
 12
919982.612
 22
7260514.155
 32
0.0
 13
919982.441
 23
7260508.158
 33
0.0
  0
POLYLINE
  8
21
  6
DASHDOT
 62
     7
  5
42B
 66
     1
 10
0.0
 20
0.0
 30
0.0
 70
     1
  0
VERTEX
  8
21
  6
DASHDOT
 62
     7
  5
42C
 10
919493.292
 20
7260537.313
 30
0.0
  0
VERTEX
  8
21
  6
DASHDOT
 62
     7
  5
42D
 10
919493.063
 20
7260529.316
 30
0.0
  0
VERTEX
  8
21
  6
DASHDOT
 62
     7
  5
42E
 10
919501.059
 20
7260529.088
 30
0.0
  0
VERTEX
  8
21
  6
DASHDOT
 62
     7
  5
42F
 10
919501.288
 20
7260537.084
 30
0.0
  0
VERTEX
  8
21
  6
DASHDOT
 62
     7
  5
430
 10
919493.292
 20
7260537.313
 30
0.0
  0
SEQEND
  8
21
  6
DASHDOT
 62
     7
  5
431
  0
SOLID
  8
21
  6
DASHDOT
 62
     7
  5
432
 10
919986.674
 20
7260843.972
 30
0.0
 11
919986.502
 21
7260837.974
 31
0.0
 12
919992.672
 22
7260843.799
 32
0.0
 13
919992.501
 23
7260837.802
 33
0.0
  0
POLYLINE
  8
21
  6
DASHDOT
 62
     7
  5
433
 66
     1
 10
0.0
 20
0.0
 30
0.0
 70
     1
  0
VERTEX
  8
21
  6
DASHDOT
 62
     7
  5
434
 10
919995.019
 20
7261176.49
 30
0.0
  0
VERTEX
  8
21
  6
DASHDOT
 62
     7
  5
435
 10
919994.79
 20
7261168.493
 30
0.0
  0
VERTEX
  8
21
  6
DASHDOT
 62
     7
  5
436
 10
920002.787
 20
7261168.264
 30
0.0
  0
VERTEX
  8
21
  6
DASHDOT
 62
     7
  5
437
 10
920003.016
 20
7261176.261
 30
0.0
  0
VERTEX
  8
21
  6
DASHDOT
 62
     7
  5
438
 10
919995.019
 20
7261176.49
 30
0.0
  0
SEQEND
  8
21
  6
DASHDOT
 62
     7
  5
439
  0
SOLID
  8
21
  6
DASHDOT
 62
     7
  5
43A
 10
919992.023
 20
7261009.906
 30
0.0
 11
919991.851
 21
7261003.91
 31
0.0
 12
919998.02
 22
7261009.735
 32
0.0
 13
919997.848
 23
7261003.737
 33
0.0
  0
SOLID
  8
21
  6
DASHDOT
 62
     7
  5
43B
 10
919508.056
 20
7261024.024
 30
0.0
 11
919507.885
 21
7261018.026
 31
0.0
 12
919514.053
 22
7261023.853
 32
0.0
 13
919513.881
 23
7261017.855
 33
0.0
  0
POLYLINE
  8
21
  6
DASHDOT
 62
     7
  5
43C
 66
     1
 10
0.0
 20
0.0
 30
0.0
 70
     1
  0
VERTEX
  8
21
  6
DASHDOT
 62
     7
  5
43D
 10
919514.708
 20
7261195.988
 30
0.0
  0
VERTEX
  8
21
  6
DASHDOT
 62
     7
  5
43E
 10
919514.479
 20
7261187.991
 30
0.0
  0
VERTEX
  8
21
  6
DASHDOT
 62
     7
  5
43F
 10
919522.476
 20
7261187.763
 30
0.0
  0
VERTEX
  8
21
  6
DASHDOT
 62
     7
  5
440
 10
919522.705
 20
7261195.76
 30
0.0
  0
VERTEX
  8
21
  6
DASHDOT
 62
     7
  5
441
 10
919514.708
 20
7261195.988
 30
0.0
  0
SEQEND
  8
21
  6
DASHDOT
 62
     7
  5
442
  0
LINE
  8
7
  6
CONTINUOUS
 62
     7
  5
443
 10
920084.896
 20
7259218.479
 30
0.0
 11
920079.588
 21
7259054.793
 31
0.0
  0
LINE
  8
7
  6
CONTINUOUS
 62
     7
  5
444
 10
920327.176
 20
7258517.668
 30
0.0
 11
920330.757
 21
7258627.609
 31
0.0
  0
TEXT
  8
13
  6
CONTINUOUS
 62
    14
  5
445
 10
919554.493
 20
7258465.325
 30
0.0
 40
8.0
  1
V6599 P054
 50
88.142444
  7
txt
 72
     4
 11
919551.74158
 21
7258503.888452
 31
0.0
210
0.0
220
0.0
230
1.0
  0
SOLID
  8
25
  6
CONTINUOUS
 62
   212
  5
446
 10
919543.097
 20
7258560.373
 30
0.0
 11
919563.086
 21
7258559.724
 31
0.0
 12
919536.612
 22
7258360.427
 32
0.0
 13
919556.602
 23
7258359.778
 33
0.0
  0
TEXT
  8
13
  6
CONTINUOUS
 62
    14
  5
447
 10
919857.826
 20
7260213.083
 30
0.0
 40
8.0
  1
V6399 P325
 50
88.363344
  7
ROMANS
 72
     4
 11
919854.92278
 21
7260251.525602
 31
0.0
210
0.0
220
0.0
230
1.0
  0
TEXT
  8
13
  6
CONTINUOUS
 62
    14
  5
448
 10
919400.19
 20
7261218.047
 30
0.0
 40
8.0
  1
V6545 P336
 50
358.363344
  7
ROMANS
 72
     4
 11
919438.80853
 21
7261220.945193
 31
0.0
210
0.0
220
0.0
230
1.0
  0
SOLID
  8
21
  6
DASHDOT
 62
     7
  5
449
 10
919504.217
 20
7261226.46
 30
0.0
 11
919503.304
 21
7261196.473
 31
0.0
 12
919354.283
 22
7261230.952
 32
0.0
 13
919353.372
 23
7261200.966
 33
0.0
  0
POLYLINE
  8
21
  6
DASHDOT
 62
     7
  5
44A
 66
     1
 10
0.0
 20
0.0
 30
0.0
 70
     1
  0
VERTEX
  8
21
  6
DASHDOT
 62
     7
  5
44B
 10
919471.421
 20
7260149.607
 30
0.0
  0
VERTEX
  8
21
  6
DASHDOT
 62
     7
  5
44C
 10
919461.425
 20
7260149.909
 30
0.0
  0
VERTEX
  8
21
  6
DASHDOT
 62
     7
  5
44D
 10
919472.699
 20
7260520.088
 30
0.0
  0
VERTEX
  8
21
  6
DASHDOT
 62
     7
  5
44E
 10
919332.765
 20
7260524.349
 30
0.0
  0
VERTEX
  8
21
  6
DASHDOT
 62
     7
  5
44F
 10
919333.373
 20
7260544.34
 30
0.0
  0
VERTEX
  8
21
  6
DASHDOT
 62
     7
  5
450
 10
919473.309
 20
7260540.079
 30
0.0
  0
VERTEX
  8
21
  6
DASHDOT
 62
     7
  5
451
 10
919482.745
 20
7260849.934
 30
0.0
  0
VERTEX
  8
21
  6
DASHDOT
 62
     7
  5
452
 10
919342.811
 20
7260854.196
 30
0.0
  0
VERTEX
  8
21
  6
DASHDOT
 62
     7
  5
453
 10
919343.419
 20
7260874.186
 30
0.0
  0
VERTEX
  8
21
  6
DASHDOT
 62
     7
  5
454
 10
919483.355
 20
7260869.925
 30
0.0
  0
VERTEX
  8
21
  6
DASHDOT
 62
     7
  5
455
 10
919493.308
 20
7261196.774
 30
0.0
  0
VERTEX
  8
21
  6
DASHDOT
 62
     7
  5
456
 10
919503.304
 20
7261196.473
 30
0.0
  0
VERTEX
  8
21
  6
DASHDOT
 62
     7
  5
457
 10
919471.422
 20
7260149.61
 30
0.0
  0
VERTEX
  8
21
  6
DASHDOT
 62
     7
  5
458
 10
919471.421
 20
7260149.607
 30
0.0
  0
SEQEND
  8
21
  6
DASHDOT
 62
     7
  5
459
  0
TEXT
  8
13
  6
CONTINUOUS
 62
    14
  5
45A
 10
919462.726
 20
7260762.966
 30
0.0
 40
8.0
  1
V6545 P333
 50
88.363344
  7
ROMANS
 72
     4
 11
919459.822466
 21
7260801.397607
 31
0.0
210
0.0
220
0.0
230
1.0
  0
TEXT
  8
13
  6
CONTINUOUS
 62
    14
  5
45B
 10
919464.591
 20
7260563.322
 30
0.0
 40
8.0
  1
V6545 P341
 50
88.363344
  7
ROMANS
 72
     4
 11
919461.658905
 21
7260600.754014
 31
0.0
210
0.0
220
0.0
230
1.0
  0
POLYLINE
  8
25
  6
CONTINUOUS
 62
   212
  5
45C
 66
     1
 10
0.0
 20
0.0
 30
0.0
 70
     1
  0
VERTEX
  8
25
  6
CONTINUOUS
 62
   212
  5
45D
 10
920003.047
 20
7260523.416
 30
0.0
  0
VERTEX
  8
25
  6
CONTINUOUS
 62
   212
  5
45E
 10
920003.351
 20
7260533.411
 30
0.0
  0
VERTEX
  8
25
  6
CONTINUOUS
 62
   212
  5
45F
 10
919983.361
 20
7260534.019
 30
0.0
  0
VERTEX
  8
25
  6
CONTINUOUS
 62
   212
  5
460
 10
919983.664
 20
7260544.014
 30
0.0
  0
VERTEX
  8
25
  6
CONTINUOUS
 62
   212
  5
461
 10
919853.725
 20
7260547.962
 30
0.0
  0
VERTEX
  8
25
  6
CONTINUOUS
 62
   212
  5
462
 10
919841.244
 20
7260138.152
 30
0.0
  0
VERTEX
  8
25
  6
CONTINUOUS
 62
   212
  5
463
 10
919991.175
 20
7260133.598
 30
0.0
  0
VERTEX
  8
25
  6
CONTINUOUS
 62
   212
  5
464
 10
919991.784
 20
7260153.587
 30
0.0
  0
VERTEX
  8
25
  6
CONTINUOUS
 62
   212
  5
465
 10
919861.843
 20
7260157.534
 30
0.0
  0
VERTEX
  8
25
  6
CONTINUOUS
 62
   212
  5
466
 10
919873.107
 20
7260527.363
 30
0.0
  0
VERTEX
  8
25
  6
CONTINUOUS
 62
   212
  5
467
 10
920003.047
 20
7260523.416
 30
0.0
  0
SEQEND
  8
25
  6
CONTINUOUS
 62
   212
  5
468
  0
LINE
  8
7
  6
CONTINUOUS
 62
     7
  5
469
 10
920283.536
 20
7259211.964
 30
0.0
 11
920279.977
 21
7259102.232
 31
0.0
  0
TEXT
  8
11
  6
CONTINUOUS
 62
     7
  5
46A
 10
920278.678
 20
7259138.379
 30
0.0
 40
8.0
  1
109.79'
 50
88.142444
  7
txt
 72
     4
 11
920275.388559
 21
7259160.353174
 31
0.0
210
0.0
220
0.0
230
1.0
  0
TEXT
  8
11
  6
CONTINUOUS
 62
     7
  5
46B
 10
920327.51
 20
7259116.497
 30
0.0
 40
8.0
  1
123.5'
 50
8.142444
  7
txt
 72
     4
 11
920344.995625
 21
7259123.039525
 31
0.0
210
0.0
220
0.0
230
1.0
  0
TEXT
  8
10
  6
CONTINUOUS
 62
   134
  5
46C
 10
920381.67
 20
7259313.02
 30
0.0
 40
13.999
  1
23
 50
358.142444
  7
txt
 72
     4
 11
920393.574764
 21
7259319.637587
 31
0.0
210
0.0
220
0.0
230
1.0
  0
TEXT
  8
10
  6
CONTINUOUS
 62
   134
  5
46D
 10
920459.118
 20
7259181.016
 30
0.0
 40
13.999
  1
9
 50
358.142444
  7
txt
 72
     4
 11
920463.696615
 21
7259187.871188
 31
0.0
210
0.0
220
0.0
230
1.0
  0
TEXT
  8
22
  6
CONTINUOUS
 62
     3
  5
46F
 10
920330.167
 20
7259264.036
 30
0.0
 40
8.0
  1
10'UUE
 50
358.142444
  7
txt
 72
     4
 11
920348.962845
 21
7259267.42852
 31
0.0
210
0.0
220
0.0
230
1.0
  0
TEXT
  8
15
  6
CONTINUOUS
 62
    30
  5
470
 10
920229.137
 20
7259255.721
 30
0.0
 40
50.0
  1
SPUR 327
 50
28.142444
  7
ROMANC
 72
     4
 11
920401.157222
 21
7259376.086889
 31
0.0
210
0.0
220
0.0
230
1.0
  0
TEXT
  8
15
  6
CONTINUOUS
 62
    30
  5
471
 10
920242.841
 20
7259165.755
 30
0.0
 40
50.0
  1
BUSINESS
 50
28.142444
  7
ROMANC
 72
     4
 11
920408.087405
 21
7259282.497557
 31
0.0
210
0.0
220
0.0
230
1.0
  0
TEXT
  8
15
  6
CONTINUOUS
 62
    30
  5
472
 10
920328.989
 20
7259126.772
 30
0.0
 40
50.0
  1
PARK
 50
28.142444
  7
ROMANC
 72
     4
 11
920413.181517
 21
7259200.158618
 31
0.0
210
0.0
220
0.0
230
1.0
  0
LINE
  8
7
  6
CONTINUOUS
 62
     7
  5
473
 10
920022.519
 20
7258993.886
 30
0.0
 11
920012.752
 21
7258694.041
 31
0.0
  0
TEXT
  8
11
  6
CONTINUOUS
 62
     7
  5
474
 10
920042.451
 20
7258695.156
 30
0.0
 40
8.0
  1
75'
 50
358.142444
  7
txt
 72
     4
 11
920052.244578
 21
7258698.840479
 31
0.0
210
0.0
220
0.0
230
1.0
  0
TEXT
  8
11
  6
CONTINUOUS
 62
     7
  5
475
 10
920024.424
 20
7258762.178
 30
0.0
 40
8.0
  1
150'
 50
88.142444
  7
txt
 72
     4
 11
920020.821173
 21
7258774.489254
 31
0.0
210
0.0
220
0.0
230
1.0
  0
TEXT
  8
10
  6
CONTINUOUS
 62
   134
  5
476
 10
920041.045
 20
7258766.83
 30
0.0
 40
13.999
  1
22
 50
358.142444
  7
txt
 72
     4
 11
920052.949764
 21
7258773.447587
 31
0.0
210
0.0
220
0.0
230
1.0
  0
LINE
  8
7
  6
CONTINUOUS
 62
     7
  5
477
 10
920087.71
 20
7258691.559
 30
0.0
 11
920092.595
 21
7258841.495
 31
0.0
  0
TEXT
  8
11
  6
CONTINUOUS
 62
     7
  5
478
 10
920087.821
 20
7258759.087
 30
0.0
 40
8.0
  1
150'
 50
88.142444
  7
ROMANS
 72
     4
 11
920084.255321
 21
7258772.543652
 31
0.0
210
0.0
220
0.0
230
1.0
  0
TEXT
  8
11
  6
CONTINUOUS
 62
     7
  5
479
 10
920046.94
 20
7258833.547
 30
0.0
 40
8.0
  1
75'
 50
358.142444
  7
txt
 72
     4
 11
920056.733578
 21
7258837.231479
 31
0.0
210
0.0
220
0.0
230
1.0
  0
TEXT
  8
11
  6
CONTINUOUS
 62
     7
  5
47A
 10
917790.16
 20
7260355.524
 30
0.0
 40
8.0
  1
R=215'
 50
358.189844
  7
ROMANS
 11
917790.286352
 21
7260359.522004
 31
0.0
210
0.0
220
0.0
230
1.0
 73
     2
  0
TEXT
  8
11
  6
CONTINUOUS
 62
     7
  5
47B
 10
918212.527
 20
7260344.187
 30
0.0
 40
8.0
  1
R=215'
 50
358.189844
  7
ROMANS
 11
918212.653352
 21
7260348.185004
 31
0.0
210
0.0
220
0.0
230
1.0
 73
     2
  0
TEXT
  8
11
  6
CONTINUOUS
 62
     7
  5
47C
 10
917771.55
 20
7259766.09
 30
0.0
 40
8.0
  1
R=215'
 50
358.189844
  7
ROMANS
 11
917771.676352
 21
7259770.088004
 31
0.0
210
0.0
220
0.0
230
1.0
 73
     2
  0
TEXT
  8
11
  6
CONTINUOUS
 62
     7
  5
47D
 10
920511.56
 20
7260150.846
 30
0.0
 40
8.0
  1
R=30'
 50
313.363344
  7
ROMANS
 11
920514.468056
 21
7260153.59249
 31
0.0
210
0.0
220
0.0
230
1.0
 73
     2
  0
TEXT
  8
11
  6
CONTINUOUS
 62
     7
  5
47E
 10
919567.997
 20
7263051.124
 30
0.0
 40
8.0
  1
27.31'
 50
323.363344
  7
txt
 72
     4
 11
919585.042049
 21
7263043.433124
 31
0.0
210
0.0
220
0.0
230
1.0
  0
LINE
  8
7
  6
CONTINUOUS
 62
     7
  5
47F
 10
920126.375
 20
7258496.223
 30
0.0
 11
920121.326
 21
7258341.305
 31
0.0
  0
TEXT
  8
11
  6
CONTINUOUS
 62
     7
  5
480
 10
920131.294
 20
7258485.748
 30
0.0
 40
8.0
  1
30'
 50
358.142444
  7
txt
 72
     4
 11
920141.024611
 21
7258489.434522
 31
0.0
210
0.0
220
0.0
230
1.0
  0
TEXT
  8
11
  6
CONTINUOUS
 62
     7
  5
481
 10
920126.675
 20
7258343.333
 30
0.0
 40
8.0
  1
30'
 50
358.142444
  7
txt
 72
     4
 11
920136.405611
 21
7258347.019522
 31
0.0
210
0.0
220
0.0
230
1.0
  0
TEXT
  8
11
  6
CONTINUOUS
 62
     7
  5
482
 10
920120.52
 20
7258408.779
 30
0.0
 40
8.0
  1
155'
 50
88.142444
  7
txt
 72
     4
 11
920116.918211
 21
7258421.122238
 31
0.0
210
0.0
220
0.0
230
1.0
  0
TEXT
  8
10
  6
CONTINUOUS
 62
   134
  5
483
 10
920127.414
 20
7258410.373
 30
0.0
 40
13.999
  1
24
 50
358.142444
  7
txt
 72
     4
 11
920139.64859
 21
7258416.97989
 31
0.0
210
0.0
220
0.0
230
1.0
  0
POLYLINE
  8
25
  6
CONTINUOUS
 62
   212
  5
484
 66
     1
 10
0.0
 20
0.0
 30
0.0
  0
VERTEX
  8
25
  6
CONTINUOUS
 62
   212
  5
485
 10
920151.569
 20
7258348.321
 30
0.0
  0
VERTEX
  8
25
  6
CONTINUOUS
 62
   212
  5
486
 10
919883.692
 20
7258357.087
 30
0.0
  0
VERTEX
  8
25
  6
CONTINUOUS
 62
   212
  5
487
 10
919883.691927
 20
7258357.086765
 30
0.0
 42
0.278184
  0
VERTEX
  8
25
  6
CONTINUOUS
 62
   212
  5
488
 10
919896.689994
 20
7258348.657258
 30
0.0
  0
VERTEX
  8
25
  6
CONTINUOUS
 62
   212
  5
489
 10
919896.69
 20
7258348.658
 30
0.0
  0
VERTEX
  8
25
  6
CONTINUOUS
 62
   212
  5
48A
 10
920151.304
 20
7258340.326
 30
0.0
  0
VERTEX
  8
25
  6
CONTINUOUS
 62
   212
  5
48B
 10
920151.569
 20
7258348.321
 30
0.0
  0
SEQEND
  8
25
  6
CONTINUOUS
 62
   212
  5
48C
  0
TEXT
  8
13
  6
CONTINUOUS
 62
    14
  5
48D
 10
920018.966
 20
7258344.693
 30
0.0
 40
8.0
  1
V6863 P166
 50
358.142444
  7
txt
 72
     4
 11
920055.956279
 21
7258347.495441
 31
0.0
210
0.0
220
0.0
230
1.0
  0
TEXT
  8
22
  6
CONTINUOUS
 62
     3
  5
48E
 10
919852.835
 20
7258359.491
 30
0.0
 40
6.0
  1
ORD. 2000-00057 (STREET CLOSED)
 50
358.142444
  7
txt
 72
     4
 11
919938.277372
 21
7258359.721525
 31
0.0
210
0.0
220
0.0
230
1.0
  0
TEXT
  8
15
  6
CONTINUOUS
 62
    30
  5
48F
 10
919638.911
 20
7260769.446
 30
0.0
 40
50.0
  1
HERON
 50
28.363344
  7
ROMANC
 72
     4
 11
919747.587103
 21
7260856.527747
 31
0.0
210
0.0
220
0.0
230
1.0
  0
TEXT
  8
22
  6
CONTINUOUS
 62
     3
  5
490
 10
918620.68
 20
7259106.759
 30
0.0
 40
6.0
  1
20'UUE
 50
358.142444
  7
txt
 72
     4
 11
918635.839325
 21
7259109.268933
 31
0.0
210
0.0
220
0.0
230
1.0
  0
POLYLINE
  8
21
  6
DASHDOT
 62
     7
  5
491
 66
     1
 10
0.0
 20
0.0
 30
0.0
  0
VERTEX
  8
21
  6
DASHDOT
 62
     7
  5
492
 10
918895.543
 20
7259110.908
 30
0.0
  0
VERTEX
  8
21
  6
DASHDOT
 62
     7
  5
493
 10
918607.696
 20
7259120.327
 30
0.0
  0
VERTEX
  8
21
  6
DASHDOT
 62
     7
  5
494
 10
918607.048
 20
7259100.338
 30
0.0
  0
VERTEX
  8
21
  6
DASHDOT
 62
     7
  5
495
 10
918879.902
 20
7259091.41
 30
0.0
  0
VERTEX
  8
21
  6
DASHDOT
 62
     7
  5
496
 10
918879.901828
 20
7259091.409538
 30
0.0
 42
0.414116
  0
VERTEX
  8
21
  6
DASHDOT
 62
     7
  5
497
 10
918895.380005
 20
7259105.910437
 30
0.0
  0
VERTEX
  8
21
  6
DASHDOT
 62
     7
  5
498
 10
918895.38
 20
7259105.911
 30
0.0
  0
VERTEX
  8
21
  6
DASHDOT
 62
     7
  5
499
 10
918895.543
 20
7259110.908
 30
0.0
  0
SEQEND
  8
21
  6
DASHDOT
 62
     7
  5
49A
  0
TEXT
  8
13
  6
CONTINUOUS
 62
    14
  5
49B
 10
918719.79
 20
7259102.5
 30
0.0
 40
8.0
  1
V6908 P312
 50
358.159025
  7
txt
 72
     1
 11
918756.996785
 21
7259101.304094
 31
0.0
210
0.0
220
0.0
230
1.0
  0
LINE
  8
21
  6
DASHDOT
 62
     7
  5
49C
 10
918944.401
 20
7259685.562
 30
0.0
 11
918923.972
 21
7259059.958
 31
0.0
  0
LINE
  8
6
  6
CONTINUOUS
 62
     7
  5
49D
 10
917998.102
 20
7259666.646
 30
0.0
 11
917968.326
 21
7258748.558
 31
0.0
  0
LINE
  8
6
  6
CONTINUOUS
 62
     7
  5
49E
 10
918027.438
 20
7259119.315
 30
0.0
 11
918012.93
 21
7259134.801
 31
0.0
  0
POLYLINE
  8
6
  6
CONTINUOUS
 62
     7
  5
49F
 66
     1
 10
0.0
 20
0.0
 30
0.0
  0
VERTEX
  8
6
  6
CONTINUOUS
 62
     7
  5
4A0
 10
918012.93
 20
7259134.801
 30
0.0
  0
VERTEX
  8
6
  6
CONTINUOUS
 62
     7
  5
4A1
 10
918025.282
 20
7259515.68
 30
0.0
  0
VERTEX
  8
6
  6
CONTINUOUS
 62
     7
  5
4A2
 10
918035.645
 20
7259665.417
 30
0.0
  0
VERTEX
  8
6
  6
CONTINUOUS
 62
     7
  5
4A3
 10
918053.136
 20
7259664.846
 30
0.0
  0
SEQEND
  8
6
  6
CONTINUOUS
 62
     7
  5
4A4
  0
LINE
  8
6
  6
CONTINUOUS
 62
     7
  5
4A5
 10
918017.799
 20
7259284.962
 30
0.0
 11
918317.638
 21
7259275.15
 31
0.0
  0
LINE
  8
6
  6
CONTINUOUS
 62
     7
  5
4A6
 10
918317.638
 20
7259275.15
 30
0.0
 11
918337.087
 21
7259874.834
 31
0.0
  0
POLYLINE
  8
21
  6
DASHDOT
 62
     7
  5
4A7
 66
     1
 10
0.0
 20
0.0
 30
0.0
 70
     1
  0
VERTEX
  8
21
  6
DASHDOT
 62
     7
  5
4A8
 10
918331.079
 20
7259874.678
 30
0.0
  0
VERTEX
  8
21
  6
DASHDOT
 62
     7
  5
4A9
 10
918337.087
 20
7259874.834
 30
0.0
  0
VERTEX
  8
21
  6
DASHDOT
 62
     7
  5
4AA
 10
918317.638
 20
7259275.15
 30
0.0
  0
VERTEX
  8
21
  6
DASHDOT
 62
     7
  5
4AB
 10
918311.643
 20
7259275.346
 30
0.0
  0
SEQEND
  8
21
  6
DASHDOT
 62
     7
  5
4AC
  0
POLYLINE
  8
21
  6
DASHDOT
 62
     7
  5
4AD
 66
     1
 10
0.0
 20
0.0
 30
0.0
 70
     1
  0
VERTEX
  8
21
  6
DASHDOT
 62
     7
  5
4AE
 10
918017.994
 20
7259290.959
 30
0.0
  0
VERTEX
  8
21
  6
DASHDOT
 62
     7
  5
4AF
 10
918018.156
 20
7259295.955
 30
0.0
  0
VERTEX
  8
21
  6
DASHDOT
 62
     7
  5
4B0
 10
918317.995
 20
7259286.143
 30
0.0
  0
VERTEX
  8
21
  6
DASHDOT
 62
     7
  5
4B1
 10
918317.834
 20
7259281.147
 30
0.0
  0
SEQEND
  8
21
  6
DASHDOT
 62
     7
  5
4B2
  0
SOLID
  8
21
  6
DASHDOT
 62
     7
  5
4B3
 10
918311.839
 20
7259281.343
 30
0.0
 11
918312.098
 21
7259289.339
 31
0.0
 12
918303.843
 22
7259281.602
 32
0.0
 13
918304.103
 23
7259289.598
 33
0.0
  0
SOLID
  8
21
  6
DASHDOT
 62
     7
  5
4B4
 10
918096.141
 20
7259050.928
 30
0.0
 11
918096.337
 21
7259056.925
 31
0.0
 12
918090.146
 22
7259051.124
 32
0.0
 13
918090.342
 23
7259057.121
 33
0.0
  0
TEXT
  8
22
  6
CONTINUOUS
 62
     3
  5
4B5
 10
918271.317
 20
7259301.304
 30
0.0
 40
6.0
  1
8'x8'
 50
358.125828
  7
txt
210
0.0
220
0.0
230
1.0
  0
TEXT
  8
22
  6
CONTINUOUS
 62
     3
  5
4B6
 10
918271.023
 20
7259292.308
 30
0.0
 40
6.0
  1
SEE-SPS
 50
358.125828
  7
txt
210
0.0
220
0.0
230
1.0
  0
TEXT
  8
22
  6
CONTINUOUS
 62
     3
  5
4B7
 10
918314.733
 20
7259268.193
 30
0.0
 40
6.0
  1
6'x6'
 50
358.125828
  7
txt
210
0.0
220
0.0
230
1.0
  0
TEXT
  8
22
  6
CONTINUOUS
 62
     3
  5
4B8
 10
918314.438
 20
7259259.198
 30
0.0
 40
6.0
  1
SEE-LPL
 50
358.125828
  7
txt
210
0.0
220
0.0
230
1.0
  0
TEXT
  8
11
  6
CONTINUOUS
 62
     7
  5
4B9
 10
918042.174
 20
7259083.119
 30
0.0
 40
8.0
  1
60'
 50
88.142444
  7
txt
 72
     4
 11
918038.48132
 21
7259092.659711
 31
0.0
210
0.0
220
0.0
230
1.0
  0
TEXT
  8
11
  6
CONTINUOUS
 62
     7
  5
4BA
 10
918029.463
 20
7259125.154
 30
0.0
 40
8.0
  1
21.22'
 50
43.142444
  7
txt
 72
     4
 11
918040.033747
 21
7259140.542665
 31
0.0
210
0.0
220
0.0
230
1.0
  0
TEXT
  8
11
  6
CONTINUOUS
 62
     7
  5
4BB
 10
917989.976
 20
7259142.792
 30
0.0
 40
8.0
  1
32'
 50
358.142444
  7
txt
 72
     4
 11
917999.738594
 21
7259146.477484
 31
0.0
210
0.0
220
0.0
230
1.0
  0
TEXT
  8
11
  6
CONTINUOUS
 62
     7
  5
4BC
 10
918299.718
 20
7259114.235
 30
0.0
 40
8.0
  1
580'
 50
358.142444
  7
txt
 72
     4
 11
918313.446509
 21
7259117.791862
 31
0.0
210
0.0
220
0.0
230
1.0
  0
TEXT
  8
11
  6
CONTINUOUS
 62
     7
  5
4BD
 10
918001.731
 20
7259656.111
 30
0.0
 40
8.0
  1
37.5'
 50
358.142444
  7
txt
 72
     4
 11
918017.536417
 21
7259659.600505
 31
0.0
210
0.0
220
0.0
230
1.0
  0
TEXT
  8
11
  6
CONTINUOUS
 62
     7
  5
4BE
 10
918037.813
 20
7259654.941
 30
0.0
 40
8.0
  1
17.5'
 50
358.142444
  7
txt
 72
     4
 11
918052.202162
 21
7259658.476436
 31
0.0
210
0.0
220
0.0
230
1.0
  0
TEXT
  8
11
  6
CONTINUOUS
 62
     7
  5
4BF
 10
917984.563
 20
7259339.849
 30
0.0
 40
8.0
  1
576.08'
 50
88.142444
  7
txt
 72
     4
 11
917981.325682
 21
7259363.430329
 31
0.0
210
0.0
220
0.0
230
1.0
  0
TEXT
  8
11
  6
CONTINUOUS
 62
     7
  5
4C0
 10
918024.904
 20
7259192.675
 30
0.0
 40
8.0
  1
150.24'
 50
88.142444
  7
txt
 72
     4
 11
918021.631966
 21
7259215.185892
 31
0.0
210
0.0
220
0.0
230
1.0
  0
TEXT
  8
11
  6
CONTINUOUS
 62
     7
  5
4C1
 10
918041.426
 20
7259605.705
 30
0.0
 40
8.0
  1
150.1'
 50
86.142444
  7
txt
 72
     4
 11
918038.564361
 21
7259622.722074
 31
0.0
210
0.0
220
0.0
230
1.0
  0
POLYLINE
  8
21
  6
DASHDOT
 62
     7
  5
4C2
 66
     1
 10
0.0
 20
0.0
 30
0.0
 70
     1
  0
VERTEX
  8
21
  6
DASHDOT
 62
     7
  5
4C3
 10
918055.648
 20
7259664.763
 30
0.0
  0
VERTEX
  8
21
  6
DASHDOT
 62
     7
  5
4C4
 10
918035.645
 20
7259665.417
 30
0.0
  0
VERTEX
  8
21
  6
DASHDOT
 62
     7
  5
4C5
 10
918025.282
 20
7259515.68
 30
0.0
  0
VERTEX
  8
21
  6
DASHDOT
 62
     7
  5
4C6
 10
918017.799
 20
7259284.962
 30
0.0
  0
VERTEX
  8
21
  6
DASHDOT
 62
     7
  5
4C7
 10
918037.789
 20
7259284.307
 30
0.0
  0
VERTEX
  8
21
  6
DASHDOT
 62
     7
  5
4C8
 10
918045.259
 20
7259514.652
 30
0.0
  0
SEQEND
  8
21
  6
DASHDOT
 62
     7
  5
4C9
  0
POLYLINE
  8
21
  6
DASHDOT
 62
     7
  5
4CA
 66
     1
 10
0.0
 20
0.0
 30
0.0
  0
VERTEX
  8
21
  6
DASHDOT
 62
     7
  5
4CB
 10
918053.136
 20
7259664.846
 30
0.0
  0
VERTEX
  8
21
  6
DASHDOT
 62
     7
  5
4CC
 10
918035.645
 20
7259665.417
 30
0.0
  0
VERTEX
  8
21
  6
DASHDOT
 62
     7
  5
4CD
 10
918025.282
 20
7259515.68
 30
0.0
  0
VERTEX
  8
21
  6
DASHDOT
 62
     7
  5
4CE
 10
918017.799
 20
7259284.962
 30
0.0
  0
VERTEX
  8
21
  6
DASHDOT
 62
     7
  5
4CF
 10
918077.767
 20
7259282.998
 30
0.0
  0
VERTEX
  8
21
  6
DASHDOT
 62
     7
  5
4D0
 10
918085.215
 20
7259512.626
 30
0.0
  0
VERTEX
  8
21
  6
DASHDOT
 62
     7
  5
4D1
 10
918098.185
 20
7259700.045
 30
0.0
  0
VERTEX
  8
21
  6
DASHDOT
 62
     7
  5
4D2
 10
918200.848
 20
7259796.26
 30
0.0
  0
VERTEX
  8
21
  6
DASHDOT
 62
     7
  5
4D3
 10
918334.653
 20
7259799.746
 30
0.0
  0
VERTEX
  8
21
  6
DASHDOT
 62
     7
  5
4D4
 10
918337.087
 20
7259874.834
 30
0.0
  0
VERTEX
  8
21
  6
DASHDOT
 62
     7
  5
4D5
 10
918262.464
 20
7259872.891
 30
0.0
  0
VERTEX
  8
21
  6
DASHDOT
 62
     7
  5
4D6
 10
918262.463894
 20
7259872.890319
 30
0.0
 42
0.397358
  0
VERTEX
  8
21
  6
DASHDOT
 62
     7
  5
4D7
 10
918053.135155
 20
7259664.845344
 30
0.0
  0
SEQEND
  8
21
  6
DASHDOT
 62
     7
  5
4D8
  0
TEXT
  8
22
  6
CONTINUOUS
 62
     3
  5
4D9
 10
918254.208
 20
7259786.873
 30
0.0
 40
6.0
  1
133.85'
 50
1.142444
  7
txt
 72
     4
 11
918270.821871
 21
7259790.204911
 31
0.0
210
0.0
220
0.0
230
1.0
  0
TEXT
  8
22
  6
CONTINUOUS
 62
     3
  5
4DA
 10
918144.214
 20
7259730.058
 30
0.0
 40
6.0
  1
142.66'
 50
43.142444
  7
txt
 72
     4
 11
918154.226687
 21
7259743.553156
 31
0.0
210
0.0
220
0.0
230
1.0
  0
TEXT
  8
11
  6
CONTINUOUS
 62
     7
  5
4DB
 10
918109.297
 20
7259788.081
 30
0.0
 40
8.0
  1
295.08'
 50
43.142444
  7
txt
 72
     4
 11
918123.659039
 21
7259807.022765
 31
0.0
210
0.0
220
0.0
230
1.0
  0
TEXT
  8
11
  6
CONTINUOUS
 62
     7
  5
4DC
 10
918101.81
 20
7259800.602
 30
0.0
 40
8.0
  1
R=215'
 50
43.142444
  7
txt
 72
     4
 11
918113.300114
 21
7259816.852271
 31
0.0
210
0.0
220
0.0
230
1.0
  0
TEXT
  8
11
  6
CONTINUOUS
 62
     7
  5
4DD
 10
918283.412
 20
7259863.858
 30
0.0
 40
8.0
  1
74.65'
 50
1.142444
  7
txt
 72
     4
 11
918303.012335
 21
7259868.249666
 31
0.0
210
0.0
220
0.0
230
1.0
  0
ARC
  8
6
  6
CONTINUOUS
 62
     7
  5
4DE
 10
918268.024953
 20
7259657.962251
 30
0.0
 40
215.0
 50
91.482142
 51
178.165397
210
0.0
220
0.0
230
1.0
  0
LINE
  8
6
  6
CONTINUOUS
 62
     7
  5
4DF
 10
918262.464
 20
7259872.891
 30
0.0
 11
918337.087
 21
7259874.834
 31
0.0
  0
TEXT
  8
22
  6
CONTINUOUS
 62
     3
  5
4E0
 10
918238.066
 20
7259861.079
 30
0.0
 40
6.0
  1
20' UUE
 50
358.142444
  7
txt
210
0.0
220
0.0
230
1.0
  0
TEXT
  8
22
  6
CONTINUOUS
 62
     3
  5
4E1
 10
918196.991
 20
7259826.967
 30
0.0
 40
6.0
  1
75' DRAINAGE EASEMENT
 50
358.142444
  7
txt
210
0.0
220
0.0
230
1.0
  0
TEXT
  8
22
  6
CONTINUOUS
 62
     3
  5
4E2
 10
918318.299
 20
7259542.314
 30
0.0
 40
6.0
  1
6' UUE-LPL
 50
88.142444
  7
txt
210
0.0
220
0.0
230
1.0
  0
TEXT
  8
11
  6
CONTINUOUS
 62
     7
  5
4E3
 10
918326.771
 20
7259599.435
 30
0.0
 40
8.0
  1
600'
 50
88.142444
  7
txt
 72
     4
 11
918323.206941
 21
7259612.941626
 31
0.0
210
0.0
220
0.0
230
1.0
  0
TEXT
  8
22
  6
CONTINUOUS
 62
     3
  5
4E4
 10
918037.656
 20
7259469.185
 30
0.0
 40
6.0
  1
20' UUE
 50
88.142444
  7
txt
210
0.0
220
0.0
230
1.0
  0
TEXT
  8
22
  6
CONTINUOUS
 62
     3
  5
4E5
 10
918064.085
 20
7259454.155
 30
0.0
 40
6.0
  1
60' DRAINAGE EASEMENT
 50
88.142444
  7
txt
210
0.0
220
0.0
230
1.0
  0
TEXT
  8
10
  6
CONTINUOUS
 62
   134
  5
4E6
 10
918146.688
 20
7259525.087
 30
0.0
 40
13.999
  1
TRACT A
 50
358.142444
  7
txt
 72
     4
 11
918194.285997
 21
7259530.546991
 31
0.0
210
0.0
220
0.0
230
1.0
  0
POLYLINE
  8
21
  6
DASHDOT
 62
     7
  5
4E7
 66
     1
 10
0.0
 20
0.0
 30
0.0
  0
VERTEX
  8
21
  6
DASHDOT
 62
     7
  5
4E8
 10
918335.917
 20
7259874.804
 30
0.0
  0
VERTEX
  8
21
  6
DASHDOT
 62
     7
  5
4E9
 10
918262.464
 20
7259872.891
 30
0.0
  0
VERTEX
  8
21
  6
DASHDOT
 62
     7
  5
4EA
 10
918262.463899
 20
7259872.89032
 30
0.0
 42
0.109163
  0
VERTEX
  8
21
  6
DASHDOT
 62
     7
  5
4EB
 10
918172.42233
 20
7259850.537271
 30
0.0
  0
VERTEX
  8
21
  6
DASHDOT
 62
     7
  5
4EC
 10
918172.421
 20
7259850.537
 30
0.0
  0
VERTEX
  8
21
  6
DASHDOT
 62
     7
  5
4ED
 10
918336.439
 20
7259854.811
 30
0.0
  0
VERTEX
  8
21
  6
DASHDOT
 62
     7
  5
4EE
 10
918337.087
 20
7259874.834
 30
0.0
  0
VERTEX
  8
21
  6
DASHDOT
 62
     7
  5
4EF
 10
918335.917
 20
7259874.804
 30
0.0
  0
SEQEND
  8
21
  6
DASHDOT
 62
     7
  5
4F0
  0
TEXT
  8
11
  6
CONTINUOUS
 62
     7
  5
4F1
 10
918031.341
 20
7259379.533
 30
0.0
 40
8.0
  1
230.84'
 50
88.142444
  7
txt
 72
     4
 11
918028.114898
 21
7259403.460147
 31
0.0
210
0.0
220
0.0
230
1.0
  0
TEXT
  8
11
  6
CONTINUOUS
 62
     7
  5
4F2
 10
918163.038
 20
7259281.639
 30
0.0
 40
8.0
  1
300'
 50
358.142444
  7
txt
 72
     4
 11
918176.734526
 21
7259285.1969
 31
0.0
210
0.0
220
0.0
230
1.0
  0
TEXT
  8
22
  6
CONTINUOUS
 62
     3
  5
4F3
 10
918031.9
 20
7259307.678
 30
0.0
 40
6.0
  1
8'x8'
 50
358.125828
  7
txt
210
0.0
220
0.0
230
1.0
  0
TEXT
  8
22
  6
CONTINUOUS
 62
     3
  5
4F4
 10
918031.606
 20
7259298.682
 30
0.0
 40
6.0
  1
SEE-SPS
 50
358.125828
  7
txt
210
0.0
220
0.0
230
1.0
  0
SOLID
  8
21
  6
DASHDOT
 62
     7
  5
4F5
 10
918025.989
 20
7259290.698
 30
0.0
 11
918026.25
 21
7259298.695
 31
0.0
 12
918017.994
 22
7259290.959
 32
0.0
 13
918018.253
 23
7259298.953
 33
0.0
  0
POLYLINE
  8
21
  6
DASHDOT
 62
     7
  5
4F6
 66
     1
 10
0.0
 20
0.0
 30
0.0
 70
     1
  0
VERTEX
  8
21
  6
DASHDOT
 62
     7
  5
4F7
 10
918017.799
 20
7259284.962
 30
0.0
  0
VERTEX
  8
21
  6
DASHDOT
 62
     7
  5
4F8
 10
918317.638
 20
7259275.15
 30
0.0
  0
VERTEX
  8
21
  6
DASHDOT
 62
     7
  5
4F9
 10
918317.834
 20
7259281.147
 30
0.0
  0
VERTEX
  8
21
  6
DASHDOT
 62
     7
  5
4FA
 10
918017.994
 20
7259290.959
 30
0.0
  0
SEQEND
  8
21
  6
DASHDOT
 62
     7
  5
4FB
  0
TEXT
  8
22
  6
CONTINUOUS
 62
     3
  5
4FC
 10
918108.626
 20
7259294.983
 30
0.0
 40
6.0
  1
5' UUE-SPS
 50
358.125828
  7
txt
210
0.0
220
0.0
230
1.0
  0
TEXT
  8
22
  6
CONTINUOUS
 62
     3
  5
4FD
 10
918216.815
 20
7259270.956
 30
0.0
 40
6.0
  1
6' UUE-LPL
 50
358.125828
  7
txt
210
0.0
220
0.0
230
1.0
  0
LINE
  8
6
  6
CONTINUOUS
 62
     7
  5
4FE
 10
918337.087
 20
7259874.834
 30
0.0
 11
918735.637
 21
7259885.202
 31
0.0
  0
TEXT
  8
19
  6
CONTINUOUS
 62
     1
  5
4FF
 10
918240.919
 20
7259071.59
 30
0.0
 40
24.0
  1
63RD ST
 50
358.142444
  7
ROMANC
 72
     4
 11
918326.487192
 21
7259080.821177
 31
0.0
210
0.0
220
0.0
230
1.0
  0
TEXT
  8
19
  6
CONTINUOUS
 62
     1
  5
500
 10
918011.179
 20
7259168.692
 30
0.0
 40
24.0
  1
IOLA AVE
 50
88.142444
  7
ROMANC
 72
     4
 11
918002.401047
 21
7259268.234845
 31
0.0
210
0.0
220
0.0
230
1.0
  0
TEXT
  8
19
  6
CONTINUOUS
 62
     1
  5
501
 10
919149.408
 20
7259044.894
 30
0.0
 40
24.0
  1
63RD ST
 50
358.142444
  7
ROMANC
 72
     4
 11
919234.976192
 21
7259054.125177
 31
0.0
210
0.0
220
0.0
230
1.0
  0
TEXT
  8
19
  6
CONTINUOUS
 62
     1
  5
502
 10
919644.791
 20
7259418.312
 30
0.0
 40
24.0
  1
GENOA AVE
 50
88.142444
  7
ROMANC
 72
     4
 11
919636.711326
 21
7259539.385525
 31
0.0
210
0.0
220
0.0
230
1.0
  0
TEXT
  8
15
  6
CONTINUOUS
 62
    30
  5
503
 10
918095.497
 20
7259376.367
 30
0.0
 40
50.0
  1
MEARS
 50
28.142444
  7
ROMANC
 72
     4
 11
918202.600747
 21
7259462.008895
 31
0.0
210
0.0
220
0.0
230
1.0
  0
TEXT
  8
15
  6
CONTINUOUS
 62
    30
  5
504
 10
918110.043
 20
7259299.092
 30
0.0
 40
50.0
  1
MOTORS
 50
28.142444
  7
ROMANC
 72
     4
 11
918237.974337
 21
7259395.874628
 31
0.0
210
0.0
220
0.0
230
1.0
  0
TEXT
  8
11
  6
CONTINUOUS
 62
     7
  5
505
 10
918690.296
 20
7259058.155
 30
0.0
 40
8.0
  1
288'
 50
358.142444
  7
txt
 72
     4
 11
918704.056492
 21
7259061.710825
 31
0.0
210
0.0
220
0.0
230
1.0
  0
TEXT
  8
11
  6
CONTINUOUS
 62
     7
  5
506
 10
918693.965
 20
7259099.145
 30
0.0
 40
8.0
  1
273'
 50
358.142444
  7
txt
 72
     4
 11
918707.756476
 21
7259102.69982
 31
0.0
210
0.0
220
0.0
230
1.0
  0
TEXT
  8
19
  6
CONTINUOUS
 62
     1
  5
507
 10
920605.62
 20
7260579.401
 30
0.0
 40
24.0
  1
FRANKFORD  AVE
 50
88.363344
  7
ROMANC
 72
     4
 11
920599.003073
 21
7260767.970915
 31
0.0
210
0.0
220
0.0
230
1.0
  0
POLYLINE
  8
21
  6
DASHDOT
 62
     7
  5
508
 66
     1
 10
0.0
 20
0.0
 30
0.0
 70
     1
  0
VERTEX
  8
21
  6
DASHDOT
 62
     7
  5
509
 10
918607.042
 20
7259100.348
 30
0.0
  0
VERTEX
  8
21
  6
DASHDOT
 62
     7
  5
50A
 10
918027.438
 20
7259119.314
 30
0.0
  0
VERTEX
  8
21
  6
DASHDOT
 62
     7
  5
50B
 10
918012.93
 20
7259134.8
 30
0.0
  0
VERTEX
  8
21
  6
DASHDOT
 62
     7
  5
50C
 10
918017.799
 20
7259284.961
 30
0.0
  0
VERTEX
  8
21
  6
DASHDOT
 62
     7
  5
50D
 10
918037.789
 20
7259284.306
 30
0.0
  0
VERTEX
  8
21
  6
DASHDOT
 62
     7
  5
50E
 10
918033.039
 20
7259139.131
 30
0.0
  0
VERTEX
  8
21
  6
DASHDOT
 62
     7
  5
50F
 10
918607.696
 20
7259120.327
 30
0.0
  0
SEQEND
  8
21
  6
DASHDOT
 62
     7
  5
510
  0
TEXT
  8
13
  6
CONTINUOUS
 62
    14
  5
511
 10
918367.231
 20
7259115.79
 30
0.0
 40
8.0
  1
V6994 P286
 50
358.142444
  7
txt
 72
     4
 11
918406.016335
 21
7259118.534224
 31
0.0
210
0.0
220
0.0
230
1.0
  0
POLYLINE
  8
21
  6
DASHDOT
 62
     7
  5
512
 66
     1
 10
0.0
 20
0.0
 30
0.0
 70
     1
  0
VERTEX
  8
21
  6
DASHDOT
 62
     7
  5
513
 10
918072.414
 20
7259117.844
 30
0.0
  0
VERTEX
  8
21
  6
DASHDOT
 62
     7
  5
514
 10
918077.77
 20
7259282.996
 30
0.0
  0
VERTEX
  8
21
  6
DASHDOT
 62
     7
  5
515
 10
918017.802
 20
7259284.958
 30
0.0
  0
VERTEX
  8
21
  6
DASHDOT
 62
     7
  5
516
 10
918012.93
 20
7259134.801
 30
0.0
  0
VERTEX
  8
21
  6
DASHDOT
 62
     7
  5
517
 10
918027.438
 20
7259119.315
 30
0.0
  0
VERTEX
  8
21
  6
DASHDOT
 62
     7
  5
518
 10
918072.414
 20
7259117.844
 30
0.0
  0
SEQEND
  8
21
  6
DASHDOT
 62
     7
  5
519
  0
TEXT
  8
13
  6
CONTINUOUS
 62
    14
  5
51A
 10
918061.234
 20
7259169.974
 30
0.0
 40
8.0
  1
V6994 P289
 50
88.142444
  7
txt
 72
     4
 11
918058.489776
 21
7259208.759335
 31
0.0
210
0.0
220
0.0
230
1.0
  0
TEXT
  8
22
  6
CONTINUOUS
 62
     3
  5
51B
 10
918068.82
 20
7259167.257
 30
0.0
 40
6.0
  1
DRAINAGE EASEMENT
 50
88.142444
  7
txt
 72
     4
 11
918067.385006
 21
7259215.560899
 31
0.0
210
0.0
220
0.0
230
1.0
  0
TEXT
  8
22
  6
CONTINUOUS
 62
     3
  5
51C
 10
918157.505
 20
7259123.592
 30
0.0
 40
6.0
  1
20' UTILITY EASEMENT
 50
358.142444
  7
txt
 72
     4
 11
918210.886229
 21
7259124.862327
 31
0.0
210
0.0
220
0.0
230
1.0
  0
LINE
  8
7
  6
CONTINUOUS
 62
     7
  5
51D
 10
919648.041
 20
7258556.941
 30
0.0
 11
919641.556
 21
7258357.005
 31
0.0
  0
TEXT
  8
10
  6
CONTINUOUS
 62
   134
  5
51E
 10
919597.833
 20
7258455.147
 30
0.0
 40
13.999
  1
12A
 50
358.142444
  7
txt
 72
     4
 11
919614.970013
 21
7258461.594896
 31
0.0
210
0.0
220
0.0
230
1.0
  0
TEXT
  8
10
  6
CONTINUOUS
 62
   134
  5
51F
 10
919693.66
 20
7258452.038
 30
0.0
 40
13.999
  1
12B
 50
358.142444
  7
txt
 72
     4
 11
919710.081389
 21
7258458.509105
 31
0.0
210
0.0
220
0.0
230
1.0
  0
TEXT
  8
11
  6
CONTINUOUS
 62
     7
  5
520
 10
919725.515
 20
7258357.014
 30
0.0
 40
8.0
  1
165'
 50
358.142444
  7
txt
 72
     4
 11
919737.668337
 21
7258360.621948
 31
0.0
210
0.0
220
0.0
230
1.0
  0
TEXT
  8
11
  6
CONTINUOUS
 62
     7
  5
521
 10
919599.311
 20
7258361.106
 30
0.0
 40
8.0
  1
70'
 50
358.142444
  7
txt
 72
     4
 11
919609.072595
 21
7258364.791517
 31
0.0
210
0.0
220
0.0
230
1.0
  0
TEXT
  8
11
  6
CONTINUOUS
 62
     7
  5
522
 10
919640.604
 20
7258436.759
 30
0.0
 40
8.0
  1
200.02'
 50
88.142444
  7
txt
 72
     4
 11
919637.369729
 21
7258460.434279
 31
0.0
210
0.0
220
0.0
230
1.0
  0
TEXT
  8
13
  6
CONTINUOUS
 62
    14
  5
523
 10
919615.952
 20
7258368.377
 30
0.0
 40
8.0
  1
V5788 P248
 50
358.142444
  7
ROMANS
 72
     4
 11
919654.394515
 21
7258371.132342
 31
0.0
210
0.0
220
0.0
230
1.0
  0
TEXT
  8
19
  6
CONTINUOUS
 62
     1
  5
524
 10
915807.353
 20
7258458.809
 30
0.0
 40
24.0
  1
66TH ST
 50
358.189844
  7
ROMANC
 72
     4
 11
915895.180395
 21
7258468.039322
 31
0.0
210
0.0
220
0.0
230
1.0
  0
LINE
  8
6
  6
CONTINUOUS
 62
     7
  5
525
 10
920281.763
 20
7261233.276
 30
0.0
 11
920329.698
 21
7262687.544
 31
0.0
  0
LINE
  8
6
  6
CONTINUOUS
 62
     7
  5
526
 10
920594.233
 20
7261238.914
 30
0.0
 11
920641.124
 21
7262678.213
 31
0.0
  0
LINE
  8
6
  6
CONTINUOUS
 62
     7
  5
527
 10
920281.763
 20
7261233.276
 30
0.0
 11
920578.791
 21
7261224.377
 31
0.0
  0
LINE
  8
6
  6
CONTINUOUS
 62
     7
  5
528
 10
920293.888
 20
7261626.089
 30
0.0
 11
920605.74
 21
7261616.746
 31
0.0
  0
LINE
  8
6
  6
CONTINUOUS
 62
     7
  5
529
 10
920297.036
 20
7261728.041
 30
0.0
 11
920608.845
 21
7261718.698
 31
0.0
  0
LINE
  8
6
  6
CONTINUOUS
 62
     7
  5
52A
 10
920314.182
 20
7262216.8
 30
0.0
 11
920623.732
 21
7262207.522
 31
0.0
  0
LINE
  8
6
  6
CONTINUOUS
 62
     7
  5
52B
 10
920318.234
 20
7262339.731
 30
0.0
 11
920627.476
 21
7262330.466
 31
0.0
  0
TEXT
  8
15
  6
CONTINUOUS
 62
    30
  5
52C
 10
920233.954
 20
7261323.018
 30
0.0
 40
50.0
  1
FRANKFORD
 50
28.363344
  7
ROMANC
 72
     4
 11
920441.534144
 21
7261463.495217
 31
0.0
210
0.0
220
0.0
230
1.0
  0
TEXT
  8
15
  6
CONTINUOUS
 62
    30
  5
52D
 10
920312.194
 20
7261280.027
 30
0.0
 40
50.0
  1
BUSINESS
 50
28.363344
  7
ROMANC
 72
     4
 11
920476.989965
 21
7261397.406259
 31
0.0
210
0.0
220
0.0
230
1.0
  0
TEXT
  8
15
  6
CONTINUOUS
 62
    30
  5
52E
 10
920428.891
 20
7261257.796
 30
0.0
 40
50.0
  1
PARK
 50
28.363344
  7
ROMANC
 72
     4
 11
920512.799955
 21
7261331.50667
 31
0.0
210
0.0
220
0.0
230
1.0
  0
TEXT
  8
15
  6
CONTINUOUS
 62
    30
  5
52F
 10
920290.217
 20
7262977.431
 30
0.0
 40
50.0
  1
FRANKFORD
 50
28.363344
  7
ROMANC
 72
     4
 11
920497.797144
 21
7263117.908217
 31
0.0
210
0.0
220
0.0
230
1.0
  0
TEXT
  8
15
  6
CONTINUOUS
 62
    30
  5
530
 10
920368.458
 20
7262934.44
 30
0.0
 40
50.0
  1
BUSINESS
 50
28.363344
  7
ROMANC
 72
     4
 11
920533.253965
 21
7263051.819259
 31
0.0
210
0.0
220
0.0
230
1.0
  0
TEXT
  8
15
  6
CONTINUOUS
 62
    30
  5
531
 10
920485.154
 20
7262912.209
 30
0.0
 40
50.0
  1
PARK
 50
28.363344
  7
ROMANC
 72
     4
 11
920569.062955
 21
7262985.91967
 31
0.0
210
0.0
220
0.0
230
1.0
  0
TEXT
  8
15
  6
CONTINUOUS
 62
    30
  5
532
 10
920222.176
 20
7261915.799
 30
0.0
 40
50.0
  1
FRANKFORD
 50
28.363344
  7
ROMANC
 72
     4
 11
920429.756144
 21
7262056.276217
 31
0.0
210
0.0
220
0.0
230
1.0
  0
TEXT
  8
15
  6
CONTINUOUS
 62
    30
  5
533
 10
920300.416
 20
7261872.808
 30
0.0
 40
50.0
  1
BUSINESS
 50
28.363344
  7
ROMANC
 72
     4
 11
920465.211965
 21
7261990.187259
 31
0.0
210
0.0
220
0.0
230
1.0
  0
TEXT
  8
15
  6
CONTINUOUS
 62
    30
  5
534
 10
920417.112
 20
7261850.577
 30
0.0
 40
50.0
  1
PARK
 50
28.363344
  7
ROMANC
 72
     4
 11
920501.020955
 21
7261924.28767
 31
0.0
210
0.0
220
0.0
230
1.0
  0
TEXT
  8
10
  6
CONTINUOUS
 62
   134
  5
535
 10
920364.874
 20
7261671.641
 30
0.0
 40
13.999
  1
UNSUBDIVIDED
 50
358.363344
  7
ROMANS
 11
920365.273827
 21
7261685.634289
 31
0.0
210
0.0
220
0.0
230
1.0
 73
     3
  0
TEXT
  8
10
  6
CONTINUOUS
 62
   134
  5
536
 10
920447.616
 20
7261996.569
 30
0.0
 40
13.999
  1
6
 50
358.363344
  7
txt
210
0.0
220
0.0
230
1.0
  0
TEXT
  8
10
  6
CONTINUOUS
 62
   134
  5
537
 10
920467.514
 20
7262614.862
 30
0.0
 40
13.999
  1
2
 50
358.363344
  7
txt
210
0.0
220
0.0
230
1.0
  0
TEXT
  8
10
  6
CONTINUOUS
 62
   134
  5
538
 10
920466.982
 20
7262427.142
 30
0.0
 40
13.999
  1
A
 50
358.363344
  7
ROMANS
 72
     4
 11
920471.846024
 21
7262434.005878
 31
0.0
210
0.0
220
0.0
230
1.0
  0
POLYLINE
  8
21
  6
DASHDOT
 62
     7
  5
539
 66
     1
 10
0.0
 20
0.0
 30
0.0
 70
     1
  0
VERTEX
  8
21
  6
DASHDOT
 62
     7
  5
53A
 10
920320.455
 20
7262411.697
 30
0.0
  0
VERTEX
  8
21
  6
DASHDOT
 62
     7
  5
53B
 10
920631.984
 20
7262402.363
 30
0.0
  0
VERTEX
  8
21
  6
DASHDOT
 62
     7
  5
53C
 10
920629.793
 20
7262330.397
 30
0.0
  0
VERTEX
  8
21
  6
DASHDOT
 62
     7
  5
53D
 10
920318.234
 20
7262339.731
 30
0.0
  0
SEQEND
  8
21
  6
DASHDOT
 62
     7
  5
53E
  0
TEXT
  8
22
  6
CONTINUOUS
 62
     3
  5
53F
 10
920378.094
 20
7262399.487
 30
0.0
 40
6.0
  1
200'DRE
 50
358.362944
  7
txt
 72
     4
 11
920396.218339
 21
7262401.970235
 31
0.0
210
0.0
220
0.0
230
1.0
  0
TEXT
  8
22
  6
CONTINUOUS
 62
     3
  5
540
 10
920326.964
 20
7262378.228
 30
0.0
 40
6.0
  1
72'
 50
88.112944
  7
txt
 72
     4
 11
920324.204431
 21
7262385.574855
 31
0.0
210
0.0
220
0.0
230
1.0
  0
TEXT
  8
22
  6
CONTINUOUS
 62
     3
  5
541
 10
920624.921
 20
7262366.354
 30
0.0
 40
6.0
  1
72'
 50
88.112944
  7
txt
 72
     4
 11
920622.161431
 21
7262373.700855
 31
0.0
210
0.0
220
0.0
230
1.0
  0
TEXT
  8
13
  6
CONTINUOUS
 62
    14
  5
542
 10
920431.694
 20
7262226.295
 30
0.0
 40
8.0
  1
V6020 P123
 50
358.362944
  7
txt
 72
     4
 11
920469.145027
 21
7262229.226291
 31
0.0
210
0.0
220
0.0
230
1.0
  0
TEXT
  8
22
  6
CONTINUOUS
 62
     3
  5
543
 10
920449.286
 20
7262282.598
 30
0.0
 40
6.0
  1
200'DRE
 50
358.362944
  7
txt
 72
     4
 11
920467.410339
 21
7262285.081235
 31
0.0
210
0.0
220
0.0
230
1.0
  0
TEXT
  8
22
  6
CONTINUOUS
 62
     3
  5
544
 10
920348.627
 20
7262203.447
 30
0.0
 40
6.0
  1
5'UUE-LPL
 50
358.362944
  7
txt
 72
     4
 11
920371.686324
 21
7262205.789194
 31
0.0
210
0.0
220
0.0
230
1.0
  0
TEXT
  8
22
  6
CONTINUOUS
 62
     3
  5
545
 10
920504.507
 20
7262224.036
 30
0.0
 40
6.0
  1
10'UTIL ESMT
 50
358.362944
  7
txt
 72
     4
 11
920535.24019
 21
7262226.158877
 31
0.0
210
0.0
220
0.0
230
1.0
  0
TEXT
  8
13
  6
CONTINUOUS
 62
    14
  5
546
 10
920432.886
 20
7262259.442
 30
0.0
 40
8.0
  1
V5211 P321
 50
358.362944
  7
txt
 72
     4
 11
920466.371646
 21
7262262.486621
 31
0.0
210
0.0
220
0.0
230
1.0
  0
TEXT
  8
13
  6
CONTINUOUS
 62
    14
  5
547
 10
920420.482
 20
7262199.821
 30
0.0
 40
8.0
  1
V5183 P92
 50
358.362944
  7
txt
 72
     4
 11
920454.030621
 21
7262202.863821
 31
0.0
210
0.0
220
0.0
230
1.0
  0
POLYLINE
  8
21
  6
DASHDOT
 62
     7
  5
548
 66
     1
 10
0.0
 20
0.0
 30
0.0
 70
     1
  0
VERTEX
  8
21
  6
DASHDOT
 62
     7
  5
549
 10
920314.29
 20
7262211.787
 30
0.0
  0
VERTEX
  8
21
  6
DASHDOT
 62
     7
  5
54A
 10
920314.439
 20
7262216.788
 30
0.0
  0
VERTEX
  8
21
  6
DASHDOT
 62
     7
  5
54B
 10
920626.052
 20
7262207.448
 30
0.0
  0
VERTEX
  8
21
  6
DASHDOT
 62
     7
  5
54C
 10
920625.899
 20
7262202.45
 30
0.0
  0
SEQEND
  8
21
  6
DASHDOT
 62
     7
  5
54D
  0
LINE
  8
21
  6
DASHDOT
 62
     7
  5
54E
 10
920318.233
 20
7262339.73
 30
0.0
 11
920338.147
 21
7262339.133
 31
0.0
  0
LINE
  8
21
  6
DASHDOT
 62
     7
  5
54F
 10
920335.91
 20
7262339.201
 30
0.0
 11
920317.027
 21
7261727.443
 31
0.0
  0
LINE
  8
21
  6
DASHDOT
 62
     7
  5
550
 10
920317.027
 20
7261727.443
 30
0.0
 11
920297.036
 21
7261728.041
 31
0.0
  0
LINE
  8
21
  6
DASHDOT
 62
     7
  5
551
 10
920299.35
 20
7261727.972
 30
0.0
 11
920318.233
 21
7262339.73
 31
0.0
  0
TEXT
  8
22
  6
CONTINUOUS
 62
     3
  5
552
 10
920319.477
 20
7262068.405
 30
0.0
 40
6.0
  1
20'UTIL ESMT
 50
86.612944
  7
txt
 72
     4
 11
920318.356403
 21
7262100.248831
 31
0.0
210
0.0
220
0.0
230
1.0
  0
ARC
  8
6
  6
CONTINUOUS
 62
     7
  5
553
 10
920579.239994
 20
7261239.37045
 30
0.0
 40
15.0
 50
268.284028
 51
358.255589
210
0.0
220
0.0
230
1.0
  0
POLYLINE
  8
21
  6
DASHDOT
 62
     7
  5
554
 66
     1
 10
0.0
 20
0.0
 30
0.0
 70
     1
  0
VERTEX
  8
21
  6
DASHDOT
 62
     7
  5
555
 10
920293.888
 20
7261626.089
 30
0.0
  0
VERTEX
  8
21
  6
DASHDOT
 62
     7
  5
556
 10
920605.74
 20
7261616.746
 30
0.0
  0
VERTEX
  8
21
  6
DASHDOT
 62
     7
  5
557
 10
920605.588
 20
7261611.749
 30
0.0
  0
VERTEX
  8
21
  6
DASHDOT
 62
     7
  5
558
 10
920293.739
 20
7261621.092
 30
0.0
  0
SEQEND
  8
21
  6
DASHDOT
 62
     7
  5
559
  0
POLYLINE
  8
21
  6
DASHDOT
 62
     7
  5
55A
 66
     1
 10
0.0
 20
0.0
 30
0.0
 70
     1
  0
VERTEX
  8
21
  6
DASHDOT
 62
     7
  5
55B
 10
920303.884
 20
7261625.79
 30
0.0
  0
VERTEX
  8
21
  6
DASHDOT
 62
     7
  5
55C
 10
920291.758
 20
7261232.977
 30
0.0
  0
VERTEX
  8
21
  6
DASHDOT
 62
     7
  5
55D
 10
920281.763
 20
7261233.276
 30
0.0
  0
VERTEX
  8
21
  6
DASHDOT
 62
     7
  5
55E
 10
920293.888
 20
7261626.089
 30
0.0
  0
SEQEND
  8
21
  6
DASHDOT
 62
     7
  5
55F
  0
TEXT
  8
22
  6
CONTINUOUS
 62
     3
  5
560
 10
920307.884
 20
7261471.592
 30
0.0
 40
6.0
  1
10'UTILITY EASEMENT-LPL
 50
88.362944
  7
txt
 72
     4
 11
920306.653877
 21
7261533.562436
 31
0.0
210
0.0
220
0.0
230
1.0
  0
TEXT
  8
22
  6
CONTINUOUS
 62
     3
  5
561
 10
920340.194
 20
7261611.51
 30
0.0
 40
6.0
  1
5'UUE-LPL
 50
358.363344
  7
txt
 72
     4
 11
920363.253307
 21
7261613.852355
 31
0.0
210
0.0
220
0.0
230
1.0
  0
TEXT
  8
22
  6
CONTINUOUS
 62
     3
  5
562
 10
920307.471
 20
7261629.509
 30
0.0
 40
6.0
  1
SEE-LPL
 50
88.362944
  7
txt
 72
     4
 11
920305.003934
 21
7261648.199108
 31
0.0
210
0.0
220
0.0
230
1.0
  0
TEXT
  8
22
  6
CONTINUOUS
 62
     3
  5
563
 10
920286.6
 20
7261240.134
 30
0.0
 40
6.0
  1
SEE-LPL
 50
358.362944
  7
txt
 72
     4
 11
920305.290108
 21
7261242.601066
 31
0.0
210
0.0
220
0.0
230
1.0
  0
LINE
  8
6
  6
CONTINUOUS
 62
     7
  5
564
 10
920142.569
 20
7258839.87
 30
0.0
 11
920147.871
 21
7259002.615
 31
0.0
  0
TEXT
  8
10
  6
CONTINUOUS
 62
   134
  5
565
 10
920069.791
 20
7258914.908
 30
0.0
 40
13.999
  1
26
 50
358.142444
  7
txt
 72
     4
 11
920081.365937
 21
7258921.536284
 31
0.0
210
0.0
220
0.0
230
1.0
  0
TEXT
  8
11
  6
CONTINUOUS
 62
     7
  5
566
 10
920029.718
 20
7258911.823
 30
0.0
 40
8.0
  1
150.02'
 50
88.122936
  7
txt
 72
     4
 11
920026.446392
 21
7258934.114123
 31
0.0
210
0.0
220
0.0
230
1.0
  0
TEXT
  8
11
  6
CONTINUOUS
 62
     7
  5
567
 10
920142.047
 20
7258904.821
 30
0.0
 40
8.0
  1
162.83'
 50
88.122936
  7
txt
 72
     4
 11
920138.771265
 21
7258926.986191
 31
0.0
210
0.0
220
0.0
230
1.0
  0
TEXT
  8
11
  6
CONTINUOUS
 62
     7
  5
568
 10
920065.318
 20
7258846.123
 30
0.0
 40
8.0
  1
125'
 50
358.122936
  7
txt
 72
     4
 11
920077.662463
 21
7258849.720586
 31
0.0
210
0.0
220
0.0
230
1.0
  0
TEXT
  8
11
  6
CONTINUOUS
 62
     7
  5
569
 10
920054.848
 20
7258984.325
 30
0.0
 40
8.0
  1
125.65'
 50
358.122936
  7
txt
 72
     4
 11
920077.013191
 21
7258987.600735
 31
0.0
210
0.0
220
0.0
230
1.0
  0
LINE
  8
6
  6
CONTINUOUS
 62
     7
  5
56A
 10
920355.083
 20
7263549.681
 30
0.0
 11
920651.162
 21
7263541.231
 31
0.0
  0
LINE
  8
6
  6
CONTINUOUS
 62
     7
  5
56B
 10
920665.726
 20
7263525.807
 30
0.0
 11
920641.13
 21
7262678.657
 31
0.0
  0
LINE
  8
6
  6
CONTINUOUS
 62
     7
  5
56C
 10
920345.597
 20
7263227.521
 30
0.0
 11
920329.697
 21
7262687.545
 31
0.0
  0
ARC
  8
6
  6
CONTINUOUS
 62
     7
  5
56D
 10
920650.732169
 20
7263526.23716
 30
0.0
 40
15.0
 50
358.356686
 51
88.357942
210
0.0
220
0.0
230
1.0
  0
LINE
  8
7
  6
CONTINUOUS
 62
     7
  5
56E
 10
920355.083
 20
7263549.681
 30
0.0
 11
920345.597
 21
7263227.521
 31
0.0
  0
LINE
  8
6
  6
CONTINUOUS
 62
     7
  5
56F
 10
920355.142
 20
7263551.68
 30
0.0
 11
920355.083
 21
7263549.681
 31
0.0
  0
LINE
  8
7
  6
CONTINUOUS
 62
     7
  5
570
 10
920329.698
 20
7262687.544
 30
0.0
 11
920641.124
 21
7262678.213
 31
0.0
  0
POLYLINE
  8
21
  6
DASHDOT
 62
     7
  5
571
 66
     1
 10
0.0
 20
0.0
 30
0.0
  0
VERTEX
  8
21
  6
DASHDOT
 62
     7
  5
572
 10
920355.083
 20
7263549.681
 30
0.0
  0
VERTEX
  8
21
  6
DASHDOT
 62
     7
  5
573
 10
920329.697
 20
7262687.545
 30
0.0
  0
VERTEX
  8
21
  6
DASHDOT
 62
     7
  5
574
 10
920349.689
 20
7262686.974
 30
0.0
  0
VERTEX
  8
21
  6
DASHDOT
 62
     7
  5
575
 10
920374.486
 20
7263529.119
 30
0.0
  0
VERTEX
  8
21
  6
DASHDOT
 62
     7
  5
576
 10
920665.581
 20
7263520.811
 30
0.0
  0
VERTEX
  8
21
  6
DASHDOT
 62
     7
  5
577
 10
920665.726
 20
7263525.807
 30
0.0
  0
VERTEX
  8
21
  6
DASHDOT
 62
     7
  5
578
 10
920665.726
 20
7263525.807
 30
0.0
 42
0.41422
  0
VERTEX
  8
21
  6
DASHDOT
 62
     7
  5
579
 10
920651.162
 20
7263541.231
 30
0.0
  0
VERTEX
  8
21
  6
DASHDOT
 62
     7
  5
57A
 10
920651.162
 20
7263541.231
 30
0.0
  0
VERTEX
  8
21
  6
DASHDOT
 62
     7
  5
57B
 10
920355.083
 20
7263549.681
 30
0.0
  0
SEQEND
  8
21
  6
DASHDOT
 62
     7
  5
57C
  0
LINE
  8
7
  6
CONTINUOUS
 62
     7
  5
57D
 10
920344.414
 20
7263187.328
 30
0.0
 11
920655.641
 21
7263178.446
 31
0.0
  0
LINE
  8
7
  6
CONTINUOUS
 62
     7
  5
57E
 10
920337.055
 20
7262937.436
 30
0.0
 11
920648.386
 21
7262928.551
 31
0.0
  0
TEXT
  8
22
  6
CONTINUOUS
 62
     3
  5
57F
 10
920366.493
 20
7262940.561
 30
0.0
 40
6.0
  1
20'UTIL ESMT
 50
86.612944
  7
txt
 72
     4
 11
920365.372403
 21
7262972.404831
 31
0.0
210
0.0
220
0.0
230
1.0
  0
TEXT
  8
22
  6
CONTINUOUS
 62
     3
  5
580
 10
920376.012
 20
7263356.725
 30
0.0
 40
6.0
  1
20'UTIL ESMT
 50
86.612944
  7
txt
 72
     4
 11
920374.891403
 21
7263388.568831
 31
0.0
210
0.0
220
0.0
230
1.0
  0
TEXT
  8
22
  6
CONTINUOUS
 62
     3
  5
581
 10
920486.115
 20
7263519.628
 30
0.0
 40
6.0
  1
20'UTIL ESMT
 50
356.612944
  7
txt
 72
     4
 11
920517.958831
 21
7263520.748597
 31
0.0
210
0.0
220
0.0
230
1.0
  0
TEXT
  8
11
  6
CONTINUOUS
 62
     7
  5
582
 10
920481.099
 20
7263172.423
 30
0.0
 40
8.0
  1
311.56'
 50
358.3653
  7
txt
 72
     1
 11
920501.947821
 21
7263179.83126
 31
0.0
210
0.0
220
0.0
230
1.0
 73
     3
  0
TEXT
  8
11
  6
CONTINUOUS
 62
     7
  5
583
 10
920648.367
 20
7263548.56
 30
0.0
 40
8.0
  1
32'
 50
88.336258
  7
txt
 72
     1
 11
920648.646827
 21
7263558.193937
 31
0.0
210
0.0
220
0.0
230
1.0
  0
TEXT
  8
11
  6
CONTINUOUS
 62
     7
  5
584
 10
920641.431
 20
7262792.415
 30
0.0
 40
8.0
  1
250'
 50
88.336953
  7
txt
 72
     1
 11
920641.825868
 21
7262806.015269
 31
0.0
210
0.0
220
0.0
230
1.0
  0
TEXT
  8
11
  6
CONTINUOUS
 62
     7
  5
585
 10
920471.822
 20
7262922.586
 30
0.0
 40
8.0
  1
311.56'
 50
358.365294
  7
txt
 72
     1
 11
920492.670821
 21
7262929.994258
 31
0.0
210
0.0
220
0.0
230
1.0
 73
     3
  0
TEXT
  8
11
  6
CONTINUOUS
 62
     7
  5
586
 10
920649.041
 20
7263054.515
 30
0.0
 40
8.0
  1
250'
 50
88.336953
  7
txt
 72
     1
 11
920649.435868
 21
7263068.115269
 31
0.0
210
0.0
220
0.0
230
1.0
  0
TEXT
  8
11
  6
CONTINUOUS
 62
     7
  5
587
 10
920360.324
 20
7263353.922
 30
0.0
 40
8.0
  1
362.51'
 50
88.313378
  7
txt
 72
     1
 11
920352.976343
 21
7263376.193912
 31
0.0
210
0.0
220
0.0
230
1.0
 73
     3
  0
TEXT
  8
11
  6
CONTINUOUS
 62
     7
  5
588
 10
920657.457
 20
7263344.396
 30
0.0
 40
8.0
  1
347.5'
 50
88.336953
  7
txt
 72
     1
 11
920658.033775
 21
7263364.261629
 31
0.0
210
0.0
220
0.0
230
1.0
  0
TEXT
  8
11
  6
CONTINUOUS
 62
     7
  5
589
 10
920502.36
 20
7263534.473
 30
0.0
 40
8.0
  1
296.2'
 50
358.365242
  7
txt
 72
     1
 11
920521.85438
 21
7263541.919894
 31
0.0
210
0.0
220
0.0
230
1.0
 73
     3
  0
TEXT
  8
11
  6
CONTINUOUS
 62
     7
  5
58A
 10
920471.822
 20
7262672.078
 30
0.0
 40
8.0
  1
311.56'
 50
358.365294
  7
txt
 72
     1
 11
920492.670821
 21
7262679.486258
 31
0.0
210
0.0
220
0.0
230
1.0
 73
     3
  0
TEXT
  8
10
  6
CONTINUOUS
 62
   134
  5
58B
 10
920489.014
 20
7262809.002
 30
0.0
 40
13.999
  1
3
 50
358.283808
  7
txt
 72
     1
 11
920493.695899
 21
7262808.86172
 31
0.0
210
0.0
220
0.0
230
1.0
  0
TEXT
  8
10
  6
CONTINUOUS
 62
   134
  5
58C
 10
920500.221
 20
7263062.984
 30
0.0
 40
13.999
  1
4
 50
358.283808
  7
txt
 72
     1
 11
920505.23375
 21
7263062.833807
 31
0.0
210
0.0
220
0.0
230
1.0
  0
TEXT
  8
10
  6
CONTINUOUS
 62
   134
  5
58D
 10
920512.811
 20
7263369.066
 30
0.0
 40
13.999
  1
5
 50
358.283808
  7
txt
 72
     1
 11
920517.492899
 21
7263368.92572
 31
0.0
210
0.0
220
0.0
230
1.0
  0
TEXT
  8
11
  6
CONTINUOUS
 62
     7
  5
58E
 10
920223.129
 20
7259087.507
 30
0.0
 40
8.0
  1
CH=47.92'
 50
18.097783
  7
txt
 72
     1
 11
920252.736038
 21
7259097.182804
 31
0.0
210
0.0
220
0.0
230
1.0
  0
TEXT
  8
10
  6
CONTINUOUS
 62
   134
  5
58F
 10
920171.525
 20
7259144.028
 30
0.0
 40
13.999
  1
25
 50
358.121547
  7
txt
 72
     1
 11
920183.202721
 21
7259143.645007
 31
0.0
210
0.0
220
0.0
230
1.0
  0
POLYLINE
  8
14
  6
CONTINUOUS
 62
     7
  5
591
 66
     1
 10
0.0
 20
0.0
 30
0.0
  0
VERTEX
  8
14
  6
CONTINUOUS
 62
     7
  5
592
 10
920279.977
 20
7259102.232
 30
0.0
  0
VERTEX
  8
14
  6
CONTINUOUS
 62
     7
  5
593
 10
920283.539
 20
7259211.964
 30
0.0
  0
VERTEX
  8
14
  6
CONTINUOUS
 62
     7
  5
594
 10
920084.896
 20
7259218.479
 30
0.0
  0
VERTEX
  8
14
  6
CONTINUOUS
 62
     7
  5
595
 10
920079.588
 20
7259054.793
 30
0.0
  0
VERTEX
  8
14
  6
CONTINUOUS
 62
     7
  5
596
 10
920079.588022
 20
7259054.793405
 30
0.0
 42
0.071392
  0
VERTEX
  8
14
  6
CONTINUOUS
 62
     7
  5
597
 10
920234.326602
 20
7259087.626993
 30
0.0
  0
VERTEX
  8
14
  6
CONTINUOUS
 62
     7
  5
598
 10
920234.326542
 20
7259087.626851
 30
0.0
 42
-0.0209
  0
VERTEX
  8
14
  6
CONTINUOUS
 62
     7
  5
599
 10
920279.970828
 20
7259102.235729
 30
0.0
  0
VERTEX
  8
14
  6
CONTINUOUS
 62
     7
  5
59A
 10
920279.971
 20
7259102.236
 30
0.0
  0
VERTEX
  8
14
  6
CONTINUOUS
 62
     7
  5
59B
 10
920279.977
 20
7259102.232
 30
0.0
  0
SEQEND
  8
14
  6
CONTINUOUS
 62
     7
  5
59C
  0
TEXT
  8
11
  6
CONTINUOUS
 62
     7
  5
59D
 10
920165.823
 20
7259204.819
 30
0.0
 40
8.0
  1
198.75'
 50
358.121547
  7
txt
 72
     1
 11
920188.15137
 21
7259212.090999
 31
0.0
210
0.0
220
0.0
230
1.0
 73
     3
  0
LINE
  8
6
  6
CONTINUOUS
 62
     7
  5
59E
 10
918457.645
 20
7258395.696
 30
0.0
 11
918856.934
 21
7258382.747
 31
0.0
  0
LINE
  8
7
  6
CONTINUOUS
 62
     7
  5
59F
 10
918584.078
 20
7258391.596
 30
0.0
 11
918605.12
 21
7259040.357
 31
0.0
  0
LINE
  8
7
  6
CONTINUOUS
 62
     7
  5
5A0
 10
918594.597
 20
7258715.925
 30
0.0
 11
918882.445
 21
7258706.589
 31
0.0
  0
LINE
  8
6
  6
CONTINUOUS
 62
     7
  5
5A1
 10
918605.12
 20
7259040.357
 30
0.0
 11
918606.093
 21
7259070.352
 31
0.0
  0
LINE
  8
6
  6
CONTINUOUS
 62
     7
  5
5A2
 10
918468.559
 20
7258732.188
 30
0.0
 11
917968.327
 21
7258748.558
 31
0.0
  0
LINE
  8
6
  6
CONTINUOUS
 62
     7
  5
5A3
 10
918457.646
 20
7258395.735
 30
0.0
 11
918468.559
 21
7258732.188
 31
0.0
  0
LINE
  8
6
  6
CONTINUOUS
 62
     7
  5
5A4
 10
918605.12
 20
7259040.357
 30
0.0
 11
918025.427
 21
7259059.235
 31
0.0
  0
LINE
  8
6
  6
CONTINUOUS
 62
     7
  5
5A5
 10
918009.904
 20
7259044.823
 30
0.0
 11
918025.427
 21
7259059.235
 31
0.0
  0
LINE
  8
6
  6
CONTINUOUS
 62
     7
  5
5A6
 10
918000.309
 20
7258747.511
 30
0.0
 11
918009.904
 21
7259044.823
 31
0.0
  0
POLYLINE
  8
21
  6
DASHDOT
 62
     7
  5
5A7
 66
     1
 10
0.0
 20
0.0
 30
0.0
 70
     1
  0
VERTEX
  8
21
  6
DASHDOT
 62
     7
  5
5A8
 10
918009.904
 20
7259044.823
 30
0.0
  0
VERTEX
  8
21
  6
DASHDOT
 62
     7
  5
5A9
 10
918025.427
 20
7259059.235
 30
0.0
  0
VERTEX
  8
21
  6
DASHDOT
 62
     7
  5
5AA
 10
918040.369
 20
7259058.748
 30
0.0
  0
VERTEX
  8
21
  6
DASHDOT
 62
     7
  5
5AB
 10
918030.293
 20
7258746.53
 30
0.0
  0
VERTEX
  8
21
  6
DASHDOT
 62
     7
  5
5AC
 10
918000.309
 20
7258747.511
 30
0.0
  0
SEQEND
  8
21
  6
DASHDOT
 62
     7
  5
5AD
  0
TEXT
  8
11
  6
CONTINUOUS
 62
     7
  5
5AE
 10
918307.627
 20
7259034.037
 30
0.0
 40
8.0
  1
580'
 50
358.134792
  7
txt
 72
     1
 11
918321.486177
 21
7259041.589909
 31
0.0
210
0.0
220
0.0
230
1.0
 73
     3
  0
TEXT
  8
11
  6
CONTINUOUS
 62
     7
  5
5AF
 10
918014.501
 20
7258889.186
 30
0.0
 40
8.0
  1
297.47'
 50
88.151564
  7
txt
 72
     1
 11
918007.270139
 21
7258913.147705
 31
0.0
210
0.0
220
0.0
230
1.0
 73
     3
  0
TEXT
  8
11
  6
CONTINUOUS
 62
     7
  5
5B0
 10
918245.99
 20
7258742.473
 30
0.0
 40
8.0
  1
468.5'
 50
358.125675
  7
txt
 72
     1
 11
918265.632485
 21
7258741.830203
 31
0.0
210
0.0
220
0.0
230
1.0
  0
TEXT
  8
11
  6
CONTINUOUS
 62
     7
  5
5B1
 10
918474.078
 20
7258547.385
 30
0.0
 40
8.0
  1
336.63'
 50
88.142239
  7
txt
 72
     1
 11
918474.832505
 21
7258570.646767
 31
0.0
210
0.0
220
0.0
230
1.0
  0
TEXT
  8
11
  6
CONTINUOUS
 62
     7
  5
5B2
 10
918587.896
 20
7258601.233
 30
0.0
 40
8.0
  1
649.1'
 50
88.142311
  7
txt
 72
     1
 11
918588.480999
 21
7258619.269516
 31
0.0
210
0.0
220
0.0
230
1.0
  0
POLYLINE
  8
21
  6
DASHDOT
 62
     7
  5
5B3
 66
     1
 10
0.0
 20
0.0
 30
0.0
 70
     1
  0
VERTEX
  8
21
  6
DASHDOT
 62
     7
  5
5B4
 10
918009.904
 20
7259044.823
 30
0.0
  0
VERTEX
  8
21
  6
DASHDOT
 62
     7
  5
5B5
 10
918025.427
 20
7259059.235
 30
0.0
  0
VERTEX
  8
21
  6
DASHDOT
 62
     7
  5
5B6
 10
918090.342
 20
7259057.121
 30
0.0
  0
VERTEX
  8
21
  6
DASHDOT
 62
     7
  5
5B7
 10
918080.266
 20
7258744.895
 30
0.0
  0
VERTEX
  8
21
  6
DASHDOT
 62
     7
  5
5B8
 10
918000.309
 20
7258747.511
 30
0.0
  0
SEQEND
  8
21
  6
DASHDOT
 62
     7
  5
5B9
  0
TEXT
  8
22
  6
CONTINUOUS
 62
     3
  5
5BA
 10
918024.477
 20
7258883.742
 30
0.0
 40
6.0
  1
30' UUE
 50
88.151575
  7
txt
 72
     1
 11
918025.0027
 21
7258900.031519
 31
0.0
210
0.0
220
0.0
230
1.0
  0
TEXT
  8
22
  6
CONTINUOUS
 62
     3
  5
5BB
 10
918064.92
 20
7258885.08
 30
0.0
 40
6.0
  1
80' DRE
 50
88.151564
  7
txt
 72
     1
 11
918065.445703
 21
7258901.369519
 31
0.0
210
0.0
220
0.0
230
1.0
  0
TEXT
  8
22
  6
CONTINUOUS
 62
     3
  5
5BC
 10
918300.64
 20
7259046.198
 30
0.0
 40
6.0
  1
5' UUE-LPL
 50
358.134792
  7
txt
 72
     1
 11
918325.034461
 21
7259051.406762
 31
0.0
210
0.0
220
0.0
230
1.0
 73
     3
  0
POLYLINE
  8
21
  6
DASHDOT
 62
     7
  5
5BD
 66
     1
 10
0.0
 20
0.0
 30
0.0
 70
     1
  0
VERTEX
  8
21
  6
DASHDOT
 62
     7
  5
5BE
 10
918040.208
 20
7259053.751
 30
0.0
  0
VERTEX
  8
21
  6
DASHDOT
 62
     7
  5
5BF
 10
918599.961
 20
7259035.523
 30
0.0
  0
VERTEX
  8
21
  6
DASHDOT
 62
     7
  5
5C0
 10
918589.603
 20
7258716.091
 30
0.0
  0
VERTEX
  8
21
  6
DASHDOT
 62
     7
  5
5C1
 10
918594.597
 20
7258715.927
 30
0.0
  0
VERTEX
  8
21
  6
DASHDOT
 62
     7
  5
5C2
 10
918605.12
 20
7259040.357
 30
0.0
  0
VERTEX
  8
21
  6
DASHDOT
 62
     7
  5
5C3
 10
918040.369
 20
7259058.748
 30
0.0
  0
SEQEND
  8
21
  6
DASHDOT
 62
     7
  5
5C4
  0
TEXT
  8
22
  6
CONTINUOUS
 62
     3
  5
5C5
 10
918592.898
 20
7258856.737
 30
0.0
 40
6.0
  1
5' UUE-LPL
 50
88.134792
  7
txt
 72
     1
 11
918587.689238
 21
7258881.131461
 31
0.0
210
0.0
220
0.0
230
1.0
 73
     3
  0
TEXT
  8
22
  6
CONTINUOUS
 62
     3
  5
5C6
 10
918308.765
 20
7258739.861
 30
0.0
 40
6.0
  1
10' WATER LINE ESMT
 50
358.134792
  7
txt
 72
     1
 11
918359.387557
 21
7258744.21563
 31
0.0
210
0.0
220
0.0
230
1.0
 73
     3
  0
LINE
  8
21
  6
DASHDOT
 62
     7
  5
5C7
 10
918040.369
 20
7259058.748
 30
0.0
 11
918030.293
 21
7258746.53
 31
0.0
  0
LINE
  8
21
  6
DASHDOT
 62
     7
  5
5C8
 10
918288.284
 20
7258773.106
 30
0.0
 11
918287.478
 21
7258748.119
 31
0.0
  0
LINE
  8
21
  6
DASHDOT
 62
     7
  5
5C9
 10
918298.279
 20
7258772.779
 30
0.0
 11
918297.473
 21
7258747.792
 31
0.0
  0
LINE
  8
6
  6
CONTINUOUS
 62
     7
  5
5CA
 10
918298.279
 20
7258772.779
 30
0.0
 11
918288.284
 21
7258773.106
 31
0.0
  0
POLYLINE
  8
21
  6
DASHDOT
 62
     7
  5
5CB
 66
     1
 10
0.0
 20
0.0
 30
0.0
 70
     1
  0
VERTEX
  8
21
  6
DASHDOT
 62
     7
  5
5CC
 10
918030.616
 20
7258756.525
 30
0.0
  0
VERTEX
  8
21
  6
DASHDOT
 62
     7
  5
5CD
 10
918287.478
 20
7258748.119
 30
0.0
  0
VERTEX
  8
21
  6
DASHDOT
 62
     7
  5
5CE
 10
918288.284
 20
7258773.106
 30
0.0
  0
VERTEX
  8
21
  6
DASHDOT
 62
     7
  5
5CF
 10
918298.279
 20
7258772.779
 30
0.0
  0
VERTEX
  8
21
  6
DASHDOT
 62
     7
  5
5D0
 10
918297.473
 20
7258747.792
 30
0.0
  0
VERTEX
  8
21
  6
DASHDOT
 62
     7
  5
5D1
 10
918590.317
 20
7258738.209
 30
0.0
  0
VERTEX
  8
21
  6
DASHDOT
 62
     7
  5
5D2
 10
918589.603
 20
7258716.091
 30
0.0
  0
VERTEX
  8
21
  6
DASHDOT
 62
     7
  5
5D3
 10
918594.597
 20
7258715.927
 30
0.0
  0
VERTEX
  8
21
  6
DASHDOT
 62
     7
  5
5D4
 10
918594.273
 20
7258705.933
 30
0.0
  0
VERTEX
  8
21
  6
DASHDOT
 62
     7
  5
5D5
 10
918579.285
 20
7258706.423
 30
0.0
  0
VERTEX
  8
21
  6
DASHDOT
 62
     7
  5
5D6
 10
918579.999
 20
7258728.541
 30
0.0
  0
VERTEX
  8
21
  6
DASHDOT
 62
     7
  5
5D7
 10
918030.293
 20
7258746.53
 30
0.0
  0
SEQEND
  8
21
  6
DASHDOT
 62
     7
  5
5D8
  0
TEXT
  8
11
  6
CONTINUOUS
 62
     7
  5
5D9
 10
918152.36
 20
7258755.542
 30
0.0
 40
8.0
  1
257'
 50
358.125622
  7
txt
 72
     1
 11
918166.021686
 21
7258755.094911
 31
0.0
210
0.0
220
0.0
230
1.0
  0
TEXT
  8
11
  6
CONTINUOUS
 62
     7
  5
5DA
 10
918286.404
 20
7258754.931
 30
0.0
 40
8.0
  1
25'
 50
88.152464
  7
txt
 72
     1
 11
918286.714729
 21
7258764.56399
 31
0.0
210
0.0
220
0.0
230
1.0
  0
TEXT
  8
11
  6
CONTINUOUS
 62
     7
  5
5DB
 10
918286.193
 20
7258776.176
 30
0.0
 40
8.0
  1
10'
 50
358.126158
  7
txt
 72
     1
 11
918294.376621
 21
7258775.908262
 31
0.0
210
0.0
220
0.0
230
1.0
  0
TEXT
  8
11
  6
CONTINUOUS
 62
     7
  5
5DC
 10
918307.217
 20
7258753.263
 30
0.0
 40
8.0
  1
25'
 50
88.152464
  7
txt
 72
     1
 11
918307.527729
 21
7258762.89599
 31
0.0
210
0.0
220
0.0
230
1.0
  0
TEXT
  8
11
  6
CONTINUOUS
 62
     7
  5
5DD
 10
918424.508
 20
7258746.637
 30
0.0
 40
8.0
  1
293'
 50
358.125728
  7
txt
 72
     1
 11
918437.948805
 21
7258746.197165
 31
0.0
210
0.0
220
0.0
230
1.0
  0
TEXT
  8
11
  6
CONTINUOUS
 62
     7
  5
5DE
 10
918577.172
 20
7258692.981
 30
0.0
 40
8.0
  1
22.13'
 50
88.151053
  7
txt
 72
     1
 11
918577.760378
 21
7258711.207506
 31
0.0
210
0.0
220
0.0
230
1.0
  0
TEXT
  8
11
  6
CONTINUOUS
 62
     7
  5
5DF
 10
918580.603
 20
7258697.358
 30
0.0
 40
8.0
  1
15'
 50
358.127506
  7
txt
 72
     1
 11
918589.080014
 21
7258705.085137
 31
0.0
210
0.0
220
0.0
230
1.0
 73
     3
  0
TEXT
  8
10
  6
CONTINUOUS
 62
   134
  5
5E0
 10
918311.652
 20
7258910.676
 30
0.0
 40
13.999
  1
A
 50
358.125675
  7
txt
 72
     1
 11
918317.50698
 21
7258924.490891
 31
0.0
210
0.0
220
0.0
230
1.0
 73
     3
  0
SOLID
  8
21
  6
DASHDOT
 62
     7
  5
5E1
 10
918604.924
 20
7259034.36
 30
0.0
 11
918605.12
 21
7259040.357
 31
0.0
 12
918598.929
 22
7259034.556
 32
0.0
 13
918599.125
 23
7259040.553
 33
0.0
  0
TEXT
  8
22
  6
CONTINUOUS
 62
     3
  5
5E2
 10
918093.212
 20
7259042.634
 30
0.0
 40
6.0
  1
6'x6'
 50
358.125828
  7
txt
210
0.0
220
0.0
230
1.0
  0
TEXT
  8
22
  6
CONTINUOUS
 62
     3
  5
5E3
 10
918092.917
 20
7259033.639
 30
0.0
 40
6.0
  1
SEE-LPL
 50
358.125828
  7
txt
210
0.0
220
0.0
230
1.0
  0
TEXT
  8
22
  6
CONTINUOUS
 62
     3
  5
5E4
 10
918605.741
 20
7259042.953
 30
0.0
 40
6.0
  1
6'x6'
 50
358.125828
  7
txt
210
0.0
220
0.0
230
1.0
  0
TEXT
  8
22
  6
CONTINUOUS
 62
     3
  5
5E5
 10
918605.446
 20
7259033.958
 30
0.0
 40
6.0
  1
SEE-LPL
 50
358.125828
  7
txt
210
0.0
220
0.0
230
1.0
  0
TEXT
  8
11
  6
CONTINUOUS
 62
     7
  5
5E6
 10
918509.575
 20
7258720.093
 30
0.0
 40
8.0
  1
111.5'
 50
358.125728
  7
txt
 72
     1
 11
918524.967761
 21
7258719.589289
 31
0.0
210
0.0
220
0.0
230
1.0
  0
TEXT
  8
11
  6
CONTINUOUS
 62
     7
  5
5E7
 10
917974.535
 20
7258751.356
 30
0.0
 40
8.0
  1
32'
 50
358.125675
  7
txt
 72
     1
 11
917984.167843
 21
7258751.040767
 31
0.0
210
0.0
220
0.0
230
1.0
  0
TEXT
  8
11
  6
CONTINUOUS
 62
     7
  5
5E8
 10
918602.464
 20
7259050.997
 30
0.0
 40
8.0
  1
30'
 50
88.14205
  7
txt
 72
     1
 11
918602.775442
 21
7259060.59795
 31
0.0
210
0.0
220
0.0
230
1.0
  0
SOLID
  8
21
  6
DASHDOT
 62
     7
  5
5E9
 10
918458.779
 20
7258430.678
 30
0.0
 11
918585.213
 21
7258426.578
 31
0.0
 12
918457.646
 22
7258395.735
 32
0.0
 13
918584.078
 23
7258391.596
 33
0.0
  0
TEXT
  8
11
  6
CONTINUOUS
 62
     7
  5
5EA
 10
918505.525
 20
7258394.499
 30
0.0
 40
8.0
  1
126.5'
 50
358.142542
  7
txt
 72
     1
 11
918523.561518
 21
7258393.914073
 31
0.0
210
0.0
220
0.0
230
1.0
  0
TEXT
  8
22
  6
CONTINUOUS
 62
     3
  5
5EB
 10
918505.863
 20
7258411.979
 30
0.0
 40
6.0
  1
35' DRE
 50
358.151564
  7
txt
 72
     1
 11
918522.176507
 21
7258411.452522
 31
0.0
210
0.0
220
0.0
230
1.0
  0
TEXT
  8
11
  6
CONTINUOUS
 62
     7
  5
5EC
 10
918015.849
 20
7259048.792
 30
0.0
 40
8.0
  1
21.21'
 50
312.874514
  7
txt
 72
     1
 11
918033.154647
 21
7259041.910162
 31
0.0
210
0.0
220
0.0
230
1.0
 73
     3
  0
TEXT
  8
13
  6
CONTINUOUS
 62
    14
  5
5ED
 10
918296.85
 20
7258400.849
 30
0.0
 40
8.0
  1
V7449 P83
 50
358.124986
  7
txt
 72
     1
 11
918331.916215
 21
7258399.701042
 31
0.0
210
0.0
220
0.0
230
1.0
  0
TEXT
  8
22
  6
CONTINUOUS
 62
     3
  5
5EE
 10
918085.368
 20
7258419.46
 30
0.0
 40
6.0
  1
STREET CLOSED PER ORDINANCE 2001-00107
 50
358.124894
  7
txt
 72
     1
 11
918193.399121
 21
7258415.923228
 31
0.0
210
0.0
220
0.0
230
1.0
  0
POLYLINE
  8
25
  6
CONTINUOUS
 62
   212
  5
5EF
 66
     1
 10
0.0
 20
0.0
 30
0.0
 70
     1
  0
VERTEX
  8
25
  6
CONTINUOUS
 62
   212
  5
5F0
 10
918584.337
 20
7258399.591
 30
0.0
  0
VERTEX
  8
25
  6
CONTINUOUS
 62
   212
  5
5F1
 10
917957.673
 20
7258420.107
 30
0.0
  0
VERTEX
  8
25
  6
CONTINUOUS
 62
   212
  5
5F2
 10
917957.414
 20
7258412.111
 30
0.0
  0
VERTEX
  8
25
  6
CONTINUOUS
 62
   212
  5
5F3
 10
918584.078
 20
7258391.596
 30
0.0
  0
VERTEX
  8
25
  6
CONTINUOUS
 62
   212
  5
5F4
 10
918584.337
 20
7258399.591
 30
0.0
  0
SEQEND
  8
25
  6
CONTINUOUS
 62
   212
  5
5F5
  0
LINE
  8
6
  6
CONTINUOUS
 62
     7
  5
5F6
 10
917957.673
 20
7258420.107
 30
0.0
 11
917957.414
 21
7258412.111
 31
0.0
  0
LINE
  8
6
  6
CONTINUOUS
 62
     7
  5
5F7
 10
917957.414
 20
7258412.111
 30
0.0
 11
918584.078
 21
7258391.596
 31
0.0
  0
SOLID
  8
21
  6
DASHDOT
 62
     7
  5
5F8
 10
920297.715
 20
7261619.978
 30
0.0
 11
920297.887
 21
7261625.975
 31
0.0
 12
920293.718
 22
7261620.092
 32
0.0
 13
920293.888
 23
7261626.089
 33
0.0
  0
SOLID
  8
21
  6
DASHDOT
 62
     7
  5
5F9
 10
920285.761
 20
7261233.162
 30
0.0
 11
920285.932
 21
7261239.159
 31
0.0
 12
920281.763
 22
7261233.276
 32
0.0
 13
920281.934
 23
7261239.273
 33
0.0
  0
TEXT
  8
28
  6
CONTINUOUS
 62
    32
  5
5FB
 10
916579.113
 20
7262485.667
 30
0.0
 40
24.0
  1
SEAGRAVES BRANCH PANHANDLE & SANTA FE RAILWAY
 50
34.18365
  7
ROMANC
210
0.0
220
0.0
230
1.0
  0
TEXT
  8
11
  6
CONTINUOUS
 62
     7
  5
5FC
 10
920455.016
 20
7258365.764
 30
0.0
 40
8.0
  1
R=30'
 50
315.0
  7
ROMANS
 11
920457.844427
 21
7258368.592427
 31
0.0
210
0.0
220
0.0
230
1.0
 73
     2
  0
POLYLINE
  8
1
  6
HIDDEN
 62
   253
  5
5FE
 66
     1
 10
0.0
 20
0.0
 30
0.0
 70
     1
  0
VERTEX
  8
1
  6
HIDDEN
 62
   253
  5
5FF
 10
915281.989
 20
7258475.322
 30
0.0
  0
VERTEX
  8
1
  6
HIDDEN
 62
   253
  5
600
 10
920567.877
 20
7258309.774
 30
0.0
  0
VERTEX
  8
1
  6
HIDDEN
 62
   253
  5
601
 10
920732.894
 20
7263576.264
 30
0.0
  0
VERTEX
  8
1
  6
HIDDEN
 62
   253
  5
602
 10
915448.32
 20
7263743.983
 30
0.0
  0
SEQEND
  8
1
  6
HIDDEN
 62
   253
  5
603
  0
POLYLINE
  8
21
  6
DASHDOT
 62
     7
  5
604
 66
     1
 10
0.0
 20
0.0
 30
0.0
  0
VERTEX
  8
21
  6
DASHDOT
 62
     7
  5
605
 10
919188.243
 20
7258571.99
 30
0.0
  0
VERTEX
  8
21
  6
DASHDOT
 62
     7
  5
606
 10
919181.759
 20
7258372.097
 30
0.0
  0
VERTEX
  8
21
  6
DASHDOT
 62
     7
  5
607
 10
919201.749
 20
7258371.448
 30
0.0
  0
SEQEND
  8
21
  6
DASHDOT
 62
     7
  5
608
  0
SOLID
  8
21
  6
DASHDOT
 62
     7
  5
609
 10
919493.063
 20
7260529.316
 30
0.0
 11
919492.892
 21
7260523.318
 31
0.0
 12
919499.06
 22
7260529.145
 32
0.0
 13
919498.889
 23
7260523.148
 33
0.0
  0
TEXT
  8
11
  6
CONTINUOUS
 62
     7
  5
60A
 10
919926.591
 20
7260514.581
 30
0.0
 40
6.0
  1
130'
 50
358.363344
  7
ROMANS
 72
     4
 11
919936.672604
 21
7260517.294165
 31
0.0
210
0.0
220
0.0
230
1.0
  0
SOLID
  8
25
  6
CONTINUOUS
 62
   212
  5
60B
 10
919862.021
 20
7260163.532
 30
0.0
 11
919868.017
 21
7260163.35
 31
0.0
 12
919861.843
 22
7260157.534
 32
0.0
 13
919867.835
 23
7260157.352
 33
0.0
  0
TEXT
  8
22
  6
CONTINUOUS
 62
     3
  5
60C
 10
919460.922
 20
7260143.116
 30
0.0
 40
6.0
  1
10'
 50
358.363344
  7
ROMANS
 72
     4
 11
919468.004828
 21
7260145.914848
 31
0.0
210
0.0
220
0.0
230
1.0
  0
LINE
  8
7
  6
CONTINUOUS
 62
     7
  5
60D
 10
920325.284
 20
7262537.608
 30
0.0
 11
920636.777
 21
7262528.719
 31
0.0
  0
LINE
  8
6
  6
CONTINUOUS
 62
     7
  5
60E
 10
919504.217
 20
7261226.46
 30
0.0
 11
919471.415
 21
7260149.423
 31
0.0
  0
LINE
  8
7
  6
CONTINUOUS
 62
     7
  5
60F
 10
920158.356
 20
7263281.085
 30
0.0
 11
920244.949
 21
7263340.471
 31
0.0
  0
LINE
  8
7
  6
CONTINUOUS
 62
     7
  5
610
 10
920244.949
 20
7263340.471
 30
0.0
 11
920160.905
 21
7263463.021
 31
0.0
  0
TEXT
  8
11
  6
CONTINUOUS
 62
     7
  5
611
 10
920111.796
 20
7263354.283
 30
0.0
 40
8.0
  1
148.6'
 50
304.44235
  7
txt
 72
     1
 11
920122.109857
 21
7263339.24385
 31
0.0
210
0.0
220
0.0
230
1.0
  0
TEXT
  8
11
  6
CONTINUOUS
 62
     7
  5
612
 10
920186.346
 20
7263406.476
 30
0.0
 40
8.0
  1
148.6'
 50
304.442078
  7
txt
 72
     1
 11
920203.257373
 21
7263395.961383
 31
0.0
210
0.0
220
0.0
230
1.0
 73
     3
  0
TEXT
  8
11
  6
CONTINUOUS
 62
     7
  5
613
 10
920114.559
 20
7263417.893
 30
0.0
 40
8.0
  1
105'
 50
34.442508
  7
txt
 72
     1
 11
920120.08574
 21
7263431.38383
 31
0.0
210
0.0
220
0.0
230
1.0
 73
     3
  0
TEXT
  8
11
  6
CONTINUOUS
 62
     7
  5
614
 10
920193.259
 20
7263307.268
 30
0.0
 40
8.0
  1
105'
 50
34.442508
  7
txt
 72
     1
 11
920198.78574
 21
7263320.75883
 31
0.0
210
0.0
220
0.0
230
1.0
 73
     3
  0
TEXT
  8
11
  6
CONTINUOUS
 62
     7
  5
615
 10
920196.488
 20
7263228.799
 30
0.0
 40
8.0
  1
150'
 50
304.44235
  7
txt
 72
     1
 11
920209.978815
 21
7263223.272223
 31
0.0
210
0.0
220
0.0
230
1.0
 73
     3
  0
TEXT
  8
11
  6
CONTINUOUS
 62
     7
  5
616
 10
920274.305
 20
7263180.907
 30
0.0
 40
8.0
  1
124.12'
 50
34.408331
  7
txt
 72
     1
 11
920287.116563
 21
7263199.378598
 31
0.0
210
0.0
220
0.0
230
1.0
 73
     3
  0
TEXT
  8
22
  6
CONTINUOUS
 62
     3
  5
617
 10
920344.695
 20
7263283.007
 30
0.0
 40
6.0
  1
10' UWE
 50
88.313153
  7
txt
 72
     1
 11
920339.17112
 21
7263299.26265
 31
0.0
210
0.0
220
0.0
230
1.0
 73
     3
  0
TEXT
  8
10
  6
CONTINUOUS
 62
   134
  5
618
 10
920153.222
 20
7263362.67
 30
0.0
 40
13.999
  1
14-A
 50
358.363344
  7
ROMANS
 11
920153.621827
 21
7263376.663289
 31
0.0
210
0.0
220
0.0
230
1.0
 73
     3
  0
TEXT
  8
10
  6
CONTINUOUS
 62
   134
  5
619
 10
920271.917
 20
7263383.32
 30
0.0
 40
13.999
  1
16-A
 50
358.363344
  7
ROMANS
 11
920272.316827
 21
7263397.313289
 31
0.0
210
0.0
220
0.0
230
1.0
 73
     3
  0
TEXT
  8
11
  6
CONTINUOUS
 62
     7
  5
61A
 10
920204.82
 20
7263480.927
 30
0.0
 40
8.0
  1
111.07'
 50
34.442508
  7
txt
 72
     1
 11
920216.294434
 21
7263498.496786
 31
0.0
210
0.0
220
0.0
230
1.0
 73
     3
  0
POLYLINE
  8
21
  6
DASHDOT
 62
     7
  5
61B
 66
     1
 10
0.0
 20
0.0
 30
0.0
 70
     1
  0
VERTEX
  8
21
  6
DASHDOT
 62
     7
  5
61C
 10
920625.418
 20
7262186.34
 30
0.0
  0
VERTEX
  8
21
  6
DASHDOT
 62
     7
  5
61D
 10
920582.779
 20
7262208.75
 30
0.0
  0
VERTEX
  8
21
  6
DASHDOT
 62
     7
  5
61E
 10
920314.439
 20
7262216.788
 30
0.0
  0
VERTEX
  8
21
  6
DASHDOT
 62
     7
  5
61F
 10
920318.233
 20
7262339.73
 30
0.0
  0
VERTEX
  8
21
  6
DASHDOT
 62
     7
  5
620
 10
920328.229
 20
7262339.431
 30
0.0
  0
VERTEX
  8
21
  6
DASHDOT
 62
     7
  5
621
 10
920324.742
 20
7262226.483
 30
0.0
  0
VERTEX
  8
21
  6
DASHDOT
 62
     7
  5
622
 10
920585.366
 20
7262218.675
 30
0.0
  0
VERTEX
  8
21
  6
DASHDOT
 62
     7
  5
623
 10
920625.748
 20
7262197.452
 30
0.0
  0
VERTEX
  8
21
  6
DASHDOT
 62
     7
  5
624
 10
920625.41
 20
7262186.338
 30
0.0
  0
VERTEX
  8
21
  6
DASHDOT
 62
     7
  5
625
 10
920625.418
 20
7262186.34
 30
0.0
  0
SEQEND
  8
21
  6
DASHDOT
 62
     7
  5
626
  0
POLYLINE
  8
21
  6
DASHDOT
 62
     7
  5
627
 66
     1
 10
0.0
 20
0.0
 30
0.0
 70
     1
  0
VERTEX
  8
21
  6
DASHDOT
 62
     7
  5
628
 10
920329.698
 20
7262687.544
 30
0.0
  0
VERTEX
  8
21
  6
DASHDOT
 62
     7
  5
629
 10
920349.689
 20
7262686.945
 30
0.0
  0
VERTEX
  8
21
  6
DASHDOT
 62
     7
  5
62A
 10
920344.748
 20
7262537.053
 30
0.0
  0
VERTEX
  8
21
  6
DASHDOT
 62
     7
  5
62B
 10
920325.284
 20
7262537.608
 30
0.0
  0
SEQEND
  8
21
  6
DASHDOT
 62
     7
  5
62C
  0
TEXT
  8
22
  6
CONTINUOUS
 62
     3
  5
62D
 10
920338.826
 20
7262579.831
 30
0.0
 40
6.0
  1
20' UTILTY  ESMT
 50
88.112
  7
txt
 72
     1
 11
920334.248729
 21
7262623.090286
 31
0.0
210
0.0
220
0.0
230
1.0
 73
     3
  0
POLYLINE
  8
21
  6
DASHDOT
 62
     7
  5
62E
 66
     1
 10
0.0
 20
0.0
 30
0.0
 70
     1
  0
VERTEX
  8
21
  6
DASHDOT
 62
     7
  5
62F
 10
920638.092
 20
7260966.905
 30
0.0
  0
VERTEX
  8
21
  6
DASHDOT
 62
     7
  5
630
 10
920307.994
 20
7260976.932
 30
0.0
  0
VERTEX
  8
21
  6
DASHDOT
 62
     7
  5
631
 10
920309.972
 20
7261041.902
 30
0.0
  0
VERTEX
  8
21
  6
DASHDOT
 62
     7
  5
632
 10
920019.106
 20
7261050.737
 30
0.0
  0
VERTEX
  8
21
  6
DASHDOT
 62
     7
  5
633
 10
920019.258
 20
7261055.734
 30
0.0
  0
VERTEX
  8
21
  6
DASHDOT
 62
     7
  5
634
 10
920315.122
 20
7261046.748
 30
0.0
  0
VERTEX
  8
21
  6
DASHDOT
 62
     7
  5
635
 10
920313.144
 20
7260981.778
 30
0.0
  0
VERTEX
  8
21
  6
DASHDOT
 62
     7
  5
636
 10
920638.243
 20
7260971.903
 30
0.0
  0
SEQEND
  8
21
  6
DASHDOT
 62
     7
  5
637
  0
TEXT
  8
13
  6
CONTINUOUS
 62
    14
  5
638
 10
920038.214
 20
7261058.907
 30
0.0
 40
8.0
  1
V2904 P34
 50
358.260344
  7
txt
 72
     1
 11
920073.597684
 21
7261057.832325
 31
0.0
210
0.0
220
0.0
230
1.0
  0
TEXT
  8
22
  6
CONTINUOUS
 62
     3
  5
639
 10
920210.098
 20
7261055.94
 30
0.0
 40
6.0
  1
5' UWE
 50
358.260344
  7
txt
 72
     1
 11
920224.264467
 21
7261055.509735
 31
0.0
210
0.0
220
0.0
230
1.0
  0
TEXT
  8
13
  6
CONTINUOUS
 62
    14
  5
63A
 10
920318.754
 20
7260985.001
 30
0.0
 40
8.0
  1
V2904 P34
 50
358.260156
  7
txt
 72
     1
 11
920354.13768
 21
7260983.926208
 31
0.0
210
0.0
220
0.0
230
1.0
  0
TEXT
  8
22
  6
CONTINUOUS
 62
     3
  5
63B
 10
920491.396
 20
7260982.366
 30
0.0
 40
6.0
  1
5' UWE
 50
358.260156
  7
txt
 72
     1
 11
920505.562466
 21
7260981.935689
 31
0.0
210
0.0
220
0.0
230
1.0
  0
POLYLINE
  8
21
  6
DASHDOT
 62
     7
  5
63C
 66
     1
 10
0.0
 20
0.0
 30
0.0
 70
     1
  0
VERTEX
  8
21
  6
DASHDOT
 62
     7
  5
63D
 10
920328.756
 20
7262339.395
 30
0.0
  0
VERTEX
  8
21
  6
DASHDOT
 62
     7
  5
63E
 10
920318.761
 20
7262339.716
 30
0.0
  0
VERTEX
  8
21
  6
DASHDOT
 62
     7
  5
63F
 10
920325.284
 20
7262537.608
 30
0.0
  0
VERTEX
  8
21
  6
DASHDOT
 62
     7
  5
640
 10
920335.279
 20
7262537.287
 30
0.0
  0
SEQEND
  8
21
  6
DASHDOT
 62
     7
  5
641
  0
TEXT
  8
22
  6
CONTINUOUS
 62
     3
  5
642
 10
920341.597
 20
7262447.551
 30
0.0
 40
6.0
  1
10' UTILITY ESMT
 50
88.112075
  7
txt
 72
     1
 11
920336.940309
 21
7262488.402588
 31
0.0
210
0.0
220
0.0
230
1.0
 73
     3
  0
TEXT
  8
13
  6
CONTINUOUS
 62
    14
  5
643
 10
920338.961
 20
7262341.041
 30
0.0
 40
8.0
  1
V6132 P199
 50
88.112075
  7
txt
 72
     1
 11
920332.139881
 21
7262376.937204
 31
0.0
210
0.0
220
0.0
230
1.0
 73
     3
  0
LINE
  8
7
  6
CONTINUOUS
 62
     7
  5
644
 10
919971.453
 20
7258501.281
 30
0.0
 11
919975.948
 21
7258639.22
 31
0.0
  0
TEXT
  8
11
  6
CONTINUOUS
 62
     7
  5
645
 10
920069.291
 20
7258555.78
 30
0.0
 40
8.0
  1
138'
 50
88.142444
  7
ROMANS
 72
     4
 11
920065.725321
 21
7258569.236652
 31
0.0
210
0.0
220
0.0
230
1.0
  0
TEXT
  8
11
  6
CONTINUOUS
 62
     7
  5
646
 10
919983.347
 20
7258555.78
 30
0.0
 40
8.0
  1
138'
 50
88.142444
  7
ROMANS
 72
     4
 11
919979.781321
 21
7258569.236652
 31
0.0
210
0.0
220
0.0
230
1.0
  0
TEXT
  8
10
  6
CONTINUOUS
 62
   134
  5
647
 10
920003.793
 20
7258568.442
 30
0.0
 40
13.999
  1
27
 50
358.142444
  7
ROMANS
 72
     4
 11
920015.09608
 21
7258575.079101
 31
0.0
210
0.0
220
0.0
230
1.0
  0
POLYLINE
  8
21
  6
DASHDOT
 62
     7
  5
648
 66
     1
 10
0.0
 20
0.0
 30
0.0
 70
     1
  0
VERTEX
  8
21
  6
DASHDOT
 62
     7
  5
649
 10
919885.921
 20
7258485.693
 30
0.0
  0
VERTEX
  8
21
  6
DASHDOT
 62
     7
  5
64A
 10
919886.57
 20
7258505.682
 30
0.0
  0
VERTEX
  8
21
  6
DASHDOT
 62
     7
  5
64B
 10
920306.385
 20
7258491.944
 30
0.0
  0
VERTEX
  8
21
  6
DASHDOT
 62
     7
  5
64C
 10
920316.705
 20
7258501.611
 30
0.0
  0
VERTEX
  8
21
  6
DASHDOT
 62
     7
  5
64D
 10
920315.404
 20
7258461.636
 30
0.0
  0
VERTEX
  8
21
  6
DASHDOT
 62
     7
  5
64E
 10
920305.737
 20
7258471.955
 30
0.0
  0
VERTEX
  8
21
  6
DASHDOT
 62
     7
  5
64F
 10
919885.921
 20
7258485.693
 30
0.0
  0
SEQEND
  8
21
  6
DASHDOT
 62
     7
  5
650
  0
TEXT
  8
15
  6
CONTINUOUS
 62
    30
  5
651
 10
919718.854
 20
7258375.372
 30
0.0
 40
50.0
  1
BUSINESS
 50
28.142444
  7
ROMANC
 72
     4
 11
919884.101287
 21
7258492.115029
 31
0.0
210
0.0
220
0.0
230
1.0
  0
TEXT
  8
15
  6
CONTINUOUS
 62
    30
  5
652
 10
919665.501
 20
7258438.946
 30
0.0
 40
50.0
  1
SPUR 327
 50
28.142444
  7
ROMANC
 72
     4
 11
919837.521222
 21
7258559.311889
 31
0.0
210
0.0
220
0.0
230
1.0
  0
TEXT
  8
15
  6
CONTINUOUS
 62
    30
  5
653
 10
919877.977
 20
7258365.682
 30
0.0
 40
50.0
  1
PARK
 50
28.142444
  7
ROMANC
 72
     4
 11
919962.169517
 21
7258439.068618
 31
0.0
210
0.0
220
0.0
230
1.0
  0
TEXT
  8
11
  6
CONTINUOUS
 62
     7
  5
654
 10
920016.168
 20
7258626.898
 30
0.0
 40
8.0
  1
85'
 50
358.125739
  7
txt
 72
     1
 11
920026.062493
 21
7258634.578498
 31
0.0
210
0.0
220
0.0
230
1.0
 73
     3
  0
LINE
  8
21
  6
DASHDOT
 62
     7
  5
655
 10
919489.086
 20
7260729.59
 30
0.0
 11
919486.483
 21
7260644.13
 31
0.0
  0
TEXT
  8
13
  6
CONTINUOUS
 62
    14
  5
656
 10
919178.479
 20
7260686.618
 30
0.0
 40
8.0
  1
V6545 P339
 50
358.363344
  7
ROMANS
 72
     4
 11
919216.910607
 21
7260689.521534
 31
0.0
210
0.0
220
0.0
230
1.0
  0
TEXT
  8
11
  6
CONTINUOUS
 62
     7
  5
657
 10
919201.168
 20
7260724.351
 30
0.0
 40
8.0
  1
509.61'
 50
358.255706
  7
txt
 72
     1
 11
919223.226399
 21
7260731.682962
 31
0.0
210
0.0
220
0.0
230
1.0
 73
     3
  0
TEXT
  8
13
  6
CONTINUOUS
 62
    14
  5
658
 10
919186.692
 20
7260962.458
 30
0.0
 40
8.0
  1
V6545 P336
 50
358.363344
  7
ROMANS
 72
     4
 11
919225.31053
 21
7260965.356193
 31
0.0
210
0.0
220
0.0
230
1.0
  0
POLYLINE
  8
21
  6
DASHDOT
 62
     7
  5
659
 66
     1
 10
0.0
 20
0.0
 30
0.0
 70
     1
  0
VERTEX
  8
21
  6
DASHDOT
 62
     7
  5
65A
 10
919504.217
 20
7261226.46
 30
0.0
  0
VERTEX
  8
21
  6
DASHDOT
 62
     7
  5
65B
 10
919489.086
 20
7260729.59
 30
0.0
  0
VERTEX
  8
21
  6
DASHDOT
 62
     7
  5
65C
 10
918979.612
 20
7260745.105
 30
0.0
  0
VERTEX
  8
21
  6
DASHDOT
 62
     7
  5
65D
 10
918994.743
 20
7261241.975
 30
0.0
  0
SEQEND
  8
21
  6
DASHDOT
 62
     7
  5
65E
  0
POLYLINE
  8
21
  6
DASHDOT
 62
     7
  5
65F
 66
     1
 10
0.0
 20
0.0
 30
0.0
  0
VERTEX
  8
21
  6
DASHDOT
 62
     7
  5
660
 10
919486.483
 20
7260644.13
 30
0.0
  0
VERTEX
  8
21
  6
DASHDOT
 62
     7
  5
661
 10
918977.109
 20
7260659.642
 30
0.0
  0
VERTEX
  8
21
  6
DASHDOT
 62
     7
  5
662
 10
918979.712
 20
7260745.102
 30
0.0
  0
VERTEX
  8
21
  6
DASHDOT
 62
     7
  5
663
 10
919489.086
 20
7260729.59
 30
0.0
  0
SEQEND
  8
21
  6
DASHDOT
 62
     7
  5
664
  0
TEXT
  8
11
  6
CONTINUOUS
 62
     7
  5
665
 10
918999.493
 20
7260963.931
 30
0.0
 40
8.0
  1
497.10'
 50
88.255731
  7
txt
 72
     1
 11
918992.173508
 21
7260986.399206
 31
0.0
210
0.0
220
0.0
230
1.0
 73
     3
  0
TEXT
  8
11
  6
CONTINUOUS
 62
     7
  5
666
 10
918991.814
 20
7260682.556
 30
0.0
 40
8.0
  1
85.50'
 50
88.255386
  7
txt
 72
     1
 11
918984.415091
 21
7260702.412461
 31
0.0
210
0.0
220
0.0
230
1.0
 73
     3
  0
TEXT
  8
11
  6
CONTINUOUS
 62
     7
  5
667
 10
919214.785
 20
7261220.867
 30
0.0
 40
8.0
  1
509.71'
 50
358.283892
  7
txt
 72
     1
 11
919237.06069
 21
7261228.203194
 31
0.0
210
0.0
220
0.0
230
1.0
 73
     3
  0
TEXT
  8
22
  6
CONTINUOUS
 62
     3
  5
668
 10
919166.964
 20
7260976.533
 30
0.0
 40
6.0
  1
SPECIAL WARRANTY DEED
  7
txt
 72
     4
 11
919228.047
 21
7260979.533
 31
0.0
210
0.0
220
0.0
230
1.0
  0
TEXT
  8
22
  6
CONTINUOUS
 62
     3
  5
669
 10
919158.165
 20
7260699.298
 30
0.0
 40
6.0
  1
SPECIAL WARRANTY DEED
  7
txt
 72
     4
 11
919219.248
 21
7260702.298
 31
0.0
210
0.0
220
0.0
230
1.0
  0
TEXT
  8
15
  6
CONTINUOUS
 62
    30
  5
66A
 10
918228.474
 20
7258893.32
 30
0.0
 40
50.0
  1
COX
 50
28.142444
  7
ROMANC
 72
     4
 11
918282.290157
 21
7258950.458222
 31
0.0
210
0.0
220
0.0
230
1.0
  0
TEXT
  8
15
  6
CONTINUOUS
 62
    30
  5
66B
 10
918148.663
 20
7258787.121
 30
0.0
 40
50.0
  1
ADDITION
 50
28.142444
  7
ROMANC
 72
     4
 11
918308.70339
 21
7258901.078845
 31
0.0
210
0.0
220
0.0
230
1.0
  0
ENDSEC
  0
EOF
