  0
SECTION
  2
HEADER
  9
$ACADVER
  1
AC1009
  9
$INSBASE
 10
0.0
 20
0.0
 30
0.0
  9
$EXTMIN
 10
957481.242
 20
7256786.197
 30
0.0
  9
$EXTMAX
 10
969379.659
 20
7262405.372
 30
0.0
  9
$LIMMIN
 10
0.0
 20
0.0
  9
$LIMMAX
 10
12.0
 20
9.0
  9
$ORTHOMODE
 70
     0
  9
$REGENMODE
 70
     1
  9
$FILLMODE
 70
     1
  9
$QTEXTMODE
 70
     0
  9
$MIRRTEXT
 70
     1
  9
$DRAGMODE
 70
     2
  9
$LTSCALE
 40
1.0
  9
$OSMODE
 70
     0
  9
$ATTMODE
 70
     1
  9
$TEXTSIZE
 40
0.2
  9
$TRACEWID
 40
0.05
  9
$TEXTSTYLE
  7
STANDARD
  9
$CLAYER
  8
0
  9
$CELTYPE
  6
CONTINUOUS
  9
$CECOLOR
 62
   256
  9
$DIMSCALE
 40
1.0
  9
$DIMASZ
 40
0.18
  9
$DIMEXO
 40
0.0625
  9
$DIMDLI
 40
0.38
  9
$DIMRND
 40
0.0
  9
$DIMDLE
 40
0.0
  9
$DIMEXE
 40
0.18
  9
$DIMTP
 40
0.0
  9
$DIMTM
 40
0.0
  9
$DIMTXT
 40
0.18
  9
$DIMCEN
 40
0.09
  9
$DIMTSZ
 40
0.0
  9
$DIMTOL
 70
     0
  9
$DIMLIM
 70
     0
  9
$DIMTIH
 70
     1
  9
$DIMTOH
 70
     1
  9
$DIMSE1
 70
     0
  9
$DIMSE2
 70
     0
  9
$DIMTAD
 70
     0
  9
$DIMZIN
 70
     0
  9
$DIMBLK
  1

  9
$DIMASO
 70
     1
  9
$DIMSHO
 70
     1
  9
$DIMPOST
  1

  9
$DIMAPOST
  1

  9
$DIMALT
 70
     0
  9
$DIMALTD
 70
     2
  9
$DIMALTF
 40
25.4
  9
$DIMLFAC
 40
1.0
  9
$DIMTOFL
 70
     0
  9
$DIMTVP
 40
0.0
  9
$DIMTIX
 70
     0
  9
$DIMSOXD
 70
     0
  9
$DIMSAH
 70
     0
  9
$DIMBLK1
  1

  9
$DIMBLK2
  1

  9
$DIMSTYLE
  2
STANDARD
  9
$DIMCLRD
 70
     0
  9
$DIMCLRE
 70
     0
  9
$DIMCLRT
 70
     0
  9
$DIMTFAC
 40
1.0
  9
$DIMGAP
 40
0.09
  9
$LUNITS
 70
     2
  9
$LUPREC
 70
     4
  9
$AXISMODE
 70
     0
  9
$AXISUNIT
 10
0.0
 20
0.0
  9
$SKETCHINC
 40
0.1
  9
$FILLETRAD
 40
0.0
  9
$AUNITS
 70
     0
  9
$AUPREC
 70
     0
  9
$MENU
  1
acad
  9
$ELEVATION
 40
0.0
  9
$PELEVATION
 40
0.0
  9
$THICKNESS
 40
0.0
  9
$LIMCHECK
 70
     0
  9
$BLIPMODE
 70
     1
  9
$CHAMFERA
 40
0.0
  9
$CHAMFERB
 40
0.0
  9
$SKPOLY
 70
     0
  9
$TDCREATE
 40
2453013.900682870
  9
$TDUPDATE
 40
2453013.900682870
  9
$TDINDWG
 40
0.0000000000
  9
$TDUSRTIMER
 40
0.0000000000
  9
$USRTIMER
 70
     1
  9
$ANGBASE
 50
0.0
  9
$ANGDIR
 70
     0
  9
$PDMODE
 70
     0
  9
$PDSIZE
 40
0.0
  9
$PLINEWID
 40
0.0
  9
$COORDS
 70
     0
  9
$SPLFRAME
 70
     0
  9
$SPLINETYPE
 70
     6
  9
$SPLINESEGS
 70
    10
  9
$ATTDIA
 70
     0
  9
$ATTREQ
 70
     1
  9
$HANDLING
 70
     1
  9
$HANDSEED
  5
75A
  9
$SURFTAB1
 70
     6
  9
$SURFTAB2
 70
     6
  9
$SURFTYPE
 70
     6
  9
$SURFU
 70
     6
  9
$SURFV
 70
     6
  9
$UCSNAME
  2

  9
$UCSORG
 10
0.0
 20
0.0
 30
0.0
  9
$UCSXDIR
 10
1.0
 20
0.0
 30
0.0
  9
$UCSYDIR
 10
0.0
 20
1.0
 30
0.0
  9
$PUCSNAME
  2

  9
$PUCSORG
 10
0.0
 20
0.0
 30
0.0
  9
$PUCSXDIR
 10
1.0
 20
0.0
 30
0.0
  9
$PUCSYDIR
 10
0.0
 20
1.0
 30
0.0
  9
$USERI1
 70
     0
  9
$USERI2
 70
     0
  9
$USERI3
 70
     0
  9
$USERI4
 70
     0
  9
$USERI5
 70
     0
  9
$USERR1
 40
0.0
  9
$USERR2
 40
0.0
  9
$USERR3
 40
0.0
  9
$USERR4
 40
0.0
  9
$USERR5
 40
0.0
  9
$WORLDVIEW
 70
     1
  9
$SHADEDGE
 70
     3
  9
$SHADEDIF
 70
    70
  9
$TILEMODE
 70
     1
  9
$MAXACTVP
 70
    16
  9
$PINSBASE
 10
0.0
 20
0.0
 30
0.0
  9
$PLIMCHECK
 70
     0
  9
$PEXTMIN
 10
-1.000000E+20
 20
-1.000000E+20
 30
-1.000000E+20
  9
$PEXTMAX
 10
-1.000000E+20
 20
-1.000000E+20
 30
-1.000000E+20
  9
$PLIMMIN
 10
0.0
 20
0.0
  9
$PLIMMAX
 10
12.0
 20
9.0
  9
$UNITMODE
 70
     0
  9
$VISRETAIN
 70
     0
  9
$PLINEGEN
 70
     1
  9
$PSLTSCALE
 70
     0
  9
$TREEDEPTH
 70
  3020
  9
$DWGCODEPAGE
  3
ansi_1252
  0
ENDSEC
  0
SECTION
  2
TABLES
  0
TABLE
  2
VPORT
 70
     1
  0
VPORT
  2
*ACTIVE
 70
     0
 10
0.0
 20
0.0
 11
1.0
 21
1.0
 12
0.0
 22
0.0
 13
0.0
 23
0.0
 14
0.0
 24
0.0
 15
0.0
 25
0.0
 16
0.0
 26
0.0
 36
1.0
 17
960791.779
 27
7259819.050378
 37
0.0
 40
5871.490757
 41
1.688119
 42
50.0
 43
0.004
 44
0.0
 50
0.0
 51
0.0
 71
     0
 72
   100
 73
     1
 74
     0
 75
     0
 76
     0
 77
     0
 78
     0
  0
ENDTAB
  0
TABLE
  2
LTYPE
 70
     7
  0
LTYPE
  2
CONTINUOUS
 70
     0
  3
Solid line
 72
    65
 73
     0
 40
0.0
  0
LTYPE
  2
DOT
 70
    64
  3
. . . . . . . . . . . . . . . . . . . . . . . . . . . . . . . . .
 72
    65
 73
     2
 40
0.25
 49
0.0
 49
-0.25
  0
LTYPE
  2
HIDDEN
 70
    64
  3
__ __ __ __ __ __ __ __ __ __ __ __ __ __ __ __ __ __ __ __ __ 
 72
    65
 73
     2
 40
0.375
 49
0.25
 49
-0.125
  0
LTYPE
  2
DASHED
 70
    64
  3
__ __ __ __ __ __ __ __ __ __ __ __ __ __ __ __ __ __ __ __ __
 72
    65
 73
     2
 40
0.75
 49
0.5
 49
-0.25
  0
LTYPE
  2
DASHDOT
 70
    64
  3
__ . __ . __ . __ . __ . __ . __ . __ . __ . __ . __ . __ . _
 72
    65
 73
     4
 40
1.0
 49
0.5
 49
-0.25
 49
0.0
 49
-0.25
  0
LTYPE
  2
DIVIDE
 70
    64
  3
____ . . ____ . . ____ . . ____ . . ____ . . ____ . . ____ . .
 72
    65
 73
     6
 40
1.25
 49
0.5
 49
-0.25
 49
0.0
 49
-0.25
 49
0.0
 49
-0.25
  0
LTYPE
  2
CENTER
 70
    64
  3
____ _ ____ _ ____ _ ____ _ ____ _ ____ _ ____ _ ____ _ ____ _
 72
    65
 73
     4
 40
2.0
 49
1.25
 49
-0.25
 49
0.25
 49
-0.25
  0
ENDTAB
  0
TABLE
  2
LAYER
 70
    29
  0
LAYER
  2
0
 70
     0
 62
     7
  6
CONTINUOUS
  0
LAYER
  2
CONSTRUCTION_CLASS
 70
     1
 62
     7
  6
CONTINUOUS
  0
LAYER
  2
PATTERN_CLASS
 70
     0
 62
     7
  6
CONTINUOUS
  0
LAYER
  2
6
 70
    64
 62
     7
  6
CONTINUOUS
  0
LAYER
  2
7
 70
    64
 62
     7
  6
CONTINUOUS
  0
LAYER
  2
10
 70
    64
 62
     7
  6
CONTINUOUS
  0
LAYER
  2
27
 70
    64
 62
     7
  6
CONTINUOUS
  0
LAYER
  2
11
 70
    64
 62
     7
  6
CONTINUOUS
  0
LAYER
  2
15
 70
    64
 62
     7
  6
CONTINUOUS
  0
LAYER
  2
19
 70
    64
 62
     7
  6
CONTINUOUS
  0
LAYER
  2
22
 70
    64
 62
     7
  6
CONTINUOUS
  0
LAYER
  2
21
 70
    64
 62
     7
  6
CONTINUOUS
  0
LAYER
  2
13
 70
    64
 62
     7
  6
CONTINUOUS
  0
LAYER
  2
1
 70
    64
 62
     7
  6
CONTINUOUS
  0
LAYER
  2
25
 70
    64
 62
     7
  6
CONTINUOUS
  0
LAYER
  2
28
 70
    64
 62
     7
  6
CONTINUOUS
  0
LAYER
  2
-7
 70
    64
 62
     7
  6
CONTINUOUS
  0
LAYER
  2
-10
 70
    64
 62
     7
  6
CONTINUOUS
  0
LAYER
  2
-15
 70
    64
 62
     7
  6
CONTINUOUS
  0
LAYER
  2
-11
 70
    64
 62
     7
  6
CONTINUOUS
  0
LAYER
  2
-19
 70
    64
 62
     7
  6
CONTINUOUS
  0
LAYER
  2
-21
 70
    64
 62
     7
  6
CONTINUOUS
  0
LAYER
  2
-22
 70
    64
 62
     7
  6
CONTINUOUS
  0
LAYER
  2
-1
 70
    64
 62
     7
  6
CONTINUOUS
  0
LAYER
  2
-6
 70
    64
 62
     7
  6
CONTINUOUS
  0
LAYER
  2
-13
 70
    64
 62
     7
  6
CONTINUOUS
  0
LAYER
  2
-58
 70
    64
 62
     7
  6
CONTINUOUS
  0
LAYER
  2
-27
 70
    64
 62
     7
  6
CONTINUOUS
  0
LAYER
  2
-28
 70
    64
 62
     7
  6
CONTINUOUS
  0
ENDTAB
  0
TABLE
  2
STYLE
 70
     4
  0
STYLE
  2
STANDARD
 70
     0
 40
0.0
 41
1.0
 50
0.0
 71
     0
 42
0.0
  3
txt
  4

  0
STYLE
  2
ROMANS
 70
     0
 40
0.2
 41
1.0
 50
0.0
 71
     0
 42
0.2
  3
ROMANS
  4

  0
STYLE
  2
txt
 70
     0
 40
0.2
 41
1.0
 50
0.0
 71
     0
 42
0.2
  3
TXT
  4

  0
STYLE
  2
ROMANC
 70
     0
 40
0.2
 41
1.0
 50
0.0
 71
     0
 42
0.2
  3
ROMANC
  4

  0
ENDTAB
  0
TABLE
  2
VIEW
 70
     0
  0
ENDTAB
  0
TABLE
  2
UCS
 70
     0
  0
ENDTAB
  0
TABLE
  2
APPID
 70
     1
  0
APPID
  2
ACAD
 70
     0
  0
ENDTAB
  0
TABLE
  2
DIMSTYLE
 70
     1
  0
DIMSTYLE
  2
STANDARD
 70
     0
  3

  4

  5

  6

  7

 40
1.0
 41
0.18
 42
0.0625
 43
0.38
 44
0.18
 45
0.0
 46
0.0
 47
0.0
 48
0.0
140
0.18
141
0.09
142
0.0
143
25.4
144
1.0
145
0.0
146
1.0
147
0.09
 71
     0
 72
     0
 73
     1
 74
     1
 75
     0
 76
     0
 77
     0
 78
     0
170
     0
171
     2
172
     0
173
     0
174
     0
175
     0
176
     0
177
     0
178
     0
  0
ENDTAB
  0
ENDSEC
  0
SECTION
  2
BLOCKS
  0
ENDSEC
  0
SECTION
  2
ENTITIES
  0
LINE
  8
6
  6
CONTINUOUS
 62
     7
  5
29
 10
957673.361
 20
7260382.077
 30
0.0
 11
958336.962
 21
7260360.573
 31
0.0
  0
LINE
  8
6
  6
CONTINUOUS
 62
     7
  5
2A
 10
957650.946
 20
7259998.339
 30
0.0
 11
957673.361
 21
7260382.077
 31
0.0
  0
LINE
  8
6
  6
CONTINUOUS
 62
     7
  5
2B
 10
958339.392
 20
7260435.534
 30
0.0
 11
958336.962
 21
7260360.573
 31
0.0
  0
LINE
  8
6
  6
CONTINUOUS
 62
     7
  5
2C
 10
964101.236
 20
7262165.403
 30
0.0
 11
962343.589
 21
7262222.374
 31
0.0
  0
LINE
  8
7
  6
CONTINUOUS
 62
     7
  5
2E
 10
962867.239
 20
7262205.398
 30
0.0
 11
962863.165
 21
7262035.447
 31
0.0
  0
LINE
  8
7
  6
CONTINUOUS
 62
     7
  5
2F
 10
962863.165
 20
7262035.447
 30
0.0
 11
962479.955
 21
7262047.868
 31
0.0
  0
LINE
  8
7
  6
CONTINUOUS
 62
     7
  5
30
 10
963469.922
 20
7262185.863
 30
0.0
 11
963457.577
 21
7261670.86
 31
0.0
  0
LINE
  8
7
  6
CONTINUOUS
 62
     7
  5
31
 10
963457.577
 20
7261670.86
 30
0.0
 11
963275.973
 21
7261676.747
 31
0.0
  0
LINE
  8
7
  6
CONTINUOUS
 62
     7
  5
32
 10
963120.106
 20
7262197.202
 30
0.0
 11
963097.658
 21
7261737.809
 31
0.0
  0
ARC
  8
7
  6
CONTINUOUS
 62
     7
  5
33
 10
963286.387189
 20
7261998.048049
 30
0.0
 40
321.47
 50
234.049658
 51
268.1435
210
0.0
220
0.0
230
1.0
  0
LINE
  8
6
  6
CONTINUOUS
 62
     7
  5
34
 10
962316.38
 20
7262256.509
 30
0.0
 11
964034.897
 21
7260050.449
 31
0.0
  0
TEXT
  8
10
  6
CONTINUOUS
 62
   134
  5
37
 10
957842.166
 20
7261677.971
 30
0.0
 40
13.999
  1
TRACT "A"
 50
88.1435
  7
ROMANS
 11
957828.174348
 21
7261678.424517
 31
0.0
210
0.0
220
0.0
230
1.0
 73
     3
  0
TEXT
  8
10
  6
CONTINUOUS
 62
   134
  5
38
 10
957982.142
 20
7261667.495
 30
0.0
 40
13.999
  1
TRACT "B"
 50
88.1435
  7
ROMANS
 11
957968.150348
 21
7261667.948517
 31
0.0
210
0.0
220
0.0
230
1.0
 73
     3
  0
TEXT
  8
10
  6
CONTINUOUS
 62
   134
  5
39
 10
958538.203
 20
7261629.056
 30
0.0
 40
13.999
  1
TRACT "C"
 50
358.1435
  7
ROMANS
 11
958538.656517
 21
7261643.047652
 31
0.0
210
0.0
220
0.0
230
1.0
 73
     3
  0
TEXT
  8
10
  6
CONTINUOUS
 62
   134
  5
3A
 10
960804.527
 20
7260774.594
 30
0.0
 40
13.999
  1
1
 50
358.1435
  7
ROMANS
 11
960804.980517
 21
7260788.585652
 31
0.0
210
0.0
220
0.0
230
1.0
 73
     3
  0
TEXT
  8
10
  6
CONTINUOUS
 62
   134
  5
3B
 10
957882.865
 20
7259906.739
 30
0.0
 40
13.999
  1
1
 50
358.1435
  7
ROMANS
 11
957883.318517
 21
7259920.730652
 31
0.0
210
0.0
220
0.0
230
1.0
 73
     3
  0
TEXT
  8
10
  6
CONTINUOUS
 62
   134
  5
3C
 10
959160.545
 20
7258223.877
 30
0.0
 40
13.999
  1
TRACT "1"
 50
358.1435
  7
ROMANS
 11
959160.998517
 21
7258237.868652
 31
0.0
210
0.0
220
0.0
230
1.0
 73
     3
  0
TEXT
  8
10
  6
CONTINUOUS
 62
   134
  5
3D
 10
961590.264
 20
7261475.449
 30
0.0
 40
13.999
  1
1
 50
358.1435
  7
ROMANS
 11
961590.717517
 21
7261489.440652
 31
0.0
210
0.0
220
0.0
230
1.0
 73
     3
  0
TEXT
  8
10
  6
CONTINUOUS
 62
   134
  5
3E
 10
962409.922
 20
7261400.066
 30
0.0
 40
13.999
  1
3
 50
358.1435
  7
ROMANS
 11
962410.375517
 21
7261414.057652
 31
0.0
210
0.0
220
0.0
230
1.0
 73
     3
  0
TEXT
  8
10
  6
CONTINUOUS
 62
   134
  5
3F
 10
962058.954
 20
7262119.892
 30
0.0
 40
13.999
  1
4
 50
358.1435
  7
ROMANS
 11
962059.407517
 21
7262133.883652
 31
0.0
210
0.0
220
0.0
230
1.0
 73
     3
  0
TEXT
  8
10
  6
CONTINUOUS
 62
   134
  5
40
 10
961816.779
 20
7262124.854
 30
0.0
 40
13.999
  1
1
 50
358.1435
  7
ROMANS
 11
961817.232517
 21
7262138.845652
 31
0.0
210
0.0
220
0.0
230
1.0
 73
     3
  0
LINE
  8
27
  6
CONTINUOUS
 62
    32
  5
42
 10
962403.443
 20
7262088.896
 30
0.0
 11
963864.254
 21
7260221.607
 31
0.0
  0
TEXT
  8
11
  6
CONTINUOUS
 62
     7
  5
44
 10
957797.056
 20
7261098.127
 30
0.0
 40
8.0
  1
195'
 50
358.1435
  7
ROMANS
210
0.0
220
0.0
230
1.0
  0
TEXT
  8
11
  6
CONTINUOUS
 62
     7
  5
45
 10
957962.975
 20
7261093.182
 30
0.0
 40
8.0
  1
130'
 50
358.1435
  7
ROMANS
210
0.0
220
0.0
230
1.0
  0
TEXT
  8
11
  6
CONTINUOUS
 62
     7
  5
46
 10
958087.993
 20
7261089.778
 30
0.0
 40
8.0
  1
120'
 50
358.1435
  7
ROMANS
210
0.0
220
0.0
230
1.0
  0
TEXT
  8
11
  6
CONTINUOUS
 62
     7
  5
47
 10
958266.681
 20
7260643.184
 30
0.0
 40
8.0
  1
20'
 50
358.1435
  7
ROMANS
210
0.0
220
0.0
230
1.0
  0
TEXT
  8
11
  6
CONTINUOUS
 62
     7
  5
48
 10
958567.381
 20
7260712.597
 30
0.0
 40
8.0
  1
675'
 50
358.1435
  7
ROMANS
210
0.0
220
0.0
230
1.0
  0
TEXT
  8
11
  6
CONTINUOUS
 62
     7
  5
49
 10
957887.896
 20
7261081.779
 30
0.0
 40
8.0
  1
450'
 50
358.1435
  7
ROMANS
210
0.0
220
0.0
230
1.0
  0
TEXT
  8
11
  6
CONTINUOUS
 62
     7
  5
4A
 10
957711.126
 20
7260932.434
 30
0.0
 40
8.0
  1
642'
 50
88.1435
  7
ROMANS
210
0.0
220
0.0
230
1.0
  0
TEXT
  8
11
  6
CONTINUOUS
 62
     7
  5
4B
 10
957699.038
 20
7262296.153
 30
0.0
 40
8.0
  1
75'
 50
358.1435
  7
ROMANS
210
0.0
220
0.0
230
1.0
  0
TEXT
  8
11
  6
CONTINUOUS
 62
     7
  5
4C
 10
957668.38
 20
7261104.04
 30
0.0
 40
8.0
  1
90'
 50
358.1435
  7
ROMANS
210
0.0
220
0.0
230
1.0
  0
TEXT
  8
11
  6
CONTINUOUS
 62
     7
  5
4D
 10
957835.765
 20
7262312.03
 30
0.0
 40
8.0
  1
184.01'
 50
358.1435
  7
ROMANS
210
0.0
220
0.0
230
1.0
  0
TEXT
  8
11
  6
CONTINUOUS
 62
     7
  5
4E
 10
957987.869
 20
7262307.098
 30
0.0
 40
8.0
  1
130'
 50
358.1435
  7
ROMANS
210
0.0
220
0.0
230
1.0
  0
TEXT
  8
11
  6
CONTINUOUS
 62
     7
  5
4F
 10
958325.015
 20
7262295.88
 30
0.0
 40
8.0
  1
735.35'
 50
358.1435
  7
ROMANS
210
0.0
220
0.0
230
1.0
  0
TEXT
  8
11
  6
CONTINUOUS
 62
     7
  5
50
 10
958865.91
 20
7262279.891
 30
0.0
 40
8.0
  1
206.57'
 50
358.1435
  7
ROMANS
210
0.0
220
0.0
230
1.0
  0
TEXT
  8
11
  6
CONTINUOUS
 62
     7
  5
51
 10
958982.919
 20
7261434.768
 30
0.0
 40
8.0
  1
1590.61'
 50
88.1435
  7
ROMANS
210
0.0
220
0.0
230
1.0
  0
TEXT
  8
11
  6
CONTINUOUS
 62
     7
  5
52
 10
958032.493
 20
7261718.862
 30
0.0
 40
8.0
  1
1228'
 50
88.1435
  7
ROMANS
210
0.0
220
0.0
230
1.0
  0
TEXT
  8
11
  6
CONTINUOUS
 62
     7
  5
53
 10
957919.211
 20
7261714.823
 30
0.0
 40
8.0
  1
1228'
 50
88.1435
  7
ROMANS
210
0.0
220
0.0
230
1.0
  0
TEXT
  8
11
  6
CONTINUOUS
 62
     7
  5
54
 10
957737.542
 20
7261735.506
 30
0.0
 40
8.0
  1
487.91'
 50
88.1435
  7
ROMANS
210
0.0
220
0.0
230
1.0
  0
TEXT
  8
11
  6
CONTINUOUS
 62
     7
  5
55
 10
957748.396
 20
7262033.183
 30
0.0
 40
8.0
  1
200.25'
 50
88.1435
  7
ROMANS
210
0.0
220
0.0
230
1.0
  0
TEXT
  8
11
  6
CONTINUOUS
 62
     7
  5
56
 10
957750.776
 20
7262224.47
 30
0.0
 40
8.0
  1
208'
 50
88.1435
  7
ROMANS
210
0.0
220
0.0
230
1.0
  0
TEXT
  8
11
  6
CONTINUOUS
 62
     7
  5
57
 10
957722.255
 20
7261252.428
 30
0.0
 40
8.0
  1
301.26'
 50
88.1435
  7
ROMANS
210
0.0
220
0.0
230
1.0
  0
TEXT
  8
11
  6
CONTINUOUS
 62
     7
  5
58
 10
958271.018
 20
7260564.556
 30
0.0
 40
8.0
  1
218'
 50
88.1435
  7
ROMANS
210
0.0
220
0.0
230
1.0
  0
TEXT
  8
11
  6
CONTINUOUS
 62
     7
  5
59
 10
957952.98
 20
7260450.454
 30
0.0
 40
8.0
  1
584.55'
 50
358.1435
  7
ROMANS
210
0.0
220
0.0
230
1.0
  0
TEXT
  8
15
  6
CONTINUOUS
 62
    30
  5
5C
 10
960514.813
 20
7260767.812
 30
0.0
 40
50.0
  1
PAYMASTER
 50
43.1435
  7
txt
 72
     4
 11
960656.709498
 21
7260935.061924
 31
0.0
210
0.0
220
0.0
230
1.0
  0
TEXT
  8
11
  6
CONTINUOUS
 62
     7
  5
5D
 10
957790.244
 20
7262347.933
 30
0.0
 40
8.0
  1
65'
 50
88.1435
  7
ROMANS
210
0.0
220
0.0
230
1.0
  0
TEXT
  8
15
  6
CONTINUOUS
 62
    30
  5
5E
 10
957809.12
 20
7260838.718
 30
0.0
 40
50.0
  1
LUBBOCK
 50
43.1435
  7
txt
 72
     4
 11
957912.526354
 21
7260969.894633
 31
0.0
210
0.0
220
0.0
230
1.0
  0
TEXT
  8
15
  6
CONTINUOUS
 62
    30
  5
5F
 10
957800.215
 20
7260679.973
 30
0.0
 40
50.0
  1
INDEPENDENT
 50
43.1435
  7
txt
 72
     4
 11
957968.682919
 21
7260872.125886
 31
0.0
210
0.0
220
0.0
230
1.0
  0
TEXT
  8
15
  6
CONTINUOUS
 62
    30
  5
60
 10
957819.387
 20
7260553.243
 30
0.0
 40
50.0
  1
SCHOOL
 50
43.1435
  7
txt
 72
     4
 11
957904.264792
 21
7260667.054507
 31
0.0
210
0.0
220
0.0
230
1.0
  0
TEXT
  8
19
  6
CONTINUOUS
 62
     1
  5
62
 10
960630.799
 20
7262295.878
 30
0.0
 40
24.0
  1
50TH STREET
 50
358.1435
  7
txt
 72
     4
 11
960757.921199
 21
7262303.763842
 31
0.0
210
0.0
220
0.0
230
1.0
  0
TEXT
  8
11
  6
CONTINUOUS
 62
     7
  5
63
 10
957848.612
 20
7259979.739
 30
0.0
 40
8.0
  1
438'
 50
358.1435
  7
ROMANS
210
0.0
220
0.0
230
1.0
  0
TEXT
  8
11
  6
CONTINUOUS
 62
     7
  5
64
 10
957842.837
 20
7259803.155
 30
0.0
 40
8.0
  1
438'
 50
358.1435
  7
ROMANS
210
0.0
220
0.0
230
1.0
  0
TEXT
  8
11
  6
CONTINUOUS
 62
     7
  5
65
 10
957605.095
 20
7259983.208
 30
0.0
 40
8.0
  1
70'
 50
358.1435
  7
ROMANS
210
0.0
220
0.0
230
1.0
  0
TEXT
  8
11
  6
CONTINUOUS
 62
     7
  5
66
 10
958303.02
 20
7260442.99
 30
0.0
 40
8.0
  1
100'
 50
358.1435
  7
ROMANS
210
0.0
220
0.0
230
1.0
  0
TEXT
  8
11
  6
CONTINUOUS
 62
     7
  5
67
 10
958000.793
 20
7260356.098
 30
0.0
 40
8.0
  1
684.55'
 50
358.1435
  7
ROMANS
210
0.0
220
0.0
230
1.0
  0
TEXT
  8
11
  6
CONTINUOUS
 62
     7
  5
68
 10
957689.92
 20
7260441.842
 30
0.0
 40
8.0
  1
75'
 50
88.1435
  7
ROMANS
210
0.0
220
0.0
230
1.0
  0
TEXT
  8
11
  6
CONTINUOUS
 62
     7
  5
69
 10
958353.635
 20
7260394.832
 30
0.0
 40
8.0
  1
75'
 50
88.1435
  7
ROMANS
210
0.0
220
0.0
230
1.0
  0
TEXT
  8
11
  6
CONTINUOUS
 62
     7
  5
6A
 10
958081.595
 20
7259874.711
 30
0.0
 40
8.0
  1
212'
 50
88.1435
  7
ROMANS
210
0.0
220
0.0
230
1.0
  0
TEXT
  8
11
  6
CONTINUOUS
 62
     7
  5
6B
 10
957642.715
 20
7259909.318
 30
0.0
 40
8.0
  1
212'
 50
88.1435
  7
ROMANS
210
0.0
220
0.0
230
1.0
  0
TEXT
  8
11
  6
CONTINUOUS
 62
     7
  5
6C
 10
960184.096
 20
7259675.539
 30
0.0
 40
8.0
  1
1196.1'
 50
358.1435
  7
ROMANS
210
0.0
220
0.0
230
1.0
  0
TEXT
  8
15
  6
CONTINUOUS
 62
    30
  5
6D
 10
957782.979
 20
7259802.255
 30
0.0
 40
50.0
  1
WILLIS
 50
43.1435
  7
txt
 72
     4
 11
957858.088327
 21
7259906.911418
 31
0.0
210
0.0
220
0.0
230
1.0
  0
TEXT
  8
11
  6
CONTINUOUS
 62
     7
  5
6E
 10
959195.982
 20
7258049.407
 30
0.0
 40
8.0
  1
3216.8'
 50
358.1435
  7
ROMANS
210
0.0
220
0.0
230
1.0
  0
TEXT
  8
11
  6
CONTINUOUS
 62
     7
  5
6F
 10
957594.394
 20
7258234.994
 30
0.0
 40
8.0
  1
318.17'
 50
88.1435
  7
ROMANS
210
0.0
220
0.0
230
1.0
  0
TEXT
  8
11
  6
CONTINUOUS
 62
     7
  5
70
 10
959250.194
 20
7258027.463
 30
0.0
 40
8.0
  1
34'
 50
88.1435
  7
ROMANS
210
0.0
220
0.0
230
1.0
  0
TEXT
  8
11
  6
CONTINUOUS
 62
     7
  5
71
 10
960797.639
 20
7258316.899
 30
0.0
 40
8.0
  1
37.5'
 50
358.1435
  7
ROMANS
210
0.0
220
0.0
230
1.0
  0
TEXT
  8
11
  6
CONTINUOUS
 62
     7
  5
72
 10
960792.26
 20
7258017.034
 30
0.0
 40
8.0
  1
37.5'
 50
358.1435
  7
ROMANS
210
0.0
220
0.0
230
1.0
  0
TEXT
  8
11
  6
CONTINUOUS
 62
     7
  5
73
 10
960787.943
 20
7258140.729
 30
0.0
 40
8.0
  1
314.05'
 50
88.1435
  7
ROMANS
210
0.0
220
0.0
230
1.0
  0
TEXT
  8
19
  6
CONTINUOUS
 62
     1
  5
74
 10
960818.968
 20
7258059.529
 30
0.0
 40
24.0
  1
ASPEN AVE
 50
88.1435
  7
txt
 72
     4
 11
960810.307691
 21
7258162.757747
 31
0.0
210
0.0
220
0.0
230
1.0
  0
TEXT
  8
11
  6
CONTINUOUS
 62
     7
  5
75
 10
960975.309
 20
7259346.54
 30
0.0
 40
8.0
  1
300'
 50
358.1435
  7
ROMANS
210
0.0
220
0.0
230
1.0
  0
TEXT
  8
11
  6
CONTINUOUS
 62
     7
  5
76
 10
961428.891
 20
7259635.591
 30
0.0
 40
8.0
  1
700'
 50
358.1435
  7
ROMANS
210
0.0
220
0.0
230
1.0
  0
TEXT
  8
11
  6
CONTINUOUS
 62
     7
  5
77
 10
961147.484
 20
7259429.409
 30
0.0
 40
8.0
  1
S0%%d40'E  300'
 50
88.1435
  7
ROMANS
210
0.0
220
0.0
230
1.0
  0
TEXT
  8
11
  6
CONTINUOUS
 62
     7
  5
78
 10
960860.973
 20
7259390.207
 30
0.0
 40
8.0
  1
N0%%d40'W    300'
 50
88.1435
  7
ROMANS
210
0.0
220
0.0
230
1.0
  0
TEXT
  8
11
  6
CONTINUOUS
 62
     7
  5
79
 10
961868.42
 20
7260462.623
 30
0.0
 40
8.0
  1
S0%%d35'15"E   1612.7'
 50
88.1435
  7
ROMANS
210
0.0
220
0.0
230
1.0
  0
TEXT
  8
11
  6
CONTINUOUS
 62
     7
  5
7A
 10
960280.369
 20
7262237.154
 30
0.0
 40
8.0
  1
929.57'
 50
358.1435
  7
ROMANS
210
0.0
220
0.0
230
1.0
  0
TEXT
  8
11
  6
CONTINUOUS
 62
     7
  5
7B
 10
961023.249
 20
7262233.758
 30
0.0
 40
8.0
  1
N89%%d21'34"E
 50
358.1435
  7
ROMANS
210
0.0
220
0.0
230
1.0
  0
TEXT
  8
11
  6
CONTINUOUS
 62
     7
  5
7C
 10
961034.925
 20
7262217.039
 30
0.0
 40
8.0
  1
645.47'
 50
358.1435
  7
ROMANS
210
0.0
220
0.0
230
1.0
  0
TEXT
  8
11
  6
CONTINUOUS
 62
     7
  5
7D
 10
961677.593
 20
7262200.975
 30
0.0
 40
8.0
  1
50'
 50
358.1435
  7
ROMANS
210
0.0
220
0.0
230
1.0
  0
TEXT
  8
11
  6
CONTINUOUS
 62
     7
  5
7E
 10
961786.915
 20
7262174.69
 30
0.0
 40
8.0
  1
227.27'
 50
358.1435
  7
ROMANS
210
0.0
220
0.0
230
1.0
  0
TEXT
  8
11
  6
CONTINUOUS
 62
     7
  5
7F
 10
962006.317
 20
7262190.815
 30
0.0
 40
8.0
  1
158.77'
 50
358.1435
  7
ROMANS
210
0.0
220
0.0
230
1.0
  0
TEXT
  8
11
  6
CONTINUOUS
 62
     7
  5
80
 10
962640.052
 20
7262198.292
 30
0.0
 40
8.0
  1
523.58'
 50
358.1435
  7
ROMANS
210
0.0
220
0.0
230
1.0
  0
TEXT
  8
11
  6
CONTINUOUS
 62
     7
  5
81
 10
962663.518
 20
7262049.295
 30
0.0
 40
8.0
  1
384.6'
 50
358.1435
  7
ROMANS
210
0.0
220
0.0
230
1.0
  0
TEXT
  8
11
  6
CONTINUOUS
 62
     7
  5
82
 10
962375.574
 20
7261480.531
 30
0.0
 40
8.0
  1
525.05'
 50
358.1435
  7
ROMANS
210
0.0
220
0.0
230
1.0
  0
TEXT
  8
11
  6
CONTINUOUS
 62
     7
  5
83
 10
962370.951
 20
7261335.941
 30
0.0
 40
8.0
  1
588.44'
 50
358.1435
  7
ROMANS
210
0.0
220
0.0
230
1.0
  0
TEXT
  8
11
  6
CONTINUOUS
 62
     7
  5
84
 10
961562.977
 20
7261361.3
 30
0.0
 40
8.0
  1
596.32'
 50
358.1435
  7
ROMANS
210
0.0
220
0.0
230
1.0
  0
TEXT
  8
11
  6
CONTINUOUS
 62
     7
  5
85
 10
961554.89
 20
7261631.215
 30
0.0
 40
8.0
  1
594.51'
 50
358.1435
  7
ROMANS
210
0.0
220
0.0
230
1.0
  0
TEXT
  8
11
  6
CONTINUOUS
 62
     7
  5
86
 10
961916.12
 20
7261510.678
 30
0.0
 40
8.0
  1
10'
 50
358.1435
  7
ROMANS
210
0.0
220
0.0
230
1.0
  0
TEXT
  8
11
  6
CONTINUOUS
 62
     7
  5
87
 10
961277.232
 20
7261383.943
 30
0.0
 40
8.0
  1
37.5'
 50
358.1435
  7
ROMANS
210
0.0
220
0.0
230
1.0
  0
TEXT
  8
11
  6
CONTINUOUS
 62
     7
  5
88
 10
961530.482
 20
7261230.438
 30
0.0
 40
8.0
  1
621.1'
 50
358.1435
  7
ROMANS
210
0.0
220
0.0
230
1.0
  0
TEXT
  8
11
  6
CONTINUOUS
 62
     7
  5
89
 10
962013.802
 20
7261368.929
 30
0.0
 40
8.0
  1
213.72'
 50
358.1435
  7
ROMANS
210
0.0
220
0.0
230
1.0
  0
TEXT
  8
11
  6
CONTINUOUS
 62
     7
  5
8A
 10
962148.941
 20
7261396.612
 30
0.0
 40
8.0
  1
160'
 50
88.1435
  7
ROMANS
210
0.0
220
0.0
230
1.0
  0
TEXT
  8
11
  6
CONTINUOUS
 62
     7
  5
8B
 10
962145.92
 20
7261303.437
 30
0.0
 40
8.0
  1
37.5'
 50
88.1435
  7
ROMANS
210
0.0
220
0.0
230
1.0
  0
TEXT
  8
11
  6
CONTINUOUS
 62
     7
  5
8C
 10
961722.506
 20
7262140.641
 30
0.0
 40
8.0
  1
80'
 50
88.1435
  7
ROMANS
210
0.0
220
0.0
230
1.0
  0
TEXT
  8
11
  6
CONTINUOUS
 62
     7
  5
8D
 10
961930.203
 20
7262062.954
 30
0.0
 40
8.0
  1
165.65'
 50
88.1435
  7
ROMANS
210
0.0
220
0.0
230
1.0
  0
TEXT
  8
11
  6
CONTINUOUS
 62
     7
  5
8E
 10
961944.155
 20
7262062.166
 30
0.0
 40
8.0
  1
185.65'
 50
88.1435
  7
ROMANS
210
0.0
220
0.0
230
1.0
  0
TEXT
  8
11
  6
CONTINUOUS
 62
     7
  5
8F
 10
961955.545
 20
7262251.586
 30
0.0
 40
8.0
  1
60'
 50
88.1435
  7
ROMANS
210
0.0
220
0.0
230
1.0
  0
TEXT
  8
11
  6
CONTINUOUS
 62
     7
  5
90
 10
962366.367
 20
7262224.331
 30
0.0
 40
8.0
  1
20'
 50
88.1435
  7
ROMANS
210
0.0
220
0.0
230
1.0
  0
TEXT
  8
11
  6
CONTINUOUS
 62
     7
  5
91
 10
961783.549
 20
7262023.98
 30
0.0
 40
8.0
  1
277.27'
 50
358.1435
  7
ROMANS
210
0.0
220
0.0
230
1.0
  0
TEXT
  8
11
  6
CONTINUOUS
 62
     7
  5
92
 10
962053.936
 20
7262017.298
 30
0.0
 40
8.0
  1
320.28'
 50
358.1435
  7
ROMANS
210
0.0
220
0.0
230
1.0
  0
TEXT
  8
11
  6
CONTINUOUS
 62
     7
  5
93
 10
962154.934
 20
7261501.767
 30
0.0
 40
8.0
  1
10'
 50
88.1435
  7
ROMANS
210
0.0
220
0.0
230
1.0
  0
TEXT
  8
11
  6
CONTINUOUS
 62
     7
  5
94
 10
962649.3
 20
7261487.326
 30
0.0
 40
8.0
  1
10'
 50
88.1435
  7
ROMANS
210
0.0
220
0.0
230
1.0
  0
TEXT
  8
11
  6
CONTINUOUS
 62
     7
  5
95
 10
961330.495
 20
7261649.789
 30
0.0
 40
8.0
  1
10'
 50
88.1435
  7
ROMANS
210
0.0
220
0.0
230
1.0
  0
TEXT
  8
11
  6
CONTINUOUS
 62
     7
  5
96
 10
961915.814
 20
7261558.949
 30
0.0
 40
8.0
  1
112.5'
 50
88.1435
  7
ROMANS
210
0.0
220
0.0
230
1.0
  0
TEXT
  8
11
  6
CONTINUOUS
 62
     7
  5
97
 10
961323.545
 20
7261482.336
 30
0.0
 40
8.0
  1
267.67'
 50
88.1435
  7
ROMANS
210
0.0
220
0.0
230
1.0
  0
TEXT
  8
11
  6
CONTINUOUS
 62
     7
  5
98
 10
961919.894
 20
7261424.653
 30
0.0
 40
8.0
  1
160'
 50
88.1435
  7
ROMANS
210
0.0
220
0.0
230
1.0
  0
TEXT
  8
11
  6
CONTINUOUS
 62
     7
  5
99
 10
961914.997
 20
7261310.451
 30
0.0
 40
8.0
  1
37.5'
 50
88.1435
  7
ROMANS
210
0.0
220
0.0
230
1.0
  0
TEXT
  8
11
  6
CONTINUOUS
 62
     7
  5
9A
 10
961667.779
 20
7262044.146
 30
0.0
 40
8.0
  1
85.65'
 50
88.1435
  7
ROMANS
210
0.0
220
0.0
230
1.0
  0
TEXT
  8
11
  6
CONTINUOUS
 62
     7
  5
9B
 10
962139.449
 20
7262133.781
 30
0.0
 40
8.0
  1
234.44'
 50
307.918322
  7
ROMANS
210
0.0
220
0.0
230
1.0
  0
TEXT
  8
11
  6
CONTINUOUS
 62
     7
  5
9C
 10
962685.973
 20
7261438.395
 30
0.0
 40
8.0
  1
162.46'
 50
307.918325
  7
ROMANS
210
0.0
220
0.0
230
1.0
  0
TEXT
  8
11
  6
CONTINUOUS
 62
     7
  5
9D
 10
962736.434
 20
7261345.069
 30
0.0
 40
8.0
  1
R=15'
 50
358.1435
  7
ROMANS
210
0.0
220
0.0
230
1.0
  0
TEXT
  8
15
  6
CONTINUOUS
 62
    30
  5
9E
 10
961438.284
 20
7261370.77
 30
0.0
 40
50.0
  1
HOWARD
 50
43.1435
  7
txt
 72
     4
 11
961528.619524
 21
7261489.696539
 31
0.0
210
0.0
220
0.0
230
1.0
  0
TEXT
  8
15
  6
CONTINUOUS
 62
    30
  5
9F
 10
962203.208
 20
7261309.946
 30
0.0
 40
50.0
  1
HUDMAN
 50
43.1435
  7
txt
 72
     4
 11
962290.385628
 21
7261425.912932
 31
0.0
210
0.0
220
0.0
230
1.0
  0
TEXT
  8
19
  6
CONTINUOUS
 62
     1
  5
A0
 10
961304.009
 20
7261423.921
 30
0.0
 40
24.0
  1
BEECH AVE
 50
88.1435
  7
txt
 72
     4
 11
961295.367027
 21
7261527.71545
 31
0.0
210
0.0
220
0.0
230
1.0
  0
TEXT
  8
19
  6
CONTINUOUS
 62
     1
  5
A1
 10
963658.592
 20
7260387.524
 30
0.0
 40
24.0
  1
SPUR 331
 50
307.918561
  7
txt
 72
     4
 11
963722.002397
 21
7260325.650949
 31
0.0
210
0.0
220
0.0
230
1.0
  0
TEXT
  8
11
  6
CONTINUOUS
 62
     7
  5
A2
 10
962977.599
 20
7262185.686
 30
0.0
 40
8.0
  1
253'
 50
358.1435
  7
ROMANS
210
0.0
220
0.0
230
1.0
  0
TEXT
  8
11
  6
CONTINUOUS
 62
     7
  5
A3
 10
963105.562
 20
7261963.751
 30
0.0
 40
8.0
  1
295'
 50
88.1435
  7
ROMANS
210
0.0
220
0.0
230
1.0
  0
TEXT
  8
11
  6
CONTINUOUS
 62
     7
  5
A4
 10
962859.905
 20
7262115.173
 30
0.0
 40
8.0
  1
170'
 50
88.1435
  7
ROMANS
210
0.0
220
0.0
230
1.0
  0
TEXT
  8
11
  6
CONTINUOUS
 62
     7
  5
A5
 10
962401.618
 20
7262153.31
 30
0.0
 40
8.0
  1
219.48'
 50
307.918497
  7
ROMANS
210
0.0
220
0.0
230
1.0
  0
TEXT
  8
11
  6
CONTINUOUS
 62
     7
  5
A6
 10
963479.614
 20
7262187.0
 30
0.0
 40
8.0
  1
20'
 50
88.1435
  7
ROMANS
210
0.0
220
0.0
230
1.0
  0
TEXT
  8
11
  6
CONTINUOUS
 62
     7
  5
A7
 10
962823.011
 20
7261610.3
 30
0.0
 40
8.0
  1
2612.7'
 50
307.918497
  7
ROMANS
210
0.0
220
0.0
230
1.0
  0
TEXT
  8
11
  6
CONTINUOUS
 62
     7
  5
A8
 10
962761.671
 20
7261660.06
 30
0.0
 40
8.0
  1
S39%%d39'E
 50
307.918492
  7
ROMANS
210
0.0
220
0.0
230
1.0
  0
TEXT
  8
15
  6
CONTINUOUS
 62
    30
  5
A9
 10
961692.953
 20
7262029.382
 30
0.0
 40
50.0
  1
HUDMAN
 50
43.1435
  7
txt
 72
     4
 11
961780.130628
 21
7262145.348932
 31
0.0
210
0.0
220
0.0
230
1.0
  0
TEXT
  8
11
  6
CONTINUOUS
 62
     7
  5
AA
 10
963457.521
 20
7261918.936
 30
0.0
 40
8.0
  1
515.15'
 50
88.1435
  7
ROMANS
210
0.0
220
0.0
230
1.0
  0
TEXT
  8
11
  6
CONTINUOUS
 62
     7
  5
AB
 10
963274.057
 20
7262174.037
 30
0.0
 40
8.0
  1
350'
 50
358.1435
  7
ROMANS
210
0.0
220
0.0
230
1.0
  0
TEXT
  8
11
  6
CONTINUOUS
 62
     7
  5
AC
 10
963346.874
 20
7261678.989
 30
0.0
 40
8.0
  1
181.7'
 50
358.1435
  7
ROMANS
210
0.0
220
0.0
230
1.0
  0
TEXT
  8
11
  6
CONTINUOUS
 62
     7
  5
AD
 10
963135.949
 20
7261729.087
 30
0.0
 40
8.0
  1
R=321.47'
 50
358.1435
  7
ROMANS
210
0.0
220
0.0
230
1.0
  0
TEXT
  8
11
  6
CONTINUOUS
 62
     7
  5
AE
 10
963149.878
 20
7261714.215
 30
0.0
 40
8.0
  1
CH=194.13'
 50
358.1435
  7
ROMANS
210
0.0
220
0.0
230
1.0
  0
TEXT
  8
11
  6
CONTINUOUS
 62
     7
  5
AF
 10
963689.072
 20
7262159.383
 30
0.0
 40
8.0
  1
454.8'
 50
358.1435
  7
ROMANS
210
0.0
220
0.0
230
1.0
  0
TEXT
  8
11
  6
CONTINUOUS
 62
     7
  5
B0
 10
962842.45
 20
7261463.463
 30
0.0
 40
8.0
  1
100'
 50
37.918422
  7
ROMANS
210
0.0
220
0.0
230
1.0
  0
TEXT
  8
11
  6
CONTINUOUS
 62
     7
  5
B1
 10
962896.158
 20
7261499.873
 30
0.0
 40
8.0
  1
50'
 50
37.918422
  7
ROMANS
210
0.0
220
0.0
230
1.0
  0
TEXT
  8
11
  6
CONTINUOUS
 62
     7
  5
B2
 10
962941.815
 20
7261535.438
 30
0.0
 40
8.0
  1
50'
 50
37.918422
  7
ROMANS
210
0.0
220
0.0
230
1.0
  0
TEXT
  8
10
  6
CONTINUOUS
 62
   134
  5
B4
 10
963279.281
 20
7261941.907
 30
0.0
 40
24.0
  1
4
 50
358.1435
  7
ROMANC
210
0.0
220
0.0
230
1.0
  0
TEXT
  8
15
  6
CONTINUOUS
 62
    30
  5
B5
 10
957845.661
 20
7260441.077
 30
0.0
 40
50.0
  1
DISTRICT
 50
43.1435
  7
txt
 72
     4
 11
957956.395162
 21
7260579.121317
 31
0.0
210
0.0
220
0.0
230
1.0
  0
TEXT
  8
22
  6
CONTINUOUS
 62
     3
  5
B7
 10
963755.414
 20
7261126.167
 30
0.0
 40
8.0
  1
10' POWER LINE EASEMENT
 50
88.1435
  7
ROMANS
210
0.0
220
0.0
230
1.0
  0
TEXT
  8
22
  6
CONTINUOUS
 62
     3
  5
B8
 10
961211.285
 20
7262191.077
 30
0.0
 40
8.0
  1
SPS CO.
 50
358.1435
  7
ROMANS
210
0.0
220
0.0
230
1.0
  0
TEXT
  8
22
  6
CONTINUOUS
 62
     3
  5
B9
 10
961208.448
 20
7262178.307
 30
0.0
 40
8.0
  1
EASEMENT
 50
358.1435
  7
ROMANS
210
0.0
220
0.0
230
1.0
  0
TEXT
  8
22
  6
CONTINUOUS
 62
     3
  5
BA
 10
961227.18
 20
7262028.649
 30
0.0
 40
8.0
  1
100'
 50
358.1435
  7
ROMANS
210
0.0
220
0.0
230
1.0
  0
TEXT
  8
22
  6
CONTINUOUS
 62
     3
  5
BB
 10
961199.376
 20
7262102.273
 30
0.0
 40
8.0
  1
200'
 50
88.1435
  7
ROMANS
210
0.0
220
0.0
230
1.0
  0
TEXT
  8
22
  6
CONTINUOUS
 62
     3
  5
BC
 10
958804.94
 20
7258358.829
 30
0.0
 40
8.0
  1
10' BELL TELEPHONE EASEMENT (MA BELL)
 50
358.748794
  7
ROMANS
210
0.0
220
0.0
230
1.0
  0
TEXT
  8
22
  6
CONTINUOUS
 62
     3
  5
BD
 10
957610.003
 20
7258309.444
 30
0.0
 40
8.0
  1
PIONEER NATURAL GAS EASEMENT
 50
358.1435
  7
ROMANS
210
0.0
220
0.0
230
1.0
  0
TEXT
  8
22
  6
CONTINUOUS
 62
     3
  5
BE
 10
958180.921
 20
7258154.846
 30
0.0
 40
8.0
  1
PIONEER NATURAL GAS EASEMENT
 50
358.1435
  7
ROMANS
210
0.0
220
0.0
230
1.0
  0
TEXT
  8
22
  6
CONTINUOUS
 62
     3
  5
BF
 10
958194.226
 20
7258291.494
 30
0.0
 40
8.0
  1
PIONEER NATURAL GAS EASEMENT
 50
358.1435
  7
ROMANS
210
0.0
220
0.0
230
1.0
  0
TEXT
  8
22
  6
CONTINUOUS
 62
     3
  5
C0
 10
957611.284
 20
7258166.407
 30
0.0
 40
8.0
  1
PIONEER NATURAL GAS EASEMENT
 50
358.1435
  7
ROMANS
210
0.0
220
0.0
230
1.0
  0
TEXT
  8
22
  6
CONTINUOUS
 62
     3
  5
C1
 10
958034.045
 20
7257999.827
 30
0.0
 40
8.0
  1
850'
 50
355.343658
  7
ROMANS
210
0.0
220
0.0
230
1.0
  0
TEXT
  8
22
  6
CONTINUOUS
 62
     3
  5
C2
 10
957571.816
 20
7257989.143
 30
0.0
 40
8.0
  1
30'
 50
88.18085
  7
ROMANS
210
0.0
220
0.0
230
1.0
  0
TEXT
  8
22
  6
CONTINUOUS
 62
     3
  5
C3
 10
957749.184
 20
7261810.993
 30
0.0
 40
8.0
  1
10' NATURAL GAS EASEMENT
 50
88.1435
  7
ROMANS
210
0.0
220
0.0
230
1.0
  0
TEXT
  8
22
  6
CONTINUOUS
 62
     3
  5
C4
 10
957735.321
 20
7261359.48
 30
0.0
 40
8.0
  1
10' NATURAL GAS EASEMENT
 50
88.1435
  7
ROMANS
210
0.0
220
0.0
230
1.0
  0
TEXT
  8
22
  6
CONTINUOUS
 62
     3
  5
C5
 10
958070.718
 20
7261676.674
 30
0.0
 40
8.0
  1
10' UUE SBT
 50
88.1435
  7
ROMANS
210
0.0
220
0.0
230
1.0
  0
TEXT
  8
22
  6
CONTINUOUS
 62
     3
  5
C6
 10
957680.373
 20
7259791.636
 30
0.0
 40
8.0
  1
20' EASEMENT P & SF RR
 50
358.1435
  7
ROMANS
210
0.0
220
0.0
230
1.0
  0
TEXT
  8
22
  6
CONTINUOUS
 62
     3
  5
C7
 10
957656.174
 20
7259831.857
 30
0.0
 40
8.0
  1
17.5' UTIL EASEMENT
 50
88.1435
  7
ROMANS
210
0.0
220
0.0
230
1.0
  0
TEXT
  8
11
  6
CONTINUOUS
 62
     7
  5
C8
 10
961299.14
 20
7262083.459
 30
0.0
 40
8.0
  1
175.66'
 50
88.1435
  7
ROMANS
210
0.0
220
0.0
230
1.0
  0
TEXT
  8
11
  6
CONTINUOUS
 62
     7
  5
C9
 10
961424.095
 20
7262024.669
 30
0.0
 40
8.0
  1
337.71'
 50
358.1435
  7
ROMANS
 72
     4
 11
961449.544288
 21
7262027.846203
 31
0.0
210
0.0
220
0.0
230
1.0
  0
TEXT
  8
22
  6
CONTINUOUS
 62
     3
  5
CA
 10
961307.204
 20
7262040.787
 30
0.0
 40
6.0
  1
10' UUE
 50
358.1435
  7
ROMANS
 72
     4
 11
961327.165757
 21
7262043.141547
 31
0.0
210
0.0
220
0.0
230
1.0
  0
TEXT
  8
22
  6
CONTINUOUS
 62
     3
  5
CB
 10
961560.188
 20
7262032.588
 30
0.0
 40
6.0
  1
10' UUE
 50
358.1435
  7
ROMANS
 72
     4
 11
961580.149757
 21
7262034.942547
 31
0.0
210
0.0
220
0.0
230
1.0
  0
TEXT
  8
15
  6
CONTINUOUS
 62
    30
  5
CC
 10
961347.043
 20
7262037.852
 30
0.0
 40
50.0
  1
HANDLEY 
 50
35.058092
  7
txt
 72
     4
 11
961488.923304
 21
7262167.953254
 31
0.0
210
0.0
220
0.0
230
1.0
  0
TEXT
  8
10
  6
CONTINUOUS
 62
   134
  5
CD
 10
961478.646
 20
7262101.871
 30
0.0
 40
13.999
  1
1
 50
358.1435
  7
ROMANS
 11
961479.099517
 21
7262115.862652
 31
0.0
210
0.0
220
0.0
230
1.0
 73
     3
  0
TEXT
  8
11
  6
CONTINUOUS
 62
     7
  5
CE
 10
961635.561
 20
7262101.273
 30
0.0
 40
8.0
  1
125.65'
 50
88.1435
  7
ROMANS
210
0.0
220
0.0
230
1.0
  0
TEXT
  8
11
  6
CONTINUOUS
 62
     7
  5
CF
 10
961434.122
 20
7262189.165
 30
0.0
 40
8.0
  1
349.51'
 50
358.1435
  7
ROMANS
210
0.0
220
0.0
230
1.0
  0
TEXT
  8
11
  6
CONTINUOUS
 62
     7
  5
D0
 10
961623.936
 20
7262020.695
 30
0.0
 40
8.0
  1
40'
 50
88.1435
  7
ROMANS
210
0.0
220
0.0
230
1.0
  0
TEXT
  8
11
  6
CONTINUOUS
 62
     7
  5
D1
 10
961632.597
 20
7262028.893
 30
0.0
 40
8.0
  1
30'
 50
358.1435
  7
ROMANS
 72
     4
 11
961642.054687
 21
7262032.588545
 31
0.0
210
0.0
220
0.0
230
1.0
  0
TEXT
  8
11
  6
CONTINUOUS
 62
     7
  5
D2
 10
961608.896
 20
7262041.983
 30
0.0
 40
8.0
  1
14.14'
 50
43.1435
  7
ROMANS
 72
     1
 11
961624.461481
 21
7262056.571101
 31
0.0
210
0.0
220
0.0
230
1.0
  0
TEXT
  8
22
  6
CONTINUOUS
 62
     3
  5
D3
 10
957744.737
 20
7258734.78
 30
0.0
 40
6.0
  1
DRAINAGE EASEMENT CLOSED ORD 10226 1999/12/16
 50
358.143467
  7
ROMANS
 72
     1
 11
957878.556719
 21
7258730.442372
 31
0.0
210
0.0
220
0.0
230
1.0
  0
TEXT
  8
22
  6
CONTINUOUS
 62
     3
  5
D4
 10
958098.846
 20
7258724.797
 30
0.0
 40
6.0
  1
75'
 50
88.143356
  7
ROMANS
 72
     1
 11
958093.075942
 21
7258731.987718
 31
0.0
210
0.0
220
0.0
230
1.0
 73
     3
  0
TEXT
  8
22
  6
CONTINUOUS
 62
     3
  5
D5
 10
957857.065
 20
7258754.406
 30
0.0
 40
6.0
  1
500'
 50
358.143467
  7
ROMANS
 72
     1
 11
957867.059751
 21
7258754.082031
 31
0.0
210
0.0
220
0.0
230
1.0
  0
TEXT
  8
22
  6
CONTINUOUS
 62
     3
  5
D6
 10
957975.268
 20
7259470.353
 30
0.0
 40
6.0
  1
800'
 50
358.143467
  7
ROMANS
 72
     1
 11
957985.457133
 21
7259476.025881
 31
0.0
210
0.0
220
0.0
230
1.0
 73
     3
  0
TEXT
  8
22
  6
CONTINUOUS
 62
     3
  5
D7
 10
958421.444
 20
7259409.319
 30
0.0
 40
6.0
  1
75'
 50
88.143356
  7
ROMANS
 72
     1
 11
958421.670792
 21
7259416.315325
 31
0.0
210
0.0
220
0.0
230
1.0
  0
TEXT
  8
22
  6
CONTINUOUS
 62
     3
  5
D8
 10
957893.831
 20
7259432.238
 30
0.0
 40
6.0
  1
DRAINAGE EASEMENT CLOSED ORD 10226 1999/12/16
 50
358.143467
  7
ROMANS
 72
     1
 11
958027.650719
 21
7259427.900372
 31
0.0
210
0.0
220
0.0
230
1.0
  0
TEXT
  8
15
  6
CONTINUOUS
 62
    30
  5
D9
 10
958224.491
 20
7261513.277
 30
0.0
 40
50.0
  1
BREEDLOVE
 50
43.1435
  7
txt
 72
     4
 11
958362.651724
 21
7261677.025725
 31
0.0
210
0.0
220
0.0
230
1.0
  0
TEXT
  8
19
  6
CONTINUOUS
 62
     1
  5
DA
 10
962324.969
 20
7262114.315
 30
0.0
 40
24.0
  1
SOUTHEAST DR
 50
307.918486
  7
txt
 72
     4
 11
962419.674753
 21
7262012.267854
 31
0.0
210
0.0
220
0.0
230
1.0
  0
TEXT
  8
19
  6
CONTINUOUS
 62
     1
  5
DB
 10
961509.283
 20
7261328.614
 30
0.0
 40
24.0
  1
E 53RD ST
 50
358.1435
  7
txt
 72
     4
 11
961612.512747
 21
7261337.274277
 31
0.0
210
0.0
220
0.0
230
1.0
  0
POLYLINE
  8
21
  6
DASHDOT
 62
     7
  5
DD
 66
     1
 10
0.0
 20
0.0
 30
0.0
 70
     1
  0
VERTEX
  8
21
  6
DASHDOT
 62
     7
  5
DE
 10
957623.693
 20
7259485.019
 30
0.0
  0
VERTEX
  8
21
  6
DASHDOT
 62
     7
  5
DF
 10
957698.537
 20
7259482.839
 30
0.0
  0
VERTEX
  8
21
  6
DASHDOT
 62
     7
  5
E0
 10
957796.258
 20
7259291.757
 30
0.0
  0
VERTEX
  8
21
  6
DASHDOT
 62
     7
  5
E1
 10
957899.716
 20
7258707.232
 30
0.0
  0
VERTEX
  8
21
  6
DASHDOT
 62
     7
  5
E2
 10
958255.468
 20
7258693.18
 30
0.0
  0
VERTEX
  8
21
  6
DASHDOT
 62
     7
  5
E3
 10
958329.487
 20
7258547.36
 30
0.0
  0
VERTEX
  8
21
  6
DASHDOT
 62
     7
  5
E4
 10
958622.886
 20
7258539.312
 30
0.0
  0
VERTEX
  8
21
  6
DASHDOT
 62
     7
  5
E5
 10
958685.884
 20
7258699.736
 30
0.0
  0
VERTEX
  8
21
  6
DASHDOT
 62
     7
  5
E6
 10
959610.164
 20
7258670.566
 30
0.0
  0
VERTEX
  8
21
  6
DASHDOT
 62
     7
  5
E7
 10
959878.092
 20
7258750.723
 30
0.0
  0
VERTEX
  8
21
  6
DASHDOT
 62
     7
  5
E8
 10
959886.571
 20
7258850.332
 30
0.0
  0
VERTEX
  8
21
  6
DASHDOT
 62
     7
  5
E9
 10
959979.533
 20
7258847.319
 30
0.0
  0
VERTEX
  8
21
  6
DASHDOT
 62
     7
  5
EA
 10
960000.942
 20
7258629.962
 30
0.0
  0
VERTEX
  8
21
  6
DASHDOT
 62
     7
  5
EB
 10
960296.106
 20
7258672.199
 30
0.0
  0
VERTEX
  8
21
  6
DASHDOT
 62
     7
  5
EC
 10
960528.231
 20
7258667.129
 30
0.0
  0
VERTEX
  8
21
  6
DASHDOT
 62
     7
  5
ED
 10
960648.248
 20
7258524.823
 30
0.0
  0
VERTEX
  8
21
  6
DASHDOT
 62
     7
  5
EE
 10
960644.036
 20
7258331.999
 30
0.0
  0
VERTEX
  8
21
  6
DASHDOT
 62
     7
  5
EF
 10
959875.759
 20
7258348.779
 30
0.0
  0
VERTEX
  8
21
  6
DASHDOT
 62
     7
  5
F0
 10
959877.402
 20
7258424.013
 30
0.0
  0
VERTEX
  8
21
  6
DASHDOT
 62
     7
  5
F1
 10
957766.613
 20
7258444.578
 30
0.0
  0
VERTEX
  8
21
  6
DASHDOT
 62
     7
  5
F2
 10
957722.462
 20
7258671.258
 30
0.0
  0
VERTEX
  8
21
  6
DASHDOT
 62
     7
  5
F3
 10
957597.441
 20
7258675.137
 30
0.0
  0
VERTEX
  8
21
  6
DASHDOT
 62
     7
  5
F4
 10
957623.693
 20
7259485.019
 30
0.0
  0
SEQEND
  8
21
  6
DASHDOT
 62
     7
  5
F5
  0
TEXT
  8
22
  6
CONTINUOUS
 62
     3
  5
F6
 10
960851.194
 20
7259128.302
 30
0.0
 40
6.0
  1
10'UTILITY EASEMENT
 50
88.748772
  7
txt
 72
     1
 11
960852.30811
 21
7259179.310835
 31
0.0
210
0.0
220
0.0
230
1.0
  0
TEXT
  8
11
  6
CONTINUOUS
 62
     7
  5
F7
 10
960862.168
 20
7259058.975
 30
0.0
 40
8.0
  1
1324'
 50
88.810164
  7
txt
 72
     1
 11
960854.510459
 21
7259075.546582
 31
0.0
210
0.0
220
0.0
230
1.0
 73
     3
  0
TEXT
  8
22
  6
CONTINUOUS
 62
     3
  5
F8
 10
960746.867
 20
7258331.656
 30
0.0
 40
8.0
  1
189.32'
 50
358.748775
  7
txt
 72
     1
 11
960768.907743
 21
7258331.174598
 31
0.0
210
0.0
220
0.0
230
1.0
  0
TEXT
  8
22
  6
CONTINUOUS
 62
     3
  5
F9
 10
960647.619
 20
7258427.987
 30
0.0
 40
8.0
  1
192.87'
 50
268.748642
  7
txt
 72
     1
 11
960647.136848
 21
7258405.914265
 31
0.0
210
0.0
220
0.0
230
1.0
  0
TEXT
  8
22
  6
CONTINUOUS
 62
     3
  5
FA
 10
960595.198
 20
7258591.688
 30
0.0
 40
8.0
  1
186.16'
 50
310.143386
  7
txt
 72
     1
 11
960608.375723
 21
7258576.062981
 31
0.0
210
0.0
220
0.0
230
1.0
  0
TEXT
  8
22
  6
CONTINUOUS
 62
     3
  5
FB
 10
960557.448
 20
7258635.656
 30
0.0
 40
6.0
  1
S42%%dE
 50
310.143386
  7
txt
 72
     1
 11
960566.612448
 21
7258624.789579
 31
0.0
210
0.0
220
0.0
230
1.0
  0
TEXT
  8
22
  6
CONTINUOUS
 62
     3
  5
FC
 10
960461.829
 20
7258670.543
 30
0.0
 40
8.0
  1
232.18'
 50
358.748844
  7
txt
 72
     1
 11
960484.059699
 21
7258670.057476
 31
0.0
210
0.0
220
0.0
230
1.0
  0
TEXT
  8
22
  6
CONTINUOUS
 62
     3
  5
FD
 10
960380.913
 20
7258671.814
 30
0.0
 40
6.0
  1
N89%%d23'41"E
 50
358.748844
  7
txt
 72
     1
 11
960409.506181
 21
7258671.189518
 31
0.0
210
0.0
220
0.0
230
1.0
  0
TEXT
  8
22
  6
CONTINUOUS
 62
     3
  5
FE
 10
960167.064
 20
7258344.368
 30
0.0
 40
8.0
  1
768.46'
 50
358.748775
  7
txt
 72
     1
 11
960190.552398
 21
7258343.854979
 31
0.0
210
0.0
220
0.0
230
1.0
  0
TEXT
  8
22
  6
CONTINUOUS
 62
     3
  5
FF
 10
960158.486
 20
7258654.662
 30
0.0
 40
8.0
  1
298.17'
 50
8.143567
  7
txt
 72
     1
 11
960180.341371
 21
7258657.789437
 31
0.0
210
0.0
220
0.0
230
1.0
  0
TEXT
  8
22
  6
CONTINUOUS
 62
     3
  5
100
 10
960111.661
 20
7258648.164
 30
0.0
 40
6.0
  1
N80%%dE
 50
8.143567
  7
txt
 72
     1
 11
960125.569323
 21
7258650.154239
 31
0.0
210
0.0
220
0.0
230
1.0
  0
TEXT
  8
22
  6
CONTINUOUS
 62
     3
  5
101
 10
959991.347
 20
7258749.48
 30
0.0
 40
6.0
  1
S07%%d28'55"E
 50
275.625464
  7
txt
 72
     1
 11
959994.254819
 21
7258719.958864
 31
0.0
210
0.0
220
0.0
230
1.0
  0
TEXT
  8
22
  6
CONTINUOUS
 62
     3
  5
102
 10
959985.771
 20
7258808.97
 30
0.0
 40
8.0
  1
218.41'
 50
275.625464
  7
txt
 72
     1
 11
959987.830313
 21
7258788.063176
 31
0.0
210
0.0
220
0.0
230
1.0
  0
TEXT
  8
22
  6
CONTINUOUS
 62
     3
  5
103
 10
960238.585
 20
7258515.342
 30
0.0
 40
6.0
  1
DRAINAGE EASEMENT
 50
358.1435
  7
txt
 72
     4
 11
960286.889872
 21
7258516.777851
 31
0.0
210
0.0
220
0.0
230
1.0
  0
TEXT
  8
22
  6
CONTINUOUS
 62
     3
  5
104
 10
959876.17
 20
7258756.473
 30
0.0
 40
6.0
  1
N03%%d00'35"E
 50
85.133756
  7
txt
 72
     1
 11
959878.680287
 21
7258785.958334
 31
0.0
210
0.0
220
0.0
230
1.0
  0
TEXT
  8
22
  6
CONTINUOUS
 62
     3
  5
105
 10
959401.011
 20
7258678.584
 30
0.0
 40
8.0
  1
924.74''
 50
358.192386
  7
txt
 72
     1
 11
959426.508306
 21
7258677.779323
 31
0.0
210
0.0
220
0.0
230
1.0
  0
TEXT
  8
22
  6
CONTINUOUS
 62
     3
  5
106
 10
959779.999
 20
7258723.647
 30
0.0
 40
8.0
  1
279.66'
 50
16.655936
  7
txt
 72
     1
 11
959802.145127
 21
7258730.272596
 31
0.0
210
0.0
220
0.0
230
1.0
  0
TEXT
  8
22
  6
CONTINUOUS
 62
     3
  5
107
 10
959867.265
 20
7258408.157
 30
0.0
 40
8.0
  1
75.26'
 50
268.748803
  7
txt
 72
     1
 11
959866.839312
 21
7258388.666648
 31
0.0
210
0.0
220
0.0
230
1.0
  0
TEXT
  8
22
  6
CONTINUOUS
 62
     3
  5
108
 10
959879.934
 20
7258422.208
 30
0.0
 40
6.0
  1
S00%%d36'19"E
 50
268.748803
  7
txt
 72
     1
 11
959885.315294
 21
7258393.814725
 31
0.0
210
0.0
220
0.0
230
1.0
 73
     3
  0
TEXT
  8
22
  6
CONTINUOUS
 62
     3
  5
109
 10
959713.696
 20
7258704.19
 30
0.0
 40
6.0
  1
N17%%d29'15"E
 50
16.655936
  7
txt
 72
     1
 11
959739.964587
 21
7258712.048938
 31
0.0
210
0.0
220
0.0
230
1.0
  0
TEXT
  8
22
  6
CONTINUOUS
 62
     3
  5
10A
 10
959059.485
 20
7258552.984
 30
0.0
 40
6.0
  1
DRAINAGE EASEMENT
 50
358.1435
  7
txt
 72
     4
 11
959107.789872
 21
7258554.419851
 31
0.0
210
0.0
220
0.0
230
1.0
  0
TEXT
  8
22
  6
CONTINUOUS
 62
     3
  5
10B
 10
958803.766
 20
7258426.722
 30
0.0
 40
6.0
  1
N88%%d42'06"E
 50
359.441831
  7
txt
 72
     1
 11
958833.463044
 21
7258432.43297
 31
0.0
210
0.0
220
0.0
230
1.0
 73
     3
  0
TEXT
  8
22
  6
CONTINUOUS
 62
     3
  5
10C
 10
958741.985
 20
7258424.945
 30
0.0
 40
8.0
  1
2110.89'
 50
359.441831
  7
txt
 72
     1
 11
958766.658767
 21
7258432.705003
 31
0.0
210
0.0
220
0.0
230
1.0
 73
     3
  0
TEXT
  8
22
  6
CONTINUOUS
 62
     3
  5
10D
 10
958657.777
 20
7258633.305
 30
0.0
 40
8.0
  1
172.35'
 50
68.560072
  7
txt
 72
     1
 11
958665.916157
 21
7258654.031153
 31
0.0
210
0.0
220
0.0
230
1.0
  0
TEXT
  8
22
  6
CONTINUOUS
 62
     3
  5
10E
 10
958633.343
 20
7258571.743
 30
0.0
 40
6.0
  1
N19%%d35'E
 50
68.560072
  7
txt
 72
     1
 11
958640.688601
 21
7258590.448383
 31
0.0
210
0.0
220
0.0
230
1.0
  0
TEXT
  8
22
  6
CONTINUOUS
 62
     3
  5
10F
 10
958522.831
 20
7258544.034
 30
0.0
 40
8.0
  1
293.51'
 50
358.428703
  7
txt
 72
     1
 11
958544.86871
 21
7258543.429479
 31
0.0
210
0.0
220
0.0
230
1.0
  0
TEXT
  8
22
  6
CONTINUOUS
 62
     3
  5
110
 10
958424.872
 20
7258546.784
 30
0.0
 40
6.0
  1
N89%%d42'53"E
 50
358.428703
  7
txt
 72
     1
 11
958454.524846
 21
7258545.970587
 31
0.0
210
0.0
220
0.0
230
1.0
  0
TEXT
  8
22
  6
CONTINUOUS
 62
     3
  5
111
 10
958293.857
 20
7258620.124
 30
0.0
 40
8.0
  1
163.53'
 50
296.912619
  7
txt
 72
     1
 11
958303.835706
 21
7258600.465629
 31
0.0
210
0.0
220
0.0
230
1.0
  0
TEXT
  8
22
  6
CONTINUOUS
 62
     3
  5
112
 10
958260.845
 20
7258691.506
 30
0.0
 40
6.0
  1
S28%%d46'09"E
 50
296.912619
  7
txt
 72
     1
 11
958274.196713
 21
7258665.202697
 31
0.0
210
0.0
220
0.0
230
1.0
  0
TEXT
  8
22
  6
CONTINUOUS
 62
     3
  5
113
 10
958591.709
 20
7258388.858
 30
0.0
 40
6.0
  1
10'UTILITY EASEMENT
 50
358.748772
  7
txt
 72
     1
 11
958642.717835
 21
7258387.74389
 31
0.0
210
0.0
220
0.0
230
1.0
  0
TEXT
  8
22
  6
CONTINUOUS
 62
     3
  5
114
 10
958173.503
 20
7258700.276
 30
0.0
 40
8.0
  1
356.03'
 50
357.737953
  7
txt
 72
     1
 11
958196.916741
 21
7258699.351141
 31
0.0
210
0.0
220
0.0
230
1.0
  0
TEXT
  8
22
  6
CONTINUOUS
 62
     3
  5
115
 10
958102.145
 20
7258702.62
 30
0.0
 40
6.0
  1
S89%%d35'40"E
 50
357.737953
  7
txt
 72
     1
 11
958131.761903
 21
7258701.450112
 31
0.0
210
0.0
220
0.0
230
1.0
  0
TEXT
  8
22
  6
CONTINUOUS
 62
     3
  5
116
 10
957943.586
 20
7258553.384
 30
0.0
 40
6.0
  1
DRAINAGE EASEMENT
 50
358.1435
  7
txt
 72
     4
 11
957991.890872
 21
7258554.819851
 31
0.0
210
0.0
220
0.0
230
1.0
  0
TEXT
  8
22
  6
CONTINUOUS
 62
     3
  5
117
 10
957737.294
 20
7258543.474
 30
0.0
 40
8.0
  1
230.94'
 50
281.021764
  7
txt
 72
     1
 11
957749.662344
 21
7258521.818153
 31
0.0
210
0.0
220
0.0
230
1.0
 73
     3
  0
TEXT
  8
22
  6
CONTINUOUS
 62
     3
  5
118
 10
957722.661
 20
7258628.234
 30
0.0
 40
6.0
  1
S12%%d52'42"E
 50
281.021764
  7
txt
 72
     1
 11
957734.045277
 21
7258601.169248
 31
0.0
210
0.0
220
0.0
230
1.0
 73
     3
  0
TEXT
  8
22
  6
CONTINUOUS
 62
     3
  5
119
 10
957687.39
 20
7258674.918
 30
0.0
 40
8.0
  1
125.08'
 50
358.222747
  7
txt
 72
     1
 11
957709.583319
 21
7258674.229367
 31
0.0
210
0.0
220
0.0
230
1.0
  0
TEXT
  8
22
  6
CONTINUOUS
 62
     3
  5
11A
 10
957622.59
 20
7258676.908
 30
0.0
 40
6.0
  1
N89%%d55'15"E
 50
358.222747
  7
txt
 72
     1
 11
957651.03431
 21
7258676.025405
 31
0.0
210
0.0
220
0.0
230
1.0
  0
TEXT
  8
22
  6
CONTINUOUS
 62
     3
  5
11B
 10
957593.351
 20
7258400.618
 30
0.0
 40
8.0
  1
48.86'
 50
358.748775
  7
txt
 72
     1
 11
957612.999314
 21
7258400.188852
 31
0.0
210
0.0
220
0.0
230
1.0
  0
TEXT
  8
22
  6
CONTINUOUS
 62
     3
  5
11C
 10
957638.41
 20
7258399.035
 30
0.0
 40
8.0
  1
20.02
 50
358.748775
  7
txt
 72
     1
 11
957655.035035
 21
7258398.671885
 31
0.0
210
0.0
220
0.0
230
1.0
  0
TEXT
  8
13
  6
CONTINUOUS
 62
    14
  5
11E
 10
957640.973
 20
7258565.88
 30
0.0
 40
6.0
  1
(VOL.124,PG.583)
 50
270.984914
  7
txt
 72
     1
 11
957641.649857
 21
7258526.508818
 31
0.0
210
0.0
220
0.0
230
1.0
  0
TEXT
  8
22
  6
CONTINUOUS
 62
     3
  5
11F
 10
957640.266
 20
7258664.838
 30
0.0
 40
6.0
  1
20'GAS LINE ESMT
 50
270.984925
  7
txt
 72
     1
 11
957647.016666
 21
7258621.225596
 31
0.0
210
0.0
220
0.0
230
1.0
 73
     3
  0
TEXT
  8
22
  6
CONTINUOUS
 62
     3
  5
120
 10
957604.145
 20
7258520.006
 30
0.0
 40
8.0
  1
276.55'
 50
88.1435
  7
txt
 72
     1
 11
957596.910352
 21
7258543.747838
 31
0.0
210
0.0
220
0.0
230
1.0
 73
     3
  0
TEXT
  8
22
  6
CONTINUOUS
 62
     3
  5
121
 10
957633.975
 20
7258741.857
 30
0.0
 40
8.0
  1
875.62'
 50
271.1435
  7
txt
 72
     1
 11
957634.443878
 21
7258718.366679
 31
0.0
210
0.0
220
0.0
230
1.0
  0
TEXT
  8
22
  6
CONTINUOUS
 62
     3
  5
122
 10
957653.956
 20
7258742.762
 30
0.0
 40
8.0
  1
875.86'
 50
271.1435
  7
txt
 72
     1
 11
957654.424878
 21
7258719.271679
 31
0.0
210
0.0
220
0.0
230
1.0
  0
TEXT
  8
22
  6
CONTINUOUS
 62
     3
  5
123
 10
957632.181
 20
7258816.551
 30
0.0
 40
6.0
  1
N02%%d50'29"W
 50
270.984925
  7
txt
 72
     1
 11
957632.70469
 21
7258786.089501
 31
0.0
210
0.0
220
0.0
230
1.0
  0
TEXT
  8
22
  6
CONTINUOUS
 62
     3
  5
124
 10
957652.382
 20
7258831.651
 30
0.0
 40
6.0
  1
S02%%d50'29"E
 50
270.984925
  7
txt
 72
     1
 11
957652.888639
 21
7258802.181355
 31
0.0
210
0.0
220
0.0
230
1.0
  0
TEXT
  8
13
  6
CONTINUOUS
 62
    14
  5
125
 10
957794.083
 20
7258722.086
 30
0.0
 40
8.0
  1
V.3088 P.212
 50
358.1435
  7
ROMANS
210
0.0
220
0.0
230
1.0
  0
TEXT
  8
13
  6
CONTINUOUS
 62
    14
  5
126
 10
957919.703
 20
7258717.736
 30
0.0
 40
8.0
  1
V6524 P047
 50
358.143467
  7
ROMANS
 72
     1
 11
957958.016878
 21
7258716.494095
 31
0.0
210
0.0
220
0.0
230
1.0
  0
TEXT
  8
13
  6
CONTINUOUS
 62
    14
  5
127
 10
957942.959
 20
7259414.718
 30
0.0
 40
8.0
  1
V.3088 P.212
 50
358.1435
  7
ROMANS
210
0.0
220
0.0
230
1.0
  0
TEXT
  8
13
  6
CONTINUOUS
 62
    14
  5
128
 10
958050.249
 20
7259411.755
 30
0.0
 40
8.0
  1
V6524 P047
 50
358.143467
  7
ROMANS
 72
     1
 11
958088.561878
 21
7259410.513128
 31
0.0
210
0.0
220
0.0
230
1.0
  0
TEXT
  8
22
  6
CONTINUOUS
 62
     3
  5
129
 10
959881.131
 20
7258818.68
 30
0.0
 40
8.0
  1
99.97'
 50
85.133756
  7
txt
 72
     1
 11
959882.752609
 21
7258837.727095
 31
0.0
210
0.0
220
0.0
230
1.0
  0
TEXT
  8
22
  6
CONTINUOUS
 62
     3
  5
12A
 10
959894.905
 20
7258853.216
 30
0.0
 40
6.0
  1
E-W
 50
358.1435
  7
txt
 72
     1
 11
959903.072711
 21
7258852.951257
 31
0.0
210
0.0
220
0.0
230
1.0
  0
TEXT
  8
22
  6
CONTINUOUS
 62
     3
  5
12B
 10
959923.62
 20
7258852.286
 30
0.0
 40
8.0
  1
93.01'
 50
358.1435
  7
txt
 72
     1
 11
959941.624544
 21
7258851.702412
 31
0.0
210
0.0
220
0.0
230
1.0
  0
TEXT
  8
22
  6
CONTINUOUS
 62
     3
  5
12C
 10
957686.085
 20
7259002.109
 30
0.0
 40
6.0
  1
DRAINAGE EASEMENT
 50
358.1435
  7
txt
 72
     4
 11
957734.389872
 21
7259003.544851
 31
0.0
210
0.0
220
0.0
230
1.0
  0
TEXT
  8
22
  6
CONTINUOUS
 62
     3
  5
12D
 10
957832.47
 20
7259100.712
 30
0.0
 40
8.0
  1
593.61'
 50
280.037108
  7
txt
 72
     1
 11
957836.279368
 21
7259079.18952
 31
0.0
210
0.0
220
0.0
230
1.0
  0
TEXT
  8
22
  6
CONTINUOUS
 62
     3
  5
12E
 10
957815.459
 20
7259192.073
 30
0.0
 40
6.0
  1
S11%%d53'37"E
 50
280.037108
  7
txt
 72
     1
 11
957820.262495
 21
7259164.933819
 31
0.0
210
0.0
220
0.0
230
1.0
  0
TEXT
  8
22
  6
CONTINUOUS
 62
     3
  5
12F
 10
957755.163
 20
7259383.467
 30
0.0
 40
8.0
  1
214.62'
 50
297.085569
  7
txt
 72
     1
 11
957765.287511
 21
7259363.669677
 31
0.0
210
0.0
220
0.0
230
1.0
  0
TEXT
  8
22
  6
CONTINUOUS
 62
     3
  5
130
 10
957714.534
 20
7259458.102
 30
0.0
 40
6.0
  1
S28'56'31"E
 50
297.085569
  7
txt
 72
     1
 11
957726.590892
 21
7259434.526128
 31
0.0
210
0.0
220
0.0
230
1.0
  0
TEXT
  8
22
  6
CONTINUOUS
 62
     3
  5
131
 10
957662.748
 20
7259486.894
 30
0.0
 40
8.0
  1
74.87'
 50
358.331742
  7
txt
 72
     1
 11
957682.643564
 21
7259486.314545
 31
0.0
210
0.0
220
0.0
230
1.0
  0
TEXT
  8
22
  6
CONTINUOUS
 62
     3
  5
132
 10
957641.769
 20
7259474.488
 30
0.0
 40
6.0
  1
N89%%d48'41"E
 50
358.331742
  7
txt
 72
     1
 11
957670.673492
 21
7259479.648706
 31
0.0
210
0.0
220
0.0
230
1.0
 73
     3
  0
TEXT
  8
22
  6
CONTINUOUS
 62
     3
  5
133
 10
957661.452
 20
7259350.054
 30
0.0
 40
8.0
  1
453.04'
 50
87.878672
  7
txt
 72
     1
 11
957662.340377
 21
7259374.037552
 31
0.0
210
0.0
220
0.0
230
1.0
  0
TEXT
  8
22
  6
CONTINUOUS
 62
     3
  5
134
 10
957657.183
 20
7259282.227
 30
0.0
 40
6.0
  1
S00%%d15'53"W
 50
88.1435
  7
txt
 72
     1
 11
957652.1433
 21
7259311.95087
 31
0.0
210
0.0
220
0.0
230
1.0
 73
     3
  0
POLYLINE
  8
21
  6
DASHDOT
 62
     7
  5
135
 66
     1
 10
0.0
 20
0.0
 30
0.0
  0
VERTEX
  8
21
  6
DASHDOT
 62
     7
  5
136
 10
957628.604
 20
7259513.082
 30
0.0
  0
VERTEX
  8
21
  6
DASHDOT
 62
     7
  5
137
 10
957624.606
 20
7259513.211
 30
0.0
  0
VERTEX
  8
21
  6
DASHDOT
 62
     7
  5
138
 10
957616.831
 20
7259273.338
 30
0.0
  0
VERTEX
  8
21
  6
DASHDOT
 62
     7
  5
139
 10
957620.829
 20
7259273.208
 30
0.0
  0
VERTEX
  8
21
  6
DASHDOT
 62
     7
  5
13A
 10
957628.604
 20
7259513.082
 30
0.0
  0
SEQEND
  8
21
  6
DASHDOT
 62
     7
  5
13B
  0
TEXT
  8
22
  6
CONTINUOUS
 62
     3
  5
13C
 10
957627.396
 20
7259276.807
 30
0.0
 40
6.0
  1
4'x240'R-O-W ESMT.
 50
87.878728
  7
txt
 72
     1
 11
957629.186624
 21
7259325.149849
 31
0.0
210
0.0
220
0.0
230
1.0
  0
TEXT
  8
13
  6
CONTINUOUS
 62
    14
  5
13D
 10
957635.417
 20
7259311.667
 30
0.0
 40
6.0
  1
(VOL.382,PG.167)
 50
87.878728
  7
txt
 72
     1
 11
957636.864868
 21
7259350.756195
 31
0.0
210
0.0
220
0.0
230
1.0
  0
POLYLINE
  8
21
  6
DASHDOT
 62
     7
  5
13E
 66
     1
 10
0.0
 20
0.0
 30
0.0
  0
VERTEX
  8
21
  6
DASHDOT
 62
     7
  5
13F
 10
957637.33
 20
7258397.67
 30
0.0
  0
VERTEX
  8
21
  6
DASHDOT
 62
     7
  5
140
 10
957657.341
 20
7258397.233
 30
0.0
  0
VERTEX
  8
21
  6
DASHDOT
 62
     7
  5
141
 10
957642.285
 20
7259272.962
 30
0.0
  0
VERTEX
  8
21
  6
DASHDOT
 62
     7
  5
142
 10
957659.055
 20
7259725.693
 30
0.0
  0
VERTEX
  8
21
  6
DASHDOT
 62
     7
  5
143
 10
957639.06
 20
7259726.201
 30
0.0
  0
VERTEX
  8
21
  6
DASHDOT
 62
     7
  5
144
 10
957622.28
 20
7259273.16
 30
0.0
  0
VERTEX
  8
21
  6
DASHDOT
 62
     7
  5
145
 10
957637.33
 20
7258397.67
 30
0.0
  0
SEQEND
  8
21
  6
DASHDOT
 62
     7
  5
146
  0
TEXT
  8
11
  6
CONTINUOUS
 62
     7
  5
147
 10
958532.86
 20
7259720.956
 30
0.0
 40
8.0
  1
2030.5'
 50
358.543486
  7
txt
 72
     1
 11
958556.645724
 21
7259728.353799
 31
0.0
210
0.0
220
0.0
230
1.0
 73
     3
  0
TEXT
  8
22
  6
CONTINUOUS
 62
     3
  5
148
 10
957634.792
 20
7259720.851
 30
0.0
 40
8.0
  1
3.91'
 50
313.1435
  7
txt
 72
     4
 11
957647.31562
 21
7259713.337742
 31
0.0
210
0.0
220
0.0
230
1.0
  0
TEXT
  8
22
  6
CONTINUOUS
 62
     3
  5
149
 10
957645.772
 20
7259524.324
 30
0.0
 40
6.0
  1
20'GAS LINE ESMT
 50
87.878672
  7
txt
 72
     1
 11
957641.394512
 21
7259568.238131
 31
0.0
210
0.0
220
0.0
230
1.0
 73
     3
  0
TEXT
  8
22
  6
CONTINUOUS
 62
     3
  5
14A
 10
957635.317
 20
7259480.782
 30
0.0
 40
8.0
  1
453.35'
 50
87.878728
  7
txt
 72
     1
 11
957628.204987
 21
7259504.903779
 31
0.0
210
0.0
220
0.0
230
1.0
 73
     3
  0
TEXT
  8
11
  6
CONTINUOUS
 62
     7
  5
14B
 10
959210.669
 20
7258378.705
 30
0.0
 40
8.0
  1
S89%%d23'41"W  3245.6'
 50
358.748775
  7
txt
 72
     1
 11
959285.525879
 21
7258385.071924
 31
0.0
210
0.0
220
0.0
230
1.0
 73
     3
  0
TEXT
  8
10
  6
CONTINUOUS
 62
   134
  5
14C
 10
959198.765
 20
7259162.862
 30
0.0
 40
13.999
  1
TRACT A
 50
358.1435
  7
txt
 72
     4
 11
959246.362896
 21
7259168.322867
 31
0.0
210
0.0
220
0.0
230
1.0
  0
LINE
  8
27
  6
CONTINUOUS
 62
    32
  5
14D
 10
962252.9
 20
7262258.515
 30
0.0
 11
964032.5
 21
7259974.037
 31
0.0
  0
LINE
  8
21
  6
DASHDOT
 62
     7
  5
14E
 10
963892.424
 20
7260265.886
 30
0.0
 11
962503.382
 21
7262049.0
 31
0.0
  0
LINE
  8
21
  6
DASHDOT
 62
     7
  5
14F
 10
962503.382
 20
7262049.0
 30
0.0
 11
962477.373
 21
7262049.843
 31
0.0
  0
LINE
  8
21
  6
DASHDOT
 62
     7
  5
150
 10
962477.373
 20
7262049.843
 30
0.0
 11
963891.89
 21
7260234.029
 31
0.0
  0
LINE
  8
6
  6
CONTINUOUS
 62
     7
  5
151
 10
962191.479
 20
7262260.473
 30
0.0
 11
964030.182
 21
7259900.129
 31
0.0
  0
LINE
  8
6
  6
CONTINUOUS
 62
     7
  5
152
 10
962270.601
 20
7261996.179
 30
0.0
 11
962661.996
 21
7261493.747
 31
0.0
  0
LINE
  8
6
  6
CONTINUOUS
 62
     7
  5
153
 10
962827.915
 20
7261280.756
 30
0.0
 11
964025.275
 21
7259743.702
 31
0.0
  0
LINE
  8
7
  6
CONTINUOUS
 62
     7
  5
154
 10
961658.011
 20
7262111.679
 30
0.0
 11
961655.237
 21
7262026.084
 31
0.0
  0
LINE
  8
7
  6
CONTINUOUS
 62
     7
  5
155
 10
961937.727
 20
7262182.655
 30
0.0
 11
961932.361
 21
7262017.092
 31
0.0
  0
LINE
  8
6
  6
CONTINUOUS
 62
     7
  5
156
 10
961658.011
 20
7262111.679
 30
0.0
 11
961661.251
 21
7262211.627
 31
0.0
  0
LINE
  8
6
  6
CONTINUOUS
 62
     7
  5
157
 10
961640.613
 20
7262192.285
 30
0.0
 11
961291.289
 21
7262203.608
 31
0.0
  0
LINE
  8
6
  6
CONTINUOUS
 62
     7
  5
158
 10
961655.237
 20
7262026.084
 30
0.0
 11
962252.442
 21
7262006.775
 31
0.0
  0
LINE
  8
6
  6
CONTINUOUS
 62
     7
  5
159
 10
961287.398
 20
7262027.973
 30
0.0
 11
962270.601
 21
7261996.179
 31
0.0
  0
LINE
  8
6
  6
CONTINUOUS
 62
     7
  5
15A
 10
961658.011
 20
7262111.679
 30
0.0
 11
961707.985
 21
7262110.059
 31
0.0
  0
LINE
  8
6
  6
CONTINUOUS
 62
     7
  5
15B
 10
961707.985
 20
7262110.059
 30
0.0
 11
961711.225
 21
7262210.006
 31
0.0
  0
LINE
  8
6
  6
CONTINUOUS
 62
     7
  5
15C
 10
961710.576
 20
7262190.017
 30
0.0
 11
961937.727
 21
7262182.655
 31
0.0
  0
LINE
  8
6
  6
CONTINUOUS
 62
     7
  5
15D
 10
961937.727
 20
7262182.655
 30
0.0
 11
961938.375
 21
7262202.644
 31
0.0
  0
LINE
  8
6
  6
CONTINUOUS
 62
     7
  5
15E
 10
961938.375
 20
7262202.644
 30
0.0
 11
962097.061
 21
7262197.501
 31
0.0
  0
LINE
  8
6
  6
CONTINUOUS
 62
     7
  5
15F
 10
962252.442
 20
7262006.775
 30
0.0
 11
962108.41
 21
7262191.725
 31
0.0
  0
ARC
  8
6
  6
CONTINUOUS
 62
     7
  5
160
 10
962096.575009
 20
7262182.508376
 30
0.0
 40
15.0
 50
37.910236
 51
88.1435
210
0.0
220
0.0
230
1.0
  0
LINE
  8
6
  6
CONTINUOUS
 62
     7
  5
161
 10
961661.251
 20
7262211.627
 30
0.0
 11
961711.225
 21
7262210.006
 31
0.0
  0
TEXT
  8
11
  6
CONTINUOUS
 62
     7
  5
162
 10
961673.705
 20
7262114.465
 30
0.0
 40
8.0
  1
50'
 50
358.1435
  7
ROMANS
210
0.0
220
0.0
230
1.0
  0
TEXT
  8
11
  6
CONTINUOUS
 62
     7
  5
163
 10
961297.506
 20
7262028.95
 30
0.0
 40
8.0
  1
10'
 50
88.1435
  7
txt
 72
     4
 11
961293.773361
 21
7262037.263288
 31
0.0
210
0.0
220
0.0
230
1.0
  0
TEXT
  8
11
  6
CONTINUOUS
 62
     7
  5
164
 10
962245.948
 20
7261996.297
 30
0.0
 40
8.0
  1
10'
 50
88.1435
  7
txt
 72
     4
 11
962242.215361
 21
7262004.610288
 31
0.0
210
0.0
220
0.0
230
1.0
  0
TEXT
  8
11
  6
CONTINUOUS
 62
     7
  5
165
 10
961932.721
 20
7262186.966
 30
0.0
 40
8.0
  1
20'
 50
88.1435
  7
txt
 72
     4
 11
961929.034299
 21
7262196.696543
 31
0.0
210
0.0
220
0.0
230
1.0
  0
TEXT
  8
11
  6
CONTINUOUS
 62
     7
  5
166
 10
961721.739
 20
7262191.638
 30
0.0
 40
8.0
  1
20'
 50
88.1435
  7
txt
 72
     4
 11
961718.052299
 21
7262201.368543
 31
0.0
210
0.0
220
0.0
230
1.0
  0
TEXT
  8
11
  6
CONTINUOUS
 62
     7
  5
167
 10
961642.322
 20
7262180.342
 30
0.0
 40
8.0
  1
20'
 50
358.1435
  7
txt
 72
     4
 11
961652.052543
 21
7262184.028701
 31
0.0
210
0.0
220
0.0
230
1.0
  0
LINE
  8
6
  6
CONTINUOUS
 62
     7
  5
168
 10
962661.996
 20
7261493.747
 30
0.0
 11
962140.61
 21
7261510.647
 31
0.0
  0
LINE
  8
6
  6
CONTINUOUS
 62
     7
  5
169
 10
962140.61
 20
7261510.647
 30
0.0
 11
962133.895
 21
7261303.252
 31
0.0
  0
LINE
  8
6
  6
CONTINUOUS
 62
     7
  5
16A
 10
962133.895
 20
7261303.252
 30
0.0
 11
962827.915
 21
7261280.756
 31
0.0
  0
LINE
  8
6
  6
CONTINUOUS
 62
     7
  5
16B
 10
962135.11
 20
7261340.732
 30
0.0
 11
962723.241
 21
7261321.669
 31
0.0
  0
LINE
  8
6
  6
CONTINUOUS
 62
     7
  5
16C
 10
962140.286
 20
7261500.651
 30
0.0
 11
962665.057
 21
7261483.642
 31
0.0
  0
LINE
  8
6
  6
CONTINUOUS
 62
     7
  5
16D
 10
962665.057
 20
7261483.642
 30
0.0
 11
962764.612
 21
7261355.267
 31
0.0
  0
TEXT
  8
11
  6
CONTINUOUS
 62
     7
  5
16E
 10
962729.909
 20
7261323.427
 30
0.0
 40
8.0
  1
40.7'
 50
18.1435
  7
ROMANS
210
0.0
220
0.0
230
1.0
  0
TEXT
  8
11
  6
CONTINUOUS
 62
     7
  5
16F
 10
962710.552
 20
7261286.22
 30
0.0
 40
8.0
  1
37.5'
 50
88.1435
  7
ROMANS
210
0.0
220
0.0
230
1.0
  0
TEXT
  8
11
  6
CONTINUOUS
 62
     7
  5
170
 10
962380.505
 20
7261507.052
 30
0.0
 40
8.0
  1
516.76'
 50
358.1435
  7
txt
 72
     4
 11
962402.511096
 21
7261510.340809
 31
0.0
210
0.0
220
0.0
230
1.0
  0
TEXT
  8
11
  6
CONTINUOUS
 62
     7
  5
171
 10
962368.766
 20
7261283.347
 30
0.0
 40
8.0
  1
688.72'
 50
358.1435
  7
txt
 72
     4
 11
962392.378253
 21
7261286.583748
 31
0.0
210
0.0
220
0.0
230
1.0
  0
TEXT
  8
11
  6
CONTINUOUS
 62
     7
  5
172
 10
962134.725
 20
7261393.079
 30
0.0
 40
8.0
  1
207.5'
 50
88.1435
  7
txt
 72
     4
 11
962131.363785
 21
7261412.85127
 31
0.0
210
0.0
220
0.0
230
1.0
  0
ARC
  8
6
  6
CONTINUOUS
 62
     7
  5
173
 10
962725.184652
 20
7261381.637652
 30
0.0
 40
60.0
 50
268.1435
 51
307.788933
210
0.0
220
0.0
230
1.0
  0
ARC
  8
6
  6
CONTINUOUS
 62
     7
  5
174
 10
962752.758601
 20
7261346.07535
 30
0.0
 40
15.0
 50
307.788933
 51
37.79355
210
0.0
220
0.0
230
1.0
  0
POLYLINE
  8
6
  6
CONTINUOUS
 62
     7
  5
175
 66
     1
 10
0.0
 20
0.0
 30
0.0
  0
VERTEX
  8
6
  6
CONTINUOUS
 62
     7
  5
176
 10
961640.613
 20
7262192.285
 30
0.0
  0
VERTEX
  8
6
  6
CONTINUOUS
 62
     7
  5
177
 10
961636.542
 20
7262066.701
 30
0.0
  0
VERTEX
  8
6
  6
CONTINUOUS
 62
     7
  5
178
 10
961626.224
 20
7262057.03
 30
0.0
  0
VERTEX
  8
6
  6
CONTINUOUS
 62
     7
  5
179
 10
961624.928
 20
7262017.052
 30
0.0
  0
SEQEND
  8
6
  6
CONTINUOUS
 62
     7
  5
17A
  0
LINE
  8
21
  6
DASHDOT
 62
     7
  5
17B
 10
961287.619
 20
7262037.99
 30
0.0
 11
961625.252
 21
7262027.046
 31
0.0
  0
LINE
  8
21
  6
DASHDOT
 62
     7
  5
17C
 10
961625.252
 20
7262027.046
 30
0.0
 11
961624.928
 21
7262017.052
 31
0.0
  0
LINE
  8
21
  6
DASHDOT
 62
     7
  5
17D
 10
961624.928
 20
7262017.052
 30
0.0
 11
961287.398
 21
7262027.973
 31
0.0
  0
LINE
  8
21
  6
DASHDOT
 62
     7
  5
17E
 10
961287.398
 20
7262027.973
 30
0.0
 11
961287.619
 21
7262037.99
 31
0.0
  0
TEXT
  8
11
  6
CONTINUOUS
 62
     7
  5
17F
 10
961656.032
 20
7262099.762
 30
0.0
 40
8.0
  1
175.65'
 50
88.1435
  7
ROMANS
210
0.0
220
0.0
230
1.0
  0
TEXT
  8
11
  6
CONTINUOUS
 62
     7
  5
180
 10
961669.421
 20
7262129.886
 30
0.0
 40
8.0
  1
100'
 50
88.1435
  7
ROMANS
210
0.0
220
0.0
230
1.0
  0
LINE
  8
6
  6
CONTINUOUS
 62
     7
  5
181
 10
961920.226
 20
7261310.18
 30
0.0
 11
961926.679
 21
7261507.576
 31
0.0
  0
LINE
  8
6
  6
CONTINUOUS
 62
     7
  5
182
 10
961926.679
 20
7261507.576
 30
0.0
 11
961916.64
 21
7261507.901
 31
0.0
  0
LINE
  8
6
  6
CONTINUOUS
 62
     7
  5
183
 10
961916.64
 20
7261507.901
 30
0.0
 11
961920.608
 21
7261630.339
 31
0.0
  0
LINE
  8
6
  6
CONTINUOUS
 62
     7
  5
184
 10
961920.608
 20
7261630.339
 30
0.0
 11
961316.519
 21
7261649.92
 31
0.0
  0
LINE
  8
6
  6
CONTINUOUS
 62
     7
  5
185
 10
961316.519
 20
7261649.92
 30
0.0
 11
961310.593
 21
7261382.315
 31
0.0
  0
LINE
  8
6
  6
CONTINUOUS
 62
     7
  5
186
 10
961325.102
 20
7261366.991
 30
0.0
 11
961921.495
 21
7261347.659
 31
0.0
  0
LINE
  8
6
  6
CONTINUOUS
 62
     7
  5
187
 10
961920.28
 20
7261310.179
 30
0.0
 11
961271.951
 21
7261331.194
 31
0.0
  0
LINE
  8
6
  6
CONTINUOUS
 62
     7
  5
188
 10
961270.124
 20
7261248.761
 30
0.0
 11
961291.707
 21
7262223.032
 31
0.0
  0
LINE
  8
6
  6
CONTINUOUS
 62
     7
  5
189
 10
961279.26
 20
7261661.133
 30
0.0
 11
961930.927
 21
7261640.01
 31
0.0
  0
LINE
  8
6
  6
CONTINUOUS
 62
     7
  5
18A
 10
961930.927
 20
7261640.01
 30
0.0
 11
961926.679
 21
7261507.576
 31
0.0
  0
TEXT
  8
11
  6
CONTINUOUS
 62
     7
  5
18B
 10
961283.158
 20
7261641.185
 30
0.0
 40
8.0
  1
37.5'
 50
358.1435
  7
ROMANS
210
0.0
220
0.0
230
1.0
  0
TEXT
  8
11
  6
CONTINUOUS
 62
     7
  5
18C
 10
961573.106
 20
7261309.443
 30
0.0
 40
8.0
  1
648.67'
 50
358.1435
  7
ROMANS
210
0.0
220
0.0
230
1.0
  0
TEXT
  8
11
  6
CONTINUOUS
 62
     7
  5
18D
 10
961558.275
 20
7261655.424
 30
0.0
 40
8.0
  1
652.01'
 50
358.1435
  7
txt
 72
     4
 11
961580.40703
 21
7261658.708727
 31
0.0
210
0.0
220
0.0
230
1.0
  0
TEXT
  8
11
  6
CONTINUOUS
 62
     7
  5
18E
 10
961329.336
 20
7261331.848
 30
0.0
 40
8.0
  1
37.5'
 50
88.1435
  7
ROMANS
210
0.0
220
0.0
230
1.0
  0
TEXT
  8
11
  6
CONTINUOUS
 62
     7
  5
18F
 10
961323.633
 20
7261373.354
 30
0.0
 40
8.0
  1
R=15'
 50
43.1435
  7
txt
 72
     4
 11
961332.204241
 21
7261386.869171
 31
0.0
210
0.0
220
0.0
230
1.0
  0
LINE
  8
6
  6
CONTINUOUS
 62
     7
  5
190
 10
961270.124
 20
7261248.761
 30
0.0
 11
961890.915
 21
7261228.639
 31
0.0
  0
LINE
  8
6
  6
CONTINUOUS
 62
     7
  5
191
 10
961890.915
 20
7261228.639
 30
0.0
 11
961855.2
 21
7259616.335
 31
0.0
  0
LINE
  8
6
  6
CONTINUOUS
 62
     7
  5
192
 10
961855.2
 20
7259616.335
 30
0.0
 11
961155.567
 21
7259639.012
 31
0.0
  0
LINE
  8
6
  6
CONTINUOUS
 62
     7
  5
193
 10
961155.567
 20
7259639.012
 30
0.0
 11
961149.338
 21
7259339.076
 31
0.0
  0
LINE
  8
6
  6
CONTINUOUS
 62
     7
  5
194
 10
961149.338
 20
7259339.076
 30
0.0
 11
960849.496
 21
7259348.795
 31
0.0
  0
LINE
  8
6
  6
CONTINUOUS
 62
     7
  5
195
 10
960828.295
 20
7258327.974
 30
0.0
 11
960855.724
 21
7259648.731
 31
0.0
  0
LINE
  8
6
  6
CONTINUOUS
 62
     7
  5
196
 10
960855.724
 20
7259648.731
 30
0.0
 11
959660.253
 21
7259687.48
 31
0.0
  0
LINE
  8
6
  6
CONTINUOUS
 62
     7
  5
197
 10
959659.972
 20
7259674.816
 30
0.0
 11
959717.39
 21
7262266.847
 31
0.0
  0
LINE
  8
6
  6
CONTINUOUS
 62
     7
  5
198
 10
959717.39
 20
7262266.847
 30
0.0
 11
960646.472
 21
7262236.732
 31
0.0
  0
LINE
  8
6
  6
CONTINUOUS
 62
     7
  5
199
 10
960646.472
 20
7262236.732
 30
0.0
 11
961291.724
 21
7262223.031
 31
0.0
  0
LINE
  8
21
  6
DASHDOT
 62
     7
  5
19A
 10
961291.724
 20
7262223.031
 30
0.0
 11
961191.747
 21
7262225.246
 31
0.0
  0
LINE
  8
21
  6
DASHDOT
 62
     7
  5
19B
 10
961191.747
 20
7262225.246
 30
0.0
 11
961187.317
 21
7262025.203
 31
0.0
  0
LINE
  8
21
  6
DASHDOT
 62
     7
  5
19C
 10
961187.317
 20
7262025.203
 30
0.0
 11
961287.477
 21
7262023.076
 31
0.0
  0
LINE
  8
21
  6
DASHDOT
 62
     7
  5
19D
 10
961287.084
 20
7262010.865
 30
0.0
 11
961291.331
 21
7262210.82
 31
0.0
  0
TEXT
  8
11
  6
CONTINUOUS
 62
     7
  5
19E
 10
959698.468
 20
7260943.695
 30
0.0
 40
8.0
  1
2580'   N0%%d35'15"W
 50
88.1435
  7
ROMANS
210
0.0
220
0.0
230
1.0
  0
LINE
  8
6
  6
CONTINUOUS
 62
     7
  5
19F
 10
959014.089
 20
7262287.254
 30
0.0
 11
958962.559
 21
7260697.477
 31
0.0
  0
LINE
  8
6
  6
CONTINUOUS
 62
     7
  5
1A0
 10
958962.559
 20
7260697.477
 30
0.0
 11
958287.914
 21
7260719.346
 31
0.0
  0
LINE
  8
6
  6
CONTINUOUS
 62
     7
  5
1A1
 10
958287.914
 20
7260719.346
 30
0.0
 11
958285.84
 21
7260655.379
 31
0.0
  0
LINE
  8
6
  6
CONTINUOUS
 62
     7
  5
1A2
 10
958285.84
 20
7260655.379
 30
0.0
 11
958265.851
 21
7260656.027
 31
0.0
  0
LINE
  8
6
  6
CONTINUOUS
 62
     7
  5
1A3
 10
958150.751
 20
7261083.979
 30
0.0
 11
957705.984
 21
7261098.396
 31
0.0
  0
LINE
  8
6
  6
CONTINUOUS
 62
     7
  5
1A4
 10
957705.984
 20
7261098.396
 30
0.0
 11
957715.744
 21
7261399.497
 31
0.0
  0
LINE
  8
6
  6
CONTINUOUS
 62
     7
  5
1A5
 10
957715.744
 20
7261399.497
 30
0.0
 11
957729.382
 21
7261887.216
 31
0.0
  0
LINE
  8
6
  6
CONTINUOUS
 62
     7
  5
1A6
 10
957729.382
 20
7261887.216
 30
0.0
 11
957739.389
 21
7262087.216
 31
0.0
  0
LINE
  8
6
  6
CONTINUOUS
 62
     7
  5
1A7
 10
957739.389
 20
7262087.216
 30
0.0
 11
957739.395
 21
7262294.971
 31
0.0
  0
ARC
  8
6
  6
CONTINUOUS
 62
     7
  5
1A8
 10
957769.394997
 20
7262294.969646
 30
0.0
 40
30.0
 50
88.1435
 51
179.998225
210
0.0
220
0.0
230
1.0
  0
ARC
  8
6
  6
CONTINUOUS
 62
     7
  5
1A9
 10
958758.308608
 20
7261225.400954
 30
0.0
 40
623.800376
 50
193.103425
 51
204.723133
210
0.0
220
0.0
230
1.0
  0
LINE
  8
6
  6
CONTINUOUS
 62
     7
  5
1AA
 10
958212.647
 20
7260919.1
 30
0.0
 11
958191.736
 21
7260964.518
 31
0.0
  0
ARC
  8
6
  6
CONTINUOUS
 62
     7
  5
1AB
 10
957682.35705
 20
7260674.939923
 30
0.0
 40
583.8
 50
358.1435
 51
24.722683
210
0.0
220
0.0
230
1.0
  0
LINE
  8
6
  6
CONTINUOUS
 62
     7
  5
1AC
 10
957770.367
 20
7262324.954
 30
0.0
 11
958807.559
 21
7262291.335
 31
0.0
  0
LINE
  8
6
  6
CONTINUOUS
 62
     7
  5
1AD
 10
958807.559
 20
7262291.335
 30
0.0
 11
959014.089
 21
7262287.254
 31
0.0
  0
TEXT
  8
11
  6
CONTINUOUS
 62
     7
  5
1AE
 10
957753.904
 20
7262312.615
 30
0.0
 40
8.0
  1
R=30'
 50
313.1435
  7
txt
 72
     4
 11
957768.366956
 21
7262303.032473
 31
0.0
210
0.0
220
0.0
230
1.0
  0
TEXT
  8
11
  6
CONTINUOUS
 62
     7
  5
1AF
 10
958163.127
 20
7261052.99
 30
0.0
 40
8.0
  1
126.28'
 50
284.1435
  7
txt
 72
     4
 11
958172.392716
 21
7261032.58969
 31
0.0
210
0.0
220
0.0
230
1.0
  0
TEXT
  8
11
  6
CONTINUOUS
 62
     7
  5
1B0
 10
958202.18
 20
7260947.749
 30
0.0
 40
8.0
  1
50'
 50
294.1435
  7
txt
 72
     4
 11
958209.759174
 21
7260940.619389
 31
0.0
210
0.0
220
0.0
230
1.0
  0
TEXT
  8
11
  6
CONTINUOUS
 62
     7
  5
1B1
 10
958247.152
 20
7260832.321
 30
0.0
 40
8.0
  1
268.4'
 50
284.1435
  7
txt
 72
     4
 11
958255.832983
 21
7260814.241151
 31
0.0
210
0.0
220
0.0
230
1.0
  0
TEXT
  8
11
  6
CONTINUOUS
 62
     7
  5
1B2
 10
958296.145
 20
7260678.12
 30
0.0
 40
8.0
  1
64'
 50
88.1435
  7
txt
 72
     4
 11
958292.459303
 21
7260687.881527
 31
0.0
210
0.0
220
0.0
230
1.0
  0
LINE
  8
21
  6
DASHDOT
 62
     7
  5
1B3
 10
957706.146
 20
7261103.394
 30
0.0
 11
958974.384
 21
7261062.285
 31
0.0
  0
LINE
  8
21
  6
DASHDOT
 62
     7
  5
1B4
 10
958151.946
 20
7261078.938
 30
0.0
 11
958974.06
 21
7261052.291
 31
0.0
  0
POLYLINE
  8
21
  6
DASHDOT
 62
     7
  5
1B5
 66
     1
 10
0.0
 20
0.0
 30
0.0
 70
     1
  0
VERTEX
  8
21
  6
DASHDOT
 62
     7
  5
1B6
 10
958297.908
 20
7260719.021
 30
0.0
  0
VERTEX
  8
21
  6
DASHDOT
 62
     7
  5
1B7
 10
958287.914
 20
7260719.346
 30
0.0
  0
VERTEX
  8
21
  6
DASHDOT
 62
     7
  5
1B8
 10
958285.84
 20
7260655.379
 30
0.0
  0
VERTEX
  8
21
  6
DASHDOT
 62
     7
  5
1B9
 10
958275.846
 20
7260655.704
 30
0.0
  0
VERTEX
  8
21
  6
DASHDOT
 62
     7
  5
1BA
 10
958289.419
 20
7261074.482
 30
0.0
  0
VERTEX
  8
21
  6
DASHDOT
 62
     7
  5
1BB
 10
958309.409
 20
7261073.834
 30
0.0
  0
SEQEND
  8
21
  6
DASHDOT
 62
     7
  5
1BC
  0
TEXT
  8
22
  6
CONTINUOUS
 62
     3
  5
1BD
 10
958310.047
 20
7260763.893
 30
0.0
 40
8.0
  1
20'RAILROAD EASEMENT
 50
88.1435
  7
txt
 72
     4
 11
958308.435578
 21
7260837.648919
 31
0.0
210
0.0
220
0.0
230
1.0
  0
TEXT
  8
22
  6
CONTINUOUS
 62
     3
  5
1BE
 10
958334.864
 20
7261086.989
 30
0.0
 40
8.0
  1
10'UTILITY EASEMENT
 50
358.1435
  7
txt
 72
     4
 11
958402.985878
 21
7261088.78304
 31
0.0
210
0.0
220
0.0
230
1.0
  0
LINE
  8
7
  6
CONTINUOUS
 62
     7
  5
1BF
 10
958030.813
 20
7261087.867
 30
0.0
 11
958070.596
 21
7262315.223
 31
0.0
  0
LINE
  8
7
  6
CONTINUOUS
 62
     7
  5
1C0
 10
957900.881
 20
7261092.079
 30
0.0
 11
957940.665
 21
7262319.434
 31
0.0
  0
POLYLINE
  8
21
  6
DASHDOT
 62
     7
  5
1C1
 66
     1
 10
0.0
 20
0.0
 30
0.0
 70
     1
  0
VERTEX
  8
21
  6
DASHDOT
 62
     7
  5
1C2
 10
958030.813
 20
7261087.867
 30
0.0
  0
VERTEX
  8
21
  6
DASHDOT
 62
     7
  5
1C3
 10
958070.596
 20
7262315.223
 30
0.0
  0
VERTEX
  8
21
  6
DASHDOT
 62
     7
  5
1C4
 10
958080.591
 20
7262314.898
 30
0.0
  0
VERTEX
  8
21
  6
DASHDOT
 62
     7
  5
1C5
 10
958040.808
 20
7261087.544
 30
0.0
  0
SEQEND
  8
21
  6
DASHDOT
 62
     7
  5
1C6
  0
TEXT
  8
22
  6
CONTINUOUS
 62
     3
  5
1C7
 10
958052.906
 20
7261127.188
 30
0.0
 40
8.0
  1
10' UUE SBT
 50
88.1435
  7
ROMANS
210
0.0
220
0.0
230
1.0
  0
TEXT
  8
22
  6
CONTINUOUS
 62
     3
  5
1C8
 10
958087.589
 20
7262197.177
 30
0.0
 40
8.0
  1
10' UUE SBT
 50
88.1435
  7
ROMANS
210
0.0
220
0.0
230
1.0
  0
LINE
  8
6
  6
CONTINUOUS
 62
     7
  5
1C9
 10
957635.04
 20
7259726.304
 30
0.0
 11
959659.972
 21
7259674.816
 31
0.0
  0
LINE
  8
6
  6
CONTINUOUS
 62
     7
  5
1CA
 10
957588.498
 20
7258398.736
 30
0.0
 11
960833.309
 21
7258327.865
 31
0.0
  0
POLYLINE
  8
21
  6
DASHDOT
 62
     7
  5
1CB
 66
     1
 10
0.0
 20
0.0
 30
0.0
  0
VERTEX
  8
21
  6
DASHDOT
 62
     7
  5
1CC
 10
957665.159
 20
7259725.542
 30
0.0
  0
VERTEX
  8
21
  6
DASHDOT
 62
     7
  5
1CD
 10
957656.938
 20
7259584.668
 30
0.0
  0
VERTEX
  8
21
  6
DASHDOT
 62
     7
  5
1CE
 10
957618.801
 20
7258408.08
 30
0.0
  0
VERTEX
  8
21
  6
DASHDOT
 62
     7
  5
1CF
 10
960823.52
 20
7258338.084
 30
0.0
  0
VERTEX
  8
21
  6
DASHDOT
 62
     7
  5
1D0
 10
960850.743
 20
7259648.939
 30
0.0
  0
VERTEX
  8
21
  6
DASHDOT
 62
     7
  5
1D1
 10
960860.738
 20
7259648.625
 30
0.0
  0
VERTEX
  8
21
  6
DASHDOT
 62
     7
  5
1D2
 10
960833.308
 20
7258327.869
 30
0.0
  0
VERTEX
  8
21
  6
DASHDOT
 62
     7
  5
1D3
 10
957593.496
 20
7258398.631
 30
0.0
  0
VERTEX
  8
21
  6
DASHDOT
 62
     7
  5
1D4
 10
957626.967
 20
7259586.026
 30
0.0
  0
VERTEX
  8
21
  6
DASHDOT
 62
     7
  5
1D5
 10
957635.152
 20
7259726.305
 30
0.0
  0
VERTEX
  8
21
  6
DASHDOT
 62
     7
  5
1D6
 10
957665.159
 20
7259725.542
 30
0.0
  0
SEQEND
  8
21
  6
DASHDOT
 62
     7
  5
1D7
  0
LINE
  8
6
  6
CONTINUOUS
 62
     7
  5
1D8
 10
957626.967
 20
7259586.026
 30
0.0
 11
957545.767
 21
7257080.915
 31
0.0
  0
LINE
  8
6
  6
CONTINUOUS
 62
     7
  5
1D9
 10
957578.191
 20
7258080.734
 30
0.0
 11
960828.421
 21
7258013.771
 31
0.0
  0
LINE
  8
6
  6
CONTINUOUS
 62
     7
  5
1DA
 10
960789.294
 20
7258014.577
 30
0.0
 11
960795.818
 21
7258328.684
 31
0.0
  0
LINE
  8
6
  6
CONTINUOUS
 62
     7
  5
1DB
 10
960826.786
 20
7258013.804
 30
0.0
 11
960833.306
 21
7258327.737
 31
0.0
  0
TEXT
  8
11
  6
CONTINUOUS
 62
     7
  5
1DC
 10
960838.9
 20
7258153.072
 30
0.0
 40
8.0
  1
314'
 50
88.1435
  7
txt
 72
     4
 11
960835.304106
 21
7258165.604072
 31
0.0
210
0.0
220
0.0
230
1.0
  0
POLYLINE
  8
1
  6
HIDDEN
 62
   253
  5
1DE
 66
     1
 10
0.0
 20
0.0
 30
0.0
 70
     1
  0
VERTEX
  8
1
  6
HIDDEN
 62
   253
  5
1DF
 10
964102.316
 20
7262199.828
 30
0.0
  0
VERTEX
  8
1
  6
HIDDEN
 62
   253
  5
1E0
 10
963937.692
 20
7256951.479
 30
0.0
  0
VERTEX
  8
1
  6
HIDDEN
 62
   253
  5
1E1
 10
957481.242
 20
7257153.688
 30
0.0
  0
VERTEX
  8
1
  6
HIDDEN
 62
   253
  5
1E2
 10
957625.928
 20
7262405.372
 30
0.0
  0
SEQEND
  8
1
  6
HIDDEN
 62
   253
  5
1E3
  0
POINT
  8
1
  6
HIDDEN
 62
   253
  5
1E4
 10
957634.155
 20
7262390.952
 30
0.0
  0
LINE
  8
6
  6
CONTINUOUS
 62
     7
  5
1E5
 10
957577.49
 20
7258046.741
 30
0.0
 11
960827.72
 21
7257979.778
 31
0.0
  0
LINE
  8
27
  6
CONTINUOUS
 62
    32
  5
1E6
 10
957577.696
 20
7258056.739
 30
0.0
 11
960827.926
 21
7257989.775
 31
0.0
  0
LINE
  8
21
  6
DASHDOT
 62
     7
  5
1E7
 10
957588.482
 20
7258398.736
 30
0.0
 11
958555.646
 21
7258377.612
 31
0.0
  0
LINE
  8
21
  6
DASHDOT
 62
     7
  5
1E8
 10
958555.646
 20
7258377.612
 30
0.0
 11
958547.769
 21
7258060.762
 31
0.0
  0
LINE
  8
21
  6
DASHDOT
 62
     7
  5
1E9
 10
958547.769
 20
7258060.762
 30
0.0
 11
957578.191
 21
7258080.734
 31
0.0
  0
LINE
  8
21
  6
DASHDOT
 62
     7
  5
1EA
 10
957578.191
 20
7258080.734
 30
0.0
 11
957588.482
 21
7258398.736
 31
0.0
  0
TEXT
  8
13
  6
CONTINUOUS
 62
    14
  5
1EB
 10
957617.511
 20
7258257.92
 30
0.0
 40
8.0
  1
V.124 P.583
 50
358.1435
  7
ROMANS
210
0.0
220
0.0
230
1.0
  0
LINE
  8
6
  6
CONTINUOUS
 62
     7
  5
1EC
 10
957650.324
 20
7259998.551
 30
0.0
 11
958088.096
 21
7259984.432
 31
0.0
  0
LINE
  8
6
  6
CONTINUOUS
 62
     7
  5
1ED
 10
958088.096
 20
7259984.432
 30
0.0
 11
958081.015
 21
7259772.55
 31
0.0
  0
LINE
  8
6
  6
CONTINUOUS
 62
     7
  5
1EE
 10
958081.015
 20
7259772.55
 30
0.0
 11
957638.577
 21
7259786.819
 31
0.0
  0
LINE
  8
6
  6
CONTINUOUS
 62
     7
  5
1EF
 10
957643.242
 20
7259786.669
 30
0.0
 11
957650.324
 21
7259998.551
 31
0.0
  0
TEXT
  8
13
  6
CONTINUOUS
 62
    14
  5
1F0
 10
957913.878
 20
7259784.561
 30
0.0
 40
8.0
  1
V.988 P.231
 50
358.1435
  7
ROMANS
210
0.0
220
0.0
230
1.0
  0
TEXT
  8
13
  6
CONTINUOUS
 62
    14
  5
1F1
 10
957907.348
 20
7259763.293
 30
0.0
 40
8.0
  1
V.726 P.237
 50
358.1435
  7
ROMANS
210
0.0
220
0.0
230
1.0
  0
POLYLINE
  8
21
  6
DASHDOT
 62
     7
  5
1F2
 66
     1
 10
0.0
 20
0.0
 30
0.0
 70
     1
  0
VERTEX
  8
21
  6
DASHDOT
 62
     7
  5
1F3
 10
957573.949
 20
7259808.997
 30
0.0
  0
VERTEX
  8
21
  6
DASHDOT
 62
     7
  5
1F4
 10
958081.662
 20
7259792.54
 30
0.0
  0
VERTEX
  8
21
  6
DASHDOT
 62
     7
  5
1F5
 10
958081.015
 20
7259772.55
 30
0.0
  0
VERTEX
  8
21
  6
DASHDOT
 62
     7
  5
1F6
 10
957573.281
 20
7259789.008
 30
0.0
  0
SEQEND
  8
21
  6
DASHDOT
 62
     7
  5
1F7
  0
POLYLINE
  8
21
  6
DASHDOT
 62
     7
  5
1F8
 66
     1
 10
0.0
 20
0.0
 30
0.0
 70
     1
  0
VERTEX
  8
21
  6
DASHDOT
 62
     7
  5
1F9
 10
957650.324
 20
7259998.551
 30
0.0
  0
VERTEX
  8
21
  6
DASHDOT
 62
     7
  5
1FA
 10
957667.814
 20
7259997.965
 30
0.0
  0
VERTEX
  8
21
  6
DASHDOT
 62
     7
  5
1FB
 10
957660.733
 20
7259786.084
 30
0.0
  0
VERTEX
  8
21
  6
DASHDOT
 62
     7
  5
1FC
 10
957643.242
 20
7259786.669
 30
0.0
  0
SEQEND
  8
21
  6
DASHDOT
 62
     7
  5
1FD
  0
POLYLINE
  8
21
  6
DASHDOT
 62
     7
  5
1FE
 66
     1
 10
0.0
 20
0.0
 30
0.0
 70
     1
  0
VERTEX
  8
21
  6
DASHDOT
 62
     7
  5
1FF
 10
963924.991
 20
7262173.21
 30
0.0
  0
VERTEX
  8
21
  6
DASHDOT
 62
     7
  5
200
 10
963919.851
 20
7262173.376
 30
0.0
  0
VERTEX
  8
21
  6
DASHDOT
 62
     7
  5
201
 10
963914.71
 20
7262173.543
 30
0.0
  0
VERTEX
  8
21
  6
DASHDOT
 62
     7
  5
202
 10
964040.67
 20
7261565.846
 30
0.0
  0
VERTEX
  8
21
  6
DASHDOT
 62
     7
  5
203
 10
964034.052
 20
7261350.036
 30
0.0
  0
VERTEX
  8
21
  6
DASHDOT
 62
     7
  5
204
 10
963987.024
 20
7261313.455
 30
0.0
  0
VERTEX
  8
21
  6
DASHDOT
 62
     7
  5
205
 10
963993.164
 20
7261305.562
 30
0.0
  0
VERTEX
  8
21
  6
DASHDOT
 62
     7
  5
206
 10
964043.903
 20
7261345.03
 30
0.0
  0
VERTEX
  8
21
  6
DASHDOT
 62
     7
  5
207
 10
964050.701
 20
7261566.715
 30
0.0
  0
VERTEX
  8
21
  6
DASHDOT
 62
     7
  5
208
 10
963924.991
 20
7262173.21
 30
0.0
  0
SEQEND
  8
21
  6
DASHDOT
 62
     7
  5
209
  0
TEXT
  8
13
  6
CONTINUOUS
 62
    14
  5
20A
 10
963960.299
 20
7261954.242
 30
0.0
 40
8.0
  1
V1674 P856
 50
281.710117
  7
txt
 72
     1
 11
963975.7776
 21
7261918.981666
 31
0.0
210
0.0
220
0.0
230
1.0
 73
     3
  0
POLYLINE
  8
21
  6
DASHDOT
 62
     7
  5
20B
 66
     1
 10
0.0
 20
0.0
 30
0.0
 70
     1
  0
VERTEX
  8
21
  6
DASHDOT
 62
     7
  5
20C
 10
963804.853
 20
7262196.914
 30
0.0
  0
VERTEX
  8
21
  6
DASHDOT
 62
     7
  5
20D
 10
963746.452
 20
7260395.161
 30
0.0
  0
VERTEX
  8
21
  6
DASHDOT
 62
     7
  5
20E
 10
963737.227
 20
7260407.002
 30
0.0
  0
VERTEX
  8
21
  6
DASHDOT
 62
     7
  5
20F
 10
963795.254
 20
7262197.225
 30
0.0
  0
VERTEX
  8
21
  6
DASHDOT
 62
     7
  5
210
 10
963804.853
 20
7262196.914
 30
0.0
  0
SEQEND
  8
21
  6
DASHDOT
 62
     7
  5
211
  0
TEXT
  8
22
  6
CONTINUOUS
 62
     3
  5
212
 10
963795.88
 20
7262198.012
 30
0.0
 40
6.0
  1
10'
 50
358.1435
  7
txt
 72
     4
 11
963802.115965
 21
7262200.811447
 31
0.0
210
0.0
220
0.0
230
1.0
  0
TEXT
  8
22
  6
CONTINUOUS
 62
     3
  5
213
 10
963773.061
 20
7261531.549
 30
0.0
 40
6.0
  1
1791.4'
 50
88.1435
  7
txt
 72
     4
 11
963770.569157
 21
7261547.274981
 31
0.0
210
0.0
220
0.0
230
1.0
  0
TEXT
  8
22
  6
CONTINUOUS
 62
     3
  5
214
 10
963790.396
 20
7261530.284
 30
0.0
 40
6.0
  1
1802.7'
 50
88.1435
  7
txt
 72
     4
 11
963787.937817
 21
7261547.048436
 31
0.0
210
0.0
220
0.0
230
1.0
  0
TEXT
  8
13
  6
CONTINUOUS
 62
    14
  5
215
 10
963781.901
 20
7261503.465
 30
0.0
 40
8.0
  1
V734 P630
 50
88.1435
  7
txt
 72
     4
 11
963779.044845
 21
7261538.819086
 31
0.0
210
0.0
220
0.0
230
1.0
  0
POLYLINE
  8
21
  6
DASHDOT
 62
     7
  5
216
 66
     1
 10
0.0
 20
0.0
 30
0.0
 70
     1
  0
VERTEX
  8
21
  6
DASHDOT
 62
     7
  5
217
 10
961291.58
 20
7262223.609
 30
0.0
  0
VERTEX
  8
21
  6
DASHDOT
 62
     7
  5
218
 10
961291.166
 20
7262210.825
 30
0.0
  0
VERTEX
  8
21
  6
DASHDOT
 62
     7
  5
219
 10
961537.626
 20
7262205.628
 30
0.0
  0
VERTEX
  8
21
  6
DASHDOT
 62
     7
  5
21A
 10
961537.976
 20
7262216.393
 30
0.0
  0
VERTEX
  8
21
  6
DASHDOT
 62
     7
  5
21B
 10
961291.58
 20
7262223.609
 30
0.0
  0
SEQEND
  8
21
  6
DASHDOT
 62
     7
  5
21C
  0
POLYLINE
  8
21
  6
DASHDOT
 62
     7
  5
21D
 66
     1
 10
0.0
 20
0.0
 30
0.0
 70
     1
  0
VERTEX
  8
21
  6
DASHDOT
 62
     7
  5
21E
 10
961537.626
 20
7262205.628
 30
0.0
  0
VERTEX
  8
21
  6
DASHDOT
 62
     7
  5
21F
 10
961537.95
 20
7262215.624
 30
0.0
  0
VERTEX
  8
21
  6
DASHDOT
 62
     7
  5
220
 10
961661.086
 20
7262211.632
 30
0.0
  0
VERTEX
  8
21
  6
DASHDOT
 62
     7
  5
221
 10
961660.762
 20
7262201.637
 30
0.0
  0
VERTEX
  8
21
  6
DASHDOT
 62
     7
  5
222
 10
961537.626
 20
7262205.628
 30
0.0
  0
SEQEND
  8
21
  6
DASHDOT
 62
     7
  5
223
  0
TEXT
  8
13
  6
CONTINUOUS
 62
    14
  5
224
 10
961574.596
 20
7262205.6
 30
0.0
 40
8.0
  1
V1001 P89
 50
358.1435
  7
txt
 72
     4
 11
961605.25955
 21
7262208.608191
 31
0.0
210
0.0
220
0.0
230
1.0
  0
TEXT
  8
13
  6
CONTINUOUS
 62
    14
  5
225
 10
961363.352
 20
7262211.159
 30
0.0
 40
8.0
  1
V957 P473
 50
358.1435
  7
txt
 72
     4
 11
961398.611136
 21
7262214.018233
 31
0.0
210
0.0
220
0.0
230
1.0
  0
TEXT
  8
22
  6
CONTINUOUS
 62
     3
  5
226
 10
961396.897
 20
7262201.747
 30
0.0
 40
6.0
  1
246.64'
 50
358.1435
  7
txt
 72
     4
 11
961414.724877
 21
7262204.170714
 31
0.0
210
0.0
220
0.0
230
1.0
  0
TEXT
  8
22
  6
CONTINUOUS
 62
     3
  5
227
 10
961402.389
 20
7262222.086
 30
0.0
 40
6.0
  1
246.5'
 50
358.1435
  7
txt
 72
     4
 11
961417.218452
 21
7262224.606903
 31
0.0
210
0.0
220
0.0
230
1.0
  0
TEXT
  8
22
  6
CONTINUOUS
 62
     3
  5
228
 10
961598.023
 20
7262215.677
 30
0.0
 40
6.0
  1
123.2'
 50
358.1435
  7
txt
 72
     1
 11
961611.692821
 21
7262215.233915
 31
0.0
210
0.0
220
0.0
230
1.0
  0
POLYLINE
  8
21
  6
DASHDOT
 62
     7
  5
229
 66
     1
 10
0.0
 20
0.0
 30
0.0
 70
     1
  0
VERTEX
  8
21
  6
DASHDOT
 62
     7
  5
22A
 10
961292.88
 20
7262263.805
 30
0.0
  0
VERTEX
  8
21
  6
DASHDOT
 62
     7
  5
22B
 10
961172.684
 20
7262259.697
 30
0.0
  0
VERTEX
  8
21
  6
DASHDOT
 62
     7
  5
22C
 10
959718.527
 20
7262306.831
 30
0.0
  0
VERTEX
  8
21
  6
DASHDOT
 62
     7
  5
22D
 10
959717.231
 20
7262266.852
 30
0.0
  0
VERTEX
  8
21
  6
DASHDOT
 62
     7
  5
22E
 10
960646.863
 20
7262236.72
 30
0.0
  0
VERTEX
  8
21
  6
DASHDOT
 62
     7
  5
22F
 10
961291.559
 20
7262223.036
 30
0.0
  0
VERTEX
  8
21
  6
DASHDOT
 62
     7
  5
230
 10
961292.88
 20
7262263.805
 30
0.0
  0
SEQEND
  8
21
  6
DASHDOT
 62
     7
  5
231
  0
TEXT
  8
22
  6
CONTINUOUS
 62
     3
  5
232
 10
959728.856
 20
7262267.225
 30
0.0
 40
8.0
  1
40.00'
 50
88.1435
  7
txt
 72
     4
 11
959725.497831
 21
7262287.09122
 31
0.0
210
0.0
220
0.0
230
1.0
  0
POLYLINE
  8
21
  6
DASHDOT
 62
     7
  5
233
 66
     1
 10
0.0
 20
0.0
 30
0.0
 70
     1
  0
VERTEX
  8
21
  6
DASHDOT
 62
     7
  5
234
 10
961293.269
 20
7262275.798
 30
0.0
  0
VERTEX
  8
21
  6
DASHDOT
 62
     7
  5
235
 10
961291.604
 20
7262230.83
 30
0.0
  0
VERTEX
  8
21
  6
DASHDOT
 62
     7
  5
236
 10
960373.036
 20
7262260.604
 30
0.0
  0
VERTEX
  8
21
  6
DASHDOT
 62
     7
  5
237
 10
959973.865
 20
7262291.3
 30
0.0
  0
VERTEX
  8
21
  6
DASHDOT
 62
     7
  5
238
 10
959972.886
 20
7262291.33
 30
0.0
  0
VERTEX
  8
21
  6
DASHDOT
 62
     7
  5
239
 10
959973.911
 20
7262318.564
 30
0.0
  0
VERTEX
  8
21
  6
DASHDOT
 62
     7
  5
23A
 10
961293.269
 20
7262275.798
 30
0.0
  0
SEQEND
  8
21
  6
DASHDOT
 62
     7
  5
23B
  0
TEXT
  8
13
  6
CONTINUOUS
 62
    14
  5
23C
 10
960447.411
 20
7262287.335
 30
0.0
 40
8.0
  1
V1966 P583
 50
358.1435
  7
txt
 72
     4
 11
960484.401227
 21
7262290.138122
 31
0.0
210
0.0
220
0.0
230
1.0
  0
TEXT
  8
13
  6
CONTINUOUS
 62
    14
  5
23D
 10
960763.637
 20
7262243.674
 30
0.0
 40
8.0
  1
V962 P460
 50
358.1435
  7
txt
 72
     4
 11
960798.392401
 21
7262246.549561
 31
0.0
210
0.0
220
0.0
230
1.0
  0
POLYLINE
  8
21
  6
DASHDOT
 62
     7
  5
23E
 66
     1
 10
0.0
 20
0.0
 30
0.0
 70
     1
  0
VERTEX
  8
21
  6
DASHDOT
 62
     7
  5
23F
 10
958884.631
 20
7262333.861
 30
0.0
  0
VERTEX
  8
21
  6
DASHDOT
 62
     7
  5
240
 10
958883.201
 20
7262289.733
 30
0.0
  0
VERTEX
  8
21
  6
DASHDOT
 62
     7
  5
241
 10
959211.531
 20
7262283.094
 30
0.0
  0
VERTEX
  8
21
  6
DASHDOT
 62
     7
  5
242
 10
959717.145
 20
7262266.706
 30
0.0
  0
VERTEX
  8
21
  6
DASHDOT
 62
     7
  5
243
 10
959718.44
 20
7262306.685
 30
0.0
  0
VERTEX
  8
21
  6
DASHDOT
 62
     7
  5
244
 10
958884.631
 20
7262333.861
 30
0.0
  0
SEQEND
  8
21
  6
DASHDOT
 62
     7
  5
245
  0
TEXT
  8
13
  6
CONTINUOUS
 62
    14
  5
246
 10
958291.261
 20
7262330.321
 30
0.0
 40
8.0
  1
V943 P91
 50
358.1435
  7
txt
 72
     4
 11
958320.823128
 21
7262333.364892
 31
0.0
210
0.0
220
0.0
230
1.0
  0
TEXT
  8
13
  6
CONTINUOUS
 62
    14
  5
247
 10
958767.63
 20
7262317.452
 30
0.0
 40
8.0
  1
V950 P693
 50
358.1435
  7
txt
 72
     4
 11
958802.164517
 21
7262320.33472
 31
0.0
210
0.0
220
0.0
230
1.0
  0
POLYLINE
  8
21
  6
DASHDOT
 62
     7
  5
248
 66
     1
 10
0.0
 20
0.0
 30
0.0
 70
     1
  0
VERTEX
  8
21
  6
DASHDOT
 62
     7
  5
249
 10
957725.64
 20
7262371.428
 30
0.0
  0
VERTEX
  8
21
  6
DASHDOT
 62
     7
  5
24A
 10
957724.182
 20
7262326.451
 30
0.0
  0
VERTEX
  8
21
  6
DASHDOT
 62
     7
  5
24B
 10
958724.257
 20
7262294.035
 30
0.0
  0
VERTEX
  8
21
  6
DASHDOT
 62
     7
  5
24C
 10
958725.715
 20
7262339.011
 30
0.0
  0
VERTEX
  8
21
  6
DASHDOT
 62
     7
  5
24D
 10
957725.64
 20
7262371.428
 30
0.0
  0
SEQEND
  8
21
  6
DASHDOT
 62
     7
  5
24E
  0
POLYLINE
  8
21
  6
DASHDOT
 62
     7
  5
24F
 66
     1
 10
0.0
 20
0.0
 30
0.0
 70
     1
  0
VERTEX
  8
21
  6
DASHDOT
 62
     7
  5
250
 10
958884.631
 20
7262333.861
 30
0.0
  0
VERTEX
  8
21
  6
DASHDOT
 62
     7
  5
251
 10
958725.715
 20
7262339.011
 30
0.0
  0
VERTEX
  8
21
  6
DASHDOT
 62
     7
  5
252
 10
958724.257
 20
7262294.035
 30
0.0
  0
VERTEX
  8
21
  6
DASHDOT
 62
     7
  5
253
 10
958815.609
 20
7262291.075
 30
0.0
  0
VERTEX
  8
21
  6
DASHDOT
 62
     7
  5
254
 10
958883.201
 20
7262289.733
 30
0.0
  0
VERTEX
  8
21
  6
DASHDOT
 62
     7
  5
255
 10
958884.631
 20
7262333.861
 30
0.0
  0
SEQEND
  8
21
  6
DASHDOT
 62
     7
  5
256
  0
TEXT
  8
13
  6
CONTINUOUS
 62
    14
  5
257
 10
959268.815
 20
7262297.891
 30
0.0
 40
8.0
  1
V943 P81
 50
358.1435
  7
txt
 72
     4
 11
959298.566029
 21
7262300.928769
 31
0.0
210
0.0
220
0.0
230
1.0
  0
POLYLINE
  8
21
  6
DASHDOT
 62
     7
  5
258
 66
     1
 10
0.0
 20
0.0
 30
0.0
 70
     1
  0
VERTEX
  8
21
  6
DASHDOT
 62
     7
  5
259
 10
958884.631
 20
7262333.861
 30
0.0
  0
VERTEX
  8
21
  6
DASHDOT
 62
     7
  5
25A
 10
958883.201
 20
7262289.733
 30
0.0
  0
VERTEX
  8
21
  6
DASHDOT
 62
     7
  5
25B
 10
959211.531
 20
7262283.094
 30
0.0
  0
VERTEX
  8
21
  6
DASHDOT
 62
     7
  5
25C
 10
959717.145
 20
7262266.706
 30
0.0
  0
VERTEX
  8
21
  6
DASHDOT
 62
     7
  5
25D
 10
959718.44
 20
7262306.685
 30
0.0
  0
VERTEX
  8
21
  6
DASHDOT
 62
     7
  5
25E
 10
958884.631
 20
7262333.861
 30
0.0
  0
SEQEND
  8
21
  6
DASHDOT
 62
     7
  5
25F
  0
POLYLINE
  8
21
  6
DASHDOT
 62
     7
  5
260
 66
     1
 10
0.0
 20
0.0
 30
0.0
 70
     1
  0
VERTEX
  8
21
  6
DASHDOT
 62
     7
  5
261
 10
957676.0
 20
7261099.368
 30
0.0
  0
VERTEX
  8
21
  6
DASHDOT
 62
     7
  5
262
 10
957705.984
 20
7261098.396
 30
0.0
  0
VERTEX
  8
21
  6
DASHDOT
 62
     7
  5
263
 10
957694.399
 20
7260741.004
 30
0.0
  0
VERTEX
  8
21
  6
DASHDOT
 62
     7
  5
264
 10
957677.81
 20
7260456.978
 30
0.0
  0
VERTEX
  8
21
  6
DASHDOT
 62
     7
  5
265
 10
957655.202
 20
7260457.711
 30
0.0
  0
SEQEND
  8
21
  6
DASHDOT
 62
     7
  5
266
  0
TEXT
  8
13
  6
CONTINUOUS
 62
    14
  5
267
 10
957686.161
 20
7260832.564
 30
0.0
 40
8.0
  1
V2819 P15
 50
85.7702
  7
txt
 72
     1
 11
957680.531283
 21
7260864.908328
 31
0.0
210
0.0
220
0.0
230
1.0
 73
     3
  0
POLYLINE
  8
6
  6
CONTINUOUS
 62
     7
  5
268
 66
     1
 10
0.0
 20
0.0
 30
0.0
  0
VERTEX
  8
6
  6
CONTINUOUS
 62
     7
  5
269
 10
957677.81
 20
7260456.978
 30
0.0
  0
VERTEX
  8
6
  6
CONTINUOUS
 62
     7
  5
26A
 10
958268.783
 20
7260437.817
 30
0.0
  0
VERTEX
  8
6
  6
CONTINUOUS
 62
     7
  5
26B
 10
958276.031
 20
7260655.697
 30
0.0
  0
SEQEND
  8
6
  6
CONTINUOUS
 62
     7
  5
26C
  0
POLYLINE
  8
6
  6
CONTINUOUS
 62
     7
  5
26D
 66
     1
 10
0.0
 20
0.0
 30
0.0
  0
VERTEX
  8
6
  6
CONTINUOUS
 62
     7
  5
26E
 10
957677.81
 20
7260456.978
 30
0.0
  0
VERTEX
  8
6
  6
CONTINUOUS
 62
     7
  5
26F
 10
957694.399
 20
7260741.004
 30
0.0
  0
VERTEX
  8
6
  6
CONTINUOUS
 62
     7
  5
270
 10
957705.984
 20
7261098.396
 30
0.0
  0
SEQEND
  8
6
  6
CONTINUOUS
 62
     7
  5
271
  0
LINE
  8
6
  6
CONTINUOUS
 62
     7
  5
272
 10
958268.783
 20
7260437.817
 30
0.0
 11
958339.392
 21
7260435.534
 31
0.0
  0
TEXT
  8
15
  6
CONTINUOUS
 62
    30
  5
273
 10
959042.185
 20
7258826.695
 30
0.0
 40
50.0
  1
SOUTH PLAINS INDUSTRIAL
 50
28.1435
  7
ROMANC
 72
     4
 11
959563.587221
 21
7259133.95888
 31
0.0
210
0.0
220
0.0
230
1.0
  0
TEXT
  8
15
  6
CONTINUOUS
 62
    30
  5
274
 10
958018.06
 20
7258091.945
 30
0.0
 40
50.0
  1
JARVIS-WILLIAMSON
 50
28.1435
  7
ROMANC
 72
     4
 11
958382.039118
 21
7258314.999115
 31
0.0
210
0.0
220
0.0
230
1.0
  0
TEXT
  8
15
  6
CONTINUOUS
 62
    30
  5
275
 10
960111.918
 20
7258024.076
 30
0.0
 40
50.0
  1
JARVIS-WILLIAMSON
 50
28.1435
  7
ROMANC
 72
     4
 11
960475.897118
 21
7258247.130115
 31
0.0
210
0.0
220
0.0
230
1.0
  0
LINE
  8
21
  6
DASHDOT
 62
     7
  5
276
 10
959660.299
 20
7259689.599
 30
0.0
 11
957572.456
 21
7259756.935
 31
0.0
  0
TEXT
  8
22
  6
CONTINUOUS
 62
     3
  5
277
 10
957679.505
 20
7259764.828
 30
0.0
 40
8.0
  1
32' EASEMENT P & SF RR
 50
358.1435
  7
ROMANS
210
0.0
220
0.0
230
1.0
  0
LINE
  8
21
  6
DASHDOT
 62
     7
  5
278
 10
959661.008
 20
7259721.593
 30
0.0
 11
958081.015
 21
7259772.55
 31
0.0
  0
LINE
  8
21
  6
DASHDOT
 62
     7
  5
279
 10
959661.655
 20
7259741.583
 30
0.0
 11
958081.662
 21
7259792.54
 31
0.0
  0
POLYLINE
  8
21
  6
DASHDOT
 62
     7
  5
27A
 66
     1
 10
0.0
 20
0.0
 30
0.0
 70
     1
  0
VERTEX
  8
21
  6
DASHDOT
 62
     7
  5
27B
 10
957626.967
 20
7259586.026
 30
0.0
  0
VERTEX
  8
21
  6
DASHDOT
 62
     7
  5
27C
 10
957631.533
 20
7259726.415
 30
0.0
  0
VERTEX
  8
21
  6
DASHDOT
 62
     7
  5
27D
 10
957635.152
 20
7259726.305
 30
0.0
  0
VERTEX
  8
21
  6
DASHDOT
 62
     7
  5
27E
 10
957626.967
 20
7259586.026
 30
0.0
  0
SEQEND
  8
21
  6
DASHDOT
 62
     7
  5
27F
  0
POLYLINE
  8
6
  6
CONTINUOUS
 62
     7
  5
280
 66
     1
 10
0.0
 20
0.0
 30
0.0
  0
VERTEX
  8
6
  6
CONTINUOUS
 62
     7
  5
281
 10
959014.089
 20
7262287.254
 30
0.0
  0
VERTEX
  8
6
  6
CONTINUOUS
 62
     7
  5
282
 10
959211.531
 20
7262283.094
 30
0.0
  0
VERTEX
  8
6
  6
CONTINUOUS
 62
     7
  5
283
 10
959717.145
 20
7262266.706
 30
0.0
  0
SEQEND
  8
6
  6
CONTINUOUS
 62
     7
  5
284
  0
TEXT
  8
13
  6
CONTINUOUS
 62
    14
  5
285
 10
957624.097
 20
7259707.006
 30
0.0
 40
8.0
  1
V3019 P12
 50
88.1435
  7
ROMANS
210
0.0
220
0.0
230
1.0
  0
TEXT
  8
11
  6
CONTINUOUS
 62
     7
  5
286
 10
957641.888
 20
7259639.315
 30
0.0
 40
8.0
  1
140.52'
 50
86.660381
  7
txt
 72
     1
 11
957643.19249
 21
7259661.669972
 31
0.0
210
0.0
220
0.0
230
1.0
  0
TEXT
  8
13
  6
CONTINUOUS
 62
    14
  5
287
 10
958233.406
 20
7260394.663
 30
0.0
 40
8.0
  1
V1069 P199
 50
358.1435
  7
txt
 72
     4
 11
958268.759087
 21
7260397.519188
 31
0.0
210
0.0
220
0.0
230
1.0
  0
POLYLINE
  8
21
  6
DASHDOT
 62
     7
  5
288
 66
     1
 10
0.0
 20
0.0
 30
0.0
 70
     1
  0
VERTEX
  8
21
  6
DASHDOT
 62
     7
  5
289
 10
957673.361
 20
7260382.083
 30
0.0
  0
VERTEX
  8
21
  6
DASHDOT
 62
     7
  5
28A
 10
957652.692
 20
7260382.753
 30
0.0
  0
VERTEX
  8
21
  6
DASHDOT
 62
     7
  5
28B
 10
957640.243
 20
7259998.673
 30
0.0
  0
VERTEX
  8
21
  6
DASHDOT
 62
     7
  5
28C
 10
957650.947
 20
7259998.338
 30
0.0
  0
VERTEX
  8
21
  6
DASHDOT
 62
     7
  5
28D
 10
957673.361
 20
7260382.083
 30
0.0
  0
SEQEND
  8
21
  6
DASHDOT
 62
     7
  5
28E
  0
TEXT
  8
11
  6
CONTINUOUS
 62
     7
  5
28F
 10
957671.747
 20
7260173.604
 30
0.0
 40
8.0
  1
384.40'
 50
88.1435
  7
txt
 72
     4
 11
957668.526612
 21
7260197.720988
 31
0.0
210
0.0
220
0.0
230
1.0
  0
LINE
  8
6
  6
CONTINUOUS
 62
     7
  5
290
 10
957638.581
 20
7259786.896
 30
0.0
 11
957635.048
 21
7259726.443
 31
0.0
  0
POLYLINE
  8
21
  6
DASHDOT
 62
     7
  5
291
 66
     1
 10
0.0
 20
0.0
 30
0.0
 70
     1
  0
VERTEX
  8
21
  6
DASHDOT
 62
     7
  5
292
 10
957632.347
 20
7259755.077
 30
0.0
  0
VERTEX
  8
21
  6
DASHDOT
 62
     7
  5
293
 10
957636.714
 20
7259754.941
 30
0.0
  0
VERTEX
  8
21
  6
DASHDOT
 62
     7
  5
294
 10
957638.581
 20
7259786.896
 30
0.0
  0
VERTEX
  8
21
  6
DASHDOT
 62
     7
  5
295
 10
957633.383
 20
7259787.06
 30
0.0
  0
VERTEX
  8
21
  6
DASHDOT
 62
     7
  5
296
 10
957632.347
 20
7259755.077
 30
0.0
  0
SEQEND
  8
21
  6
DASHDOT
 62
     7
  5
297
  0
POLYLINE
  8
21
  6
DASHDOT
 62
     7
  5
298
 66
     1
 10
0.0
 20
0.0
 30
0.0
 70
     1
  0
VERTEX
  8
21
  6
DASHDOT
 62
     7
  5
299
 10
957652.692
 20
7260382.753
 30
0.0
  0
VERTEX
  8
21
  6
DASHDOT
 62
     7
  5
29A
 10
957655.202
 20
7260457.711
 30
0.0
  0
VERTEX
  8
21
  6
DASHDOT
 62
     7
  5
29B
 10
958339.392
 20
7260435.534
 30
0.0
  0
VERTEX
  8
21
  6
DASHDOT
 62
     7
  5
29C
 10
958336.962
 20
7260360.573
 30
0.0
  0
VERTEX
  8
21
  6
DASHDOT
 62
     7
  5
29D
 10
957652.692
 20
7260382.753
 30
0.0
  0
SEQEND
  8
21
  6
DASHDOT
 62
     7
  5
29E
  0
LINE
  8
6
  6
CONTINUOUS
 62
     7
  5
29F
 10
957626.967
 20
7259586.026
 30
0.0
 11
957635.04
 21
7259726.304
 31
0.0
  0
TEXT
  8
19
  6
CONTINUOUS
 62
     1
  5
2A0
 10
957535.283
 20
7257258.481
 30
0.0
 40
24.0
  1
MARTIN LUTHER KING, JR BLVD
 50
88.1435
  7
ROMANC
 72
     4
 11
957534.32078
 21
7257599.20702
 31
0.0
210
0.0
220
0.0
230
1.0
  0
TEXT
  8
19
  6
CONTINUOUS
 62
     1
  5
2A1
 10
957687.818
 20
7261543.971
 30
0.0
 40
24.0
  1
MARTIN LUTHER KING, JR BLVD
 50
88.1435
  7
ROMANC
 72
     4
 11
957686.85578
 21
7261884.69702
 31
0.0
210
0.0
220
0.0
230
1.0
  0
TEXT
  8
19
  6
CONTINUOUS
 62
     1
  5
2A2
 10
957597.432
 20
7259175.871
 30
0.0
 40
24.0
  1
MARTIN LUTHER KING, JR BLVD
 50
88.1435
  7
ROMANC
 72
     4
 11
957596.46978
 21
7259516.59702
 31
0.0
210
0.0
220
0.0
230
1.0
  0
TEXT
  8
11
  6
CONTINUOUS
 62
     7
  5
2A3
 10
957633.751
 20
7259529.072
 30
0.0
 40
8.0
  1
101.06'
 50
88.1435
  7
txt
 72
     1
 11
957626.421463
 21
7259549.886376
 31
0.0
210
0.0
220
0.0
230
1.0
 73
     3
  0
TEXT
  8
11
  6
CONTINUOUS
 62
     7
  5
2A4
 10
957603.488
 20
7258923.448
 30
0.0
 40
8.0
  1
NORTH-SOUTH  1187.91'
 50
88.1435
  7
txt
 72
     1
 11
957605.897998
 21
7258997.799952
 31
0.0
210
0.0
220
0.0
230
1.0
  0
TEXT
  8
13
  6
CONTINUOUS
 62
    14
  5
2A5
 10
963424.616
 20
7260843.191
 30
0.0
 40
8.0
  1
V696 P137
 50
307.918528
  7
txt
 72
     1
 11
963444.841137
 21
7260817.227993
 31
0.0
210
0.0
220
0.0
230
1.0
  0
TEXT
  8
22
  6
CONTINUOUS
 62
     3
  5
2A6
 10
963307.276
 20
7261020.664
 30
0.0
 40
6.0
  1
2612.70'
 50
307.918528
  7
txt
 72
     1
 11
963319.280431
 21
7261005.253913
 31
0.0
210
0.0
220
0.0
230
1.0
  0
ARC
  8
6
  6
CONTINUOUS
 62
     7
  5
2A7
 10
961325.58839
 20
7261381.982669
 30
0.0
 40
15.0
 50
178.731086
 51
268.1435
210
0.0
220
0.0
230
1.0
  0
POLYLINE
  8
21
  6
DASHDOT
 62
     7
  5
2A8
 66
     1
 10
0.0
 20
0.0
 30
0.0
 70
     1
  0
VERTEX
  8
21
  6
DASHDOT
 62
     7
  5
2A9
 10
957632.444
 20
7259754.519
 30
0.0
  0
VERTEX
  8
21
  6
DASHDOT
 62
     7
  5
2AA
 10
957636.821
 20
7259754.383
 30
0.0
  0
VERTEX
  8
21
  6
DASHDOT
 62
     7
  5
2AB
 10
957635.182
 20
7259726.32
 30
0.0
  0
VERTEX
  8
21
  6
DASHDOT
 62
     7
  5
2AC
 10
957631.533
 20
7259726.415
 30
0.0
  0
VERTEX
  8
21
  6
DASHDOT
 62
     7
  5
2AD
 10
957632.444
 20
7259754.519
 30
0.0
  0
SEQEND
  8
21
  6
DASHDOT
 62
     7
  5
2AE
  0
SOLID
  8
25
  6
CONTINUOUS
 62
   212
  5
2B0
 10
957624.344
 20
7259403.072
 30
0.0
 11
957626.774
 21
7259478.033
 31
0.0
 12
958423.924
 22
7259377.154
 32
0.0
 13
958426.355
 23
7259452.115
 33
0.0
  0
SOLID
  8
25
  6
CONTINUOUS
 62
   212
  5
2B1
 10
957601.538
 20
7258699.461
 30
0.0
 11
957603.969
 21
7258774.422
 31
0.0
 12
958101.276
 22
7258683.263
 32
0.0
 13
958103.706
 23
7258758.225
 33
0.0
  0
TEXT
  8
28
  6
CONTINUOUS
 62
    32
  5
2B3
 10
962898.273
 20
7261447.148
 30
0.0
 40
24.0
  1
PANHANDLE & SANTA FE RAILROAD
 50
307.918492
  7
ROMANC
210
0.0
220
0.0
230
1.0
  0
ARC
  8
27
  6
CONTINUOUS
 62
    32
  5
2B4
 10
963222.701269
 20
7263030.731237
 30
0.0
 40
1240.597206
 50
219.9684
 51
225.311256
210
0.0
220
0.0
230
1.0
  0
ARC
  8
27
  6
CONTINUOUS
 62
    32
  5
2B5
 10
961892.507942
 20
7261688.300858
 30
0.0
 40
649.254266
 50
38.097978
 51
45.168864
210
0.0
220
0.0
230
1.0
  0
ARC
  8
27
  6
CONTINUOUS
 62
    32
  5
2B6
 10
964225.874978
 20
7260470.76026
 30
0.0
 40
457.058238
 50
215.787875
 51
245.196142
210
0.0
220
0.0
230
1.0
  0
POLYLINE
  8
21
  6
DASHDOT
 62
     7
  5
2B7
 66
     1
 10
0.0
 20
0.0
 30
0.0
 70
     1
  0
VERTEX
  8
21
  6
DASHDOT
 62
     7
  5
2B8
 10
957588.482
 20
7258398.736
 30
0.0
  0
VERTEX
  8
21
  6
DASHDOT
 62
     7
  5
2B9
 10
957588.28
 20
7258388.738
 30
0.0
  0
VERTEX
  8
21
  6
DASHDOT
 62
     7
  5
2BA
 10
960795.61
 20
7258318.686
 30
0.0
  0
VERTEX
  8
21
  6
DASHDOT
 62
     7
  5
2BB
 10
960795.818
 20
7258328.684
 30
0.0
  0
SEQEND
  8
21
  6
DASHDOT
 62
     7
  5
2BC
  0
SOLID
  8
21
  6
DASHDOT
 62
     7
  5
2BD
 10
957588.482
 20
7258398.736
 30
0.0
 11
957588.061
 21
7258378.741
 31
0.0
 12
960795.818
 22
7258328.684
 32
0.0
 13
960795.403
 23
7258308.688
 33
0.0
  0
TEXT
  8
22
  6
CONTINUOUS
 62
     3
  5
2BE
 10
958782.355
 20
7258354.744
 30
0.0
 40
6.0
  1
DRAINAGE ESMT
 50
358.2428
  7
txt
 72
     4
 11
958819.088753
 21
7258356.618473
 31
0.0
210
0.0
220
0.0
230
1.0
  0
TEXT
  8
22
  6
CONTINUOUS
 62
     3
  5
2BF
 10
957989.408
 20
7258371.56
 30
0.0
 40
6.0
  1
DRAINAGE ESMT
 50
358.2428
  7
txt
 72
     4
 11
958026.141753
 21
7258373.434473
 31
0.0
210
0.0
220
0.0
230
1.0
  0
TEXT
  8
22
  6
CONTINUOUS
 62
     3
  5
2C0
 10
959611.446
 20
7258336.025
 30
0.0
 40
6.0
  1
DRAINAGE ESMT
 50
358.2428
  7
txt
 72
     4
 11
959648.179753
 21
7258337.899473
 31
0.0
210
0.0
220
0.0
230
1.0
  0
TEXT
  8
22
  6
CONTINUOUS
 62
     3
  5
2C1
 10
959322.519
 20
7258353.867
 30
0.0
 40
6.0
  1
10' SOUTHWESTERN BELL TELEPHONE ESMT
 50
358.2428
  7
txt
 72
     4
 11
959423.707429
 21
7258353.764098
 31
0.0
210
0.0
220
0.0
230
1.0
  0
TEXT
  8
22
  6
CONTINUOUS
 62
     3
  5
2C2
 10
958195.084
 20
7258377.98
 30
0.0
 40
6.0
  1
10' SOUTHWESTERN BELL TELEPHONE ESMT
 50
358.2428
  7
txt
 72
     4
 11
958296.272429
 21
7258377.877098
 31
0.0
210
0.0
220
0.0
230
1.0
  0
POLYLINE
  8
21
  6
DASHDOT
 62
     7
  5
2C3
 66
     1
 10
0.0
 20
0.0
 30
0.0
 70
     1
  0
VERTEX
  8
21
  6
DASHDOT
 62
     7
  5
2C4
 10
957575.242
 20
7258009.568
 30
0.0
  0
VERTEX
  8
21
  6
DASHDOT
 62
     7
  5
2C5
 10
958424.815
 20
7257982.602
 30
0.0
  0
VERTEX
  8
21
  6
DASHDOT
 62
     7
  5
2C6
 10
958423.862
 20
7257952.617
 30
0.0
  0
VERTEX
  8
21
  6
DASHDOT
 62
     7
  5
2C7
 10
957574.289
 20
7257979.583
 30
0.0
  0
VERTEX
  8
21
  6
DASHDOT
 62
     7
  5
2C8
 10
957575.242
 20
7258009.568
 30
0.0
  0
SEQEND
  8
21
  6
DASHDOT
 62
     7
  5
2C9
  0
TEXT
  8
22
  6
CONTINUOUS
 62
     3
  5
2CA
 10
957870.658
 20
7257980.586
 30
0.0
 40
8.0
  1
30' DRAINAGE EASEMENT
 50
358.181992
  7
ROMANS
210
0.0
220
0.0
230
1.0
  0
TEXT
  8
13
  6
CONTINUOUS
 62
    14
  5
2CB
 10
958187.002
 20
7257971.687
 30
0.0
 40
8.0
  1
V.2976 P.118
 50
358.181992
  7
ROMANS
210
0.0
220
0.0
230
1.0
  0
LINE
  8
-7
  6
CONTINUOUS
 62
     7
  5
2CD
 10
966196.13
 20
7258723.537
 30
0.0
 11
965040.978
 21
7258765.715
 31
0.0
  0
LINE
  8
-7
  6
CONTINUOUS
 62
     7
  5
2CE
 10
966636.593
 20
7259903.269
 30
0.0
 11
964090.477
 21
7259996.235
 31
0.0
  0
TEXT
  8
-10
  6
CONTINUOUS
 62
   134
  5
2D0
 10
968373.709
 20
7258653.648
 30
0.0
 40
13.999
  1
101
 50
358.118569
  7
ROMANS
 11
968374.168605
 21
7258667.639453
 31
0.0
210
0.0
220
0.0
230
1.0
 73
     3
  0
TEXT
  8
-10
  6
CONTINUOUS
 62
   134
  5
2D1
 10
968441.178
 20
7258652.269
 30
0.0
 40
13.999
  1
102
 50
358.118569
  7
ROMANS
 11
968441.637605
 21
7258666.260453
 31
0.0
210
0.0
220
0.0
230
1.0
 73
     3
  0
TEXT
  8
-10
  6
CONTINUOUS
 62
   134
  5
2D2
 10
968498.905
 20
7258651.088
 30
0.0
 40
13.999
  1
103
 50
358.118569
  7
ROMANS
 11
968499.364605
 21
7258665.079453
 31
0.0
210
0.0
220
0.0
230
1.0
 73
     3
  0
TEXT
  8
-10
  6
CONTINUOUS
 62
   134
  5
2D3
 10
968559.924
 20
7258649.84
 30
0.0
 40
13.999
  1
104
 50
358.118569
  7
ROMANS
 11
968560.383605
 21
7258663.831453
 31
0.0
210
0.0
220
0.0
230
1.0
 73
     3
  0
TEXT
  8
-10
  6
CONTINUOUS
 62
   134
  5
2D4
 10
968621.567
 20
7258648.58
 30
0.0
 40
13.999
  1
105
 50
358.118569
  7
ROMANS
 11
968622.026605
 21
7258662.571453
 31
0.0
210
0.0
220
0.0
230
1.0
 73
     3
  0
TEXT
  8
-10
  6
CONTINUOUS
 62
   134
  5
2D5
 10
968680.183
 20
7258647.381
 30
0.0
 40
13.999
  1
106
 50
358.118569
  7
ROMANS
 11
968680.642605
 21
7258661.372453
 31
0.0
210
0.0
220
0.0
230
1.0
 73
     3
  0
TEXT
  8
-10
  6
CONTINUOUS
 62
   134
  5
2D6
 10
968739.653
 20
7258646.165
 30
0.0
 40
13.999
  1
107
 50
358.118569
  7
ROMANS
 11
968740.112605
 21
7258660.156453
 31
0.0
210
0.0
220
0.0
230
1.0
 73
     3
  0
TEXT
  8
-10
  6
CONTINUOUS
 62
   134
  5
2D7
 10
968802.028
 20
7258644.889
 30
0.0
 40
13.999
  1
108
 50
358.118569
  7
ROMANS
 11
968802.487605
 21
7258658.880453
 31
0.0
210
0.0
220
0.0
230
1.0
 73
     3
  0
TEXT
  8
-10
  6
CONTINUOUS
 62
   134
  5
2D8
 10
968860.662
 20
7258643.691
 30
0.0
 40
13.999
  1
109
 50
358.118569
  7
ROMANS
 11
968861.121605
 21
7258657.682453
 31
0.0
210
0.0
220
0.0
230
1.0
 73
     3
  0
TEXT
  8
-10
  6
CONTINUOUS
 62
   134
  5
2D9
 10
968926.757
 20
7258642.339
 30
0.0
 40
13.999
  1
110
 50
358.118569
  7
ROMANS
 11
968927.216605
 21
7258656.330453
 31
0.0
210
0.0
220
0.0
230
1.0
 73
     3
  0
TEXT
  8
-10
  6
CONTINUOUS
 62
   134
  5
2DA
 10
968371.603
 20
7258481.111
 30
0.0
 40
13.999
  1
100
 50
358.118569
  7
ROMANS
 11
968372.062605
 21
7258495.102453
 31
0.0
210
0.0
220
0.0
230
1.0
 73
     3
  0
TEXT
  8
-10
  6
CONTINUOUS
 62
   134
  5
2DB
 10
968446.545
 20
7258479.58
 30
0.0
 40
13.999
  1
99
 50
358.118569
  7
ROMANS
 11
968447.004605
 21
7258493.571453
 31
0.0
210
0.0
220
0.0
230
1.0
 73
     3
  0
TEXT
  8
-10
  6
CONTINUOUS
 62
   134
  5
2DC
 10
968505.934
 20
7258478.364
 30
0.0
 40
13.999
  1
98
 50
358.118569
  7
ROMANS
 11
968506.393605
 21
7258492.355453
 31
0.0
210
0.0
220
0.0
230
1.0
 73
     3
  0
TEXT
  8
-10
  6
CONTINUOUS
 62
   134
  5
2DD
 10
968563.757
 20
7258477.181
 30
0.0
 40
13.999
  1
97
 50
358.118569
  7
ROMANS
 11
968564.216605
 21
7258491.172453
 31
0.0
210
0.0
220
0.0
230
1.0
 73
     3
  0
TEXT
  8
-10
  6
CONTINUOUS
 62
   134
  5
2DE
 10
968625.903
 20
7258475.911
 30
0.0
 40
13.999
  1
96
 50
358.118569
  7
ROMANS
 11
968626.362605
 21
7258489.902453
 31
0.0
210
0.0
220
0.0
230
1.0
 73
     3
  0
TEXT
  8
-10
  6
CONTINUOUS
 62
   134
  5
2DF
 10
968685.419
 20
7258474.693
 30
0.0
 40
13.999
  1
95
 50
358.118569
  7
ROMANS
 11
968685.878605
 21
7258488.684453
 31
0.0
210
0.0
220
0.0
230
1.0
 73
     3
  0
TEXT
  8
-10
  6
CONTINUOUS
 62
   134
  5
2E0
 10
968745.551
 20
7258473.465
 30
0.0
 40
13.999
  1
94
 50
358.118569
  7
ROMANS
 11
968746.010605
 21
7258487.456453
 31
0.0
210
0.0
220
0.0
230
1.0
 73
     3
  0
TEXT
  8
-10
  6
CONTINUOUS
 62
   134
  5
2E1
 10
968811.664
 20
7258472.112
 30
0.0
 40
13.999
  1
1
 50
358.118569
  7
ROMANS
 11
968812.123605
 21
7258486.103453
 31
0.0
210
0.0
220
0.0
230
1.0
 73
     3
  0
TEXT
  8
-10
  6
CONTINUOUS
 62
   134
  5
2E2
 10
968872.928
 20
7258470.86
 30
0.0
 40
13.999
  1
2
 50
358.118569
  7
ROMANS
 11
968873.387605
 21
7258484.851453
 31
0.0
210
0.0
220
0.0
230
1.0
 73
     3
  0
TEXT
  8
-10
  6
CONTINUOUS
 62
   134
  5
2E3
 10
968940.632
 20
7258469.474
 30
0.0
 40
13.999
  1
3
 50
358.118569
  7
ROMANS
 11
968941.091605
 21
7258483.465453
 31
0.0
210
0.0
220
0.0
230
1.0
 73
     3
  0
TEXT
  8
-10
  6
CONTINUOUS
 62
   134
  5
2E4
 10
968373.375
 20
7258339.94
 30
0.0
 40
13.999
  1
13
 50
358.118569
  7
ROMANS
 11
968373.834605
 21
7258353.931453
 31
0.0
210
0.0
220
0.0
230
1.0
 73
     3
  0
TEXT
  8
-10
  6
CONTINUOUS
 62
   134
  5
2E5
 10
968440.784
 20
7258338.56
 30
0.0
 40
13.999
  1
12
 50
358.118569
  7
ROMANS
 11
968441.243605
 21
7258352.551453
 31
0.0
210
0.0
220
0.0
230
1.0
 73
     3
  0
TEXT
  8
-10
  6
CONTINUOUS
 62
   134
  5
2E6
 10
968502.197
 20
7258337.305
 30
0.0
 40
13.999
  1
11
 50
358.118569
  7
ROMANS
 11
968502.656605
 21
7258351.296453
 31
0.0
210
0.0
220
0.0
230
1.0
 73
     3
  0
TEXT
  8
-10
  6
CONTINUOUS
 62
   134
  5
2E7
 10
968561.757
 20
7258336.087
 30
0.0
 40
13.999
  1
10
 50
358.118569
  7
ROMANS
 11
968562.216605
 21
7258350.078453
 31
0.0
210
0.0
220
0.0
230
1.0
 73
     3
  0
TEXT
  8
-10
  6
CONTINUOUS
 62
   134
  5
2E8
 10
968628.568
 20
7258334.721
 30
0.0
 40
13.999
  1
9
 50
358.118569
  7
ROMANS
 11
968629.027605
 21
7258348.712453
 31
0.0
210
0.0
220
0.0
230
1.0
 73
     3
  0
TEXT
  8
-10
  6
CONTINUOUS
 62
   134
  5
2E9
 10
968688.149
 20
7258333.502
 30
0.0
 40
13.999
  1
8
 50
358.118569
  7
ROMANS
 11
968688.608605
 21
7258347.493453
 31
0.0
210
0.0
220
0.0
230
1.0
 73
     3
  0
TEXT
  8
-10
  6
CONTINUOUS
 62
   134
  5
2EA
 10
968749.47
 20
7258332.247
 30
0.0
 40
13.999
  1
7
 50
358.118569
  7
ROMANS
 11
968749.929605
 21
7258346.238453
 31
0.0
210
0.0
220
0.0
230
1.0
 73
     3
  0
TEXT
  8
-10
  6
CONTINUOUS
 62
   134
  5
2EB
 10
968809.618
 20
7258331.017
 30
0.0
 40
13.999
  1
6
 50
358.118569
  7
ROMANS
 11
968810.077605
 21
7258345.008453
 31
0.0
210
0.0
220
0.0
230
1.0
 73
     3
  0
TEXT
  8
-10
  6
CONTINUOUS
 62
   134
  5
2EC
 10
968870.046
 20
7258329.781
 30
0.0
 40
13.999
  1
5
 50
358.118569
  7
ROMANS
 11
968870.505605
 21
7258343.772453
 31
0.0
210
0.0
220
0.0
230
1.0
 73
     3
  0
TEXT
  8
-10
  6
CONTINUOUS
 62
   134
  5
2ED
 10
968935.956
 20
7258328.435
 30
0.0
 40
13.999
  1
4
 50
358.118569
  7
ROMANS
 11
968936.415605
 21
7258342.426453
 31
0.0
210
0.0
220
0.0
230
1.0
 73
     3
  0
TEXT
  8
-10
  6
CONTINUOUS
 62
   134
  5
2EE
 10
969059.052
 20
7258641.792
 30
0.0
 40
13.999
  1
140
 50
358.118569
  7
ROMANS
 11
969059.511605
 21
7258655.783453
 31
0.0
210
0.0
220
0.0
230
1.0
 73
     3
  0
TEXT
  8
-10
  6
CONTINUOUS
 62
   134
  5
2EF
 10
969059.592
 20
7258463.092
 30
0.0
 40
13.999
  1
141
 50
358.118569
  7
ROMANS
 11
969060.051605
 21
7258477.083453
 31
0.0
210
0.0
220
0.0
230
1.0
 73
     3
  0
TEXT
  8
-10
  6
CONTINUOUS
 62
   134
  5
2F0
 10
969055.081
 20
7258325.794
 30
0.0
 40
13.999
  1
160
 50
358.118569
  7
ROMANS
 11
969055.540605
 21
7258339.785453
 31
0.0
210
0.0
220
0.0
230
1.0
 73
     3
  0
TEXT
  8
-10
  6
CONTINUOUS
 62
   134
  5
2F1
 10
968367.782
 20
7258161.184
 30
0.0
 40
13.999
  1
14
 50
358.118569
  7
ROMANS
 11
968368.241605
 21
7258175.175453
 31
0.0
210
0.0
220
0.0
230
1.0
 73
     3
  0
TEXT
  8
-10
  6
CONTINUOUS
 62
   134
  5
2F2
 10
968436.906
 20
7258159.77
 30
0.0
 40
13.999
  1
15
 50
358.118569
  7
ROMANS
 11
968437.365605
 21
7258173.761453
 31
0.0
210
0.0
220
0.0
230
1.0
 73
     3
  0
TEXT
  8
-10
  6
CONTINUOUS
 62
   134
  5
2F3
 10
968498.989
 20
7258158.5
 30
0.0
 40
13.999
  1
16
 50
358.118569
  7
ROMANS
 11
968499.448605
 21
7258172.491453
 31
0.0
210
0.0
220
0.0
230
1.0
 73
     3
  0
TEXT
  8
-10
  6
CONTINUOUS
 62
   134
  5
2F4
 10
968560.952
 20
7258157.234
 30
0.0
 40
13.999
  1
17
 50
358.118569
  7
ROMANS
 11
968561.411605
 21
7258171.225453
 31
0.0
210
0.0
220
0.0
230
1.0
 73
     3
  0
TEXT
  8
-10
  6
CONTINUOUS
 62
   134
  5
2F5
 10
968618.261
 20
7258156.061
 30
0.0
 40
13.999
  1
18
 50
358.118569
  7
ROMANS
 11
968618.720605
 21
7258170.052453
 31
0.0
210
0.0
220
0.0
230
1.0
 73
     3
  0
TEXT
  8
-10
  6
CONTINUOUS
 62
   134
  5
2F6
 10
968680.344
 20
7258154.791
 30
0.0
 40
13.999
  1
19
 50
358.118569
  7
ROMANS
 11
968680.803605
 21
7258168.782453
 31
0.0
210
0.0
220
0.0
230
1.0
 73
     3
  0
TEXT
  8
-10
  6
CONTINUOUS
 62
   134
  5
2F7
 10
968740.158
 20
7258153.569
 30
0.0
 40
13.999
  1
20
 50
358.118569
  7
ROMANS
 11
968740.617605
 21
7258167.560453
 31
0.0
210
0.0
220
0.0
230
1.0
 73
     3
  0
TEXT
  8
-10
  6
CONTINUOUS
 62
   134
  5
2F8
 10
968804.688
 20
7258152.249
 30
0.0
 40
13.999
  1
21
 50
358.118569
  7
ROMANS
 11
968805.147605
 21
7258166.240453
 31
0.0
210
0.0
220
0.0
230
1.0
 73
     3
  0
TEXT
  8
-10
  6
CONTINUOUS
 62
   134
  5
2F9
 10
968861.937
 20
7258151.079
 30
0.0
 40
13.999
  1
22
 50
358.118569
  7
ROMANS
 11
968862.396605
 21
7258165.070453
 31
0.0
210
0.0
220
0.0
230
1.0
 73
     3
  0
TEXT
  8
-10
  6
CONTINUOUS
 62
   134
  5
2FA
 10
968930.971
 20
7258149.667
 30
0.0
 40
13.999
  1
23
 50
358.118569
  7
ROMANS
 11
968931.430605
 21
7258163.658453
 31
0.0
210
0.0
220
0.0
230
1.0
 73
     3
  0
TEXT
  8
-10
  6
CONTINUOUS
 62
   134
  5
2FB
 10
968370.469
 20
7258024.848
 30
0.0
 40
13.999
  1
33
 50
358.118569
  7
ROMANS
 11
968370.928605
 21
7258038.839453
 31
0.0
210
0.0
220
0.0
230
1.0
 73
     3
  0
TEXT
  8
-10
  6
CONTINUOUS
 62
   134
  5
2FC
 10
968437.504
 20
7258023.476
 30
0.0
 40
13.999
  1
32
 50
358.118569
  7
ROMANS
 11
968437.963605
 21
7258037.467453
 31
0.0
210
0.0
220
0.0
230
1.0
 73
     3
  0
TEXT
  8
-10
  6
CONTINUOUS
 62
   134
  5
2FD
 10
968494.337
 20
7258022.313
 30
0.0
 40
13.999
  1
31
 50
358.118569
  7
ROMANS
 11
968494.796605
 21
7258036.304453
 31
0.0
210
0.0
220
0.0
230
1.0
 73
     3
  0
TEXT
  8
-10
  6
CONTINUOUS
 62
   134
  5
2FE
 10
968556.45
 20
7258021.044
 30
0.0
 40
13.999
  1
30
 50
358.118569
  7
ROMANS
 11
968556.909605
 21
7258035.035453
 31
0.0
210
0.0
220
0.0
230
1.0
 73
     3
  0
TEXT
  8
-10
  6
CONTINUOUS
 62
   134
  5
2FF
 10
968616.323
 20
7258019.82
 30
0.0
 40
13.999
  1
29
 50
358.118569
  7
ROMANS
 11
968616.782605
 21
7258033.811453
 31
0.0
210
0.0
220
0.0
230
1.0
 73
     3
  0
TEXT
  8
-10
  6
CONTINUOUS
 62
   134
  5
300
 10
968675.93
 20
7258018.601
 30
0.0
 40
13.999
  1
28
 50
358.118569
  7
ROMANS
 11
968676.389605
 21
7258032.592453
 31
0.0
210
0.0
220
0.0
230
1.0
 73
     3
  0
TEXT
  8
-10
  6
CONTINUOUS
 62
   134
  5
301
 10
968737.983
 20
7258017.331
 30
0.0
 40
13.999
  1
27
 50
358.118569
  7
ROMANS
 11
968738.442605
 21
7258031.322453
 31
0.0
210
0.0
220
0.0
230
1.0
 73
     3
  0
TEXT
  8
-10
  6
CONTINUOUS
 62
   134
  5
302
 10
968797.651
 20
7258016.112
 30
0.0
 40
13.999
  1
26
 50
358.118569
  7
ROMANS
 11
968798.110605
 21
7258030.103453
 31
0.0
210
0.0
220
0.0
230
1.0
 73
     3
  0
TEXT
  8
-10
  6
CONTINUOUS
 62
   134
  5
303
 10
968854.663
 20
7258014.948
 30
0.0
 40
13.999
  1
25
 50
358.118569
  7
ROMANS
 11
968855.122605
 21
7258028.939453
 31
0.0
210
0.0
220
0.0
230
1.0
 73
     3
  0
TEXT
  8
-10
  6
CONTINUOUS
 62
   134
  5
304
 10
968923.934
 20
7258013.531
 30
0.0
 40
13.999
  1
24
 50
358.118569
  7
ROMANS
 11
968924.393605
 21
7258027.522453
 31
0.0
210
0.0
220
0.0
230
1.0
 73
     3
  0
TEXT
  8
-10
  6
CONTINUOUS
 62
   134
  5
305
 10
968365.336
 20
7257842.726
 30
0.0
 40
13.999
  1
34
 50
359.118569
  7
ROMANS
 11
968365.55135
 21
7257856.723344
 31
0.0
210
0.0
220
0.0
230
1.0
 73
     3
  0
TEXT
  8
-10
  6
CONTINUOUS
 62
   134
  5
306
 10
968433.776
 20
7257841.327
 30
0.0
 40
13.999
  1
35
 50
359.118569
  7
ROMANS
 11
968433.99135
 21
7257855.324344
 31
0.0
210
0.0
220
0.0
230
1.0
 73
     3
  0
TEXT
  8
-10
  6
CONTINUOUS
 62
   134
  5
307
 10
968490.646
 20
7257840.165
 30
0.0
 40
13.999
  1
36
 50
359.118569
  7
ROMANS
 11
968490.86135
 21
7257854.162344
 31
0.0
210
0.0
220
0.0
230
1.0
 73
     3
  0
TEXT
  8
-10
  6
CONTINUOUS
 62
   134
  5
308
 10
968554.586
 20
7257838.855
 30
0.0
 40
13.999
  1
37
 50
359.118569
  7
ROMANS
 11
968554.80135
 21
7257852.852344
 31
0.0
210
0.0
220
0.0
230
1.0
 73
     3
  0
TEXT
  8
-10
  6
CONTINUOUS
 62
   134
  5
309
 10
968613.794
 20
7257837.645
 30
0.0
 40
13.999
  1
38
 50
359.118569
  7
ROMANS
 11
968614.00935
 21
7257851.642344
 31
0.0
210
0.0
220
0.0
230
1.0
 73
     3
  0
TEXT
  8
-10
  6
CONTINUOUS
 62
   134
  5
30A
 10
968672.971
 20
7257836.435
 30
0.0
 40
13.999
  1
39
 50
359.118569
  7
ROMANS
 11
968673.18635
 21
7257850.432344
 31
0.0
210
0.0
220
0.0
230
1.0
 73
     3
  0
TEXT
  8
-10
  6
CONTINUOUS
 62
   134
  5
30B
 10
968732.148
 20
7257835.224
 30
0.0
 40
13.999
  1
40
 50
359.118569
  7
ROMANS
 11
968732.36335
 21
7257849.221344
 31
0.0
210
0.0
220
0.0
230
1.0
 73
     3
  0
TEXT
  8
-10
  6
CONTINUOUS
 62
   134
  5
30C
 10
968791.236
 20
7257834.017
 30
0.0
 40
13.999
  1
41
 50
359.118569
  7
ROMANS
 11
968791.45135
 21
7257848.014344
 31
0.0
210
0.0
220
0.0
230
1.0
 73
     3
  0
TEXT
  8
-10
  6
CONTINUOUS
 62
   134
  5
30D
 10
968855.147
 20
7257832.708
 30
0.0
 40
13.999
  1
42
 50
359.118569
  7
ROMANS
 11
968855.36235
 21
7257846.705344
 31
0.0
210
0.0
220
0.0
230
1.0
 73
     3
  0
TEXT
  8
-10
  6
CONTINUOUS
 62
   134
  5
30E
 10
968919.118
 20
7257831.4
 30
0.0
 40
13.999
  1
43
 50
359.118569
  7
ROMANS
 11
968919.33335
 21
7257845.397344
 31
0.0
210
0.0
220
0.0
230
1.0
 73
     3
  0
TEXT
  8
-10
  6
CONTINUOUS
 62
   134
  5
30F
 10
968916.363
 20
7257696.712
 30
0.0
 40
13.999
  1
44
 50
359.118569
  7
ROMANS
 11
968916.57835
 21
7257710.709344
 31
0.0
210
0.0
220
0.0
230
1.0
 73
     3
  0
TEXT
  8
-10
  6
CONTINUOUS
 62
   134
  5
310
 10
968851.073
 20
7257698.048
 30
0.0
 40
13.999
  1
45
 50
359.118569
  7
ROMANS
 11
968851.28835
 21
7257712.045344
 31
0.0
210
0.0
220
0.0
230
1.0
 73
     3
  0
TEXT
  8
-10
  6
CONTINUOUS
 62
   134
  5
311
 10
968789.616
 20
7257699.304
 30
0.0
 40
13.999
  1
46
 50
359.118569
  7
ROMANS
 11
968789.83135
 21
7257713.301344
 31
0.0
210
0.0
220
0.0
230
1.0
 73
     3
  0
TEXT
  8
-10
  6
CONTINUOUS
 62
   134
  5
312
 10
968730.206
 20
7257700.519
 30
0.0
 40
13.999
  1
47
 50
359.118569
  7
ROMANS
 11
968730.42135
 21
7257714.516344
 31
0.0
210
0.0
220
0.0
230
1.0
 73
     3
  0
TEXT
  8
-10
  6
CONTINUOUS
 62
   134
  5
313
 10
968666.263
 20
7257701.827
 30
0.0
 40
13.999
  1
48
 50
359.118569
  7
ROMANS
 11
968666.47835
 21
7257715.824344
 31
0.0
210
0.0
220
0.0
230
1.0
 73
     3
  0
TEXT
  8
-10
  6
CONTINUOUS
 62
   134
  5
314
 10
968609.541
 20
7257702.987
 30
0.0
 40
13.999
  1
49
 50
359.118569
  7
ROMANS
 11
968609.75635
 21
7257716.984344
 31
0.0
210
0.0
220
0.0
230
1.0
 73
     3
  0
TEXT
  8
-10
  6
CONTINUOUS
 62
   134
  5
315
 10
968550.276
 20
7257704.199
 30
0.0
 40
13.999
  1
50
 50
359.118569
  7
ROMANS
 11
968550.49135
 21
7257718.196344
 31
0.0
210
0.0
220
0.0
230
1.0
 73
     3
  0
TEXT
  8
-10
  6
CONTINUOUS
 62
   134
  5
316
 10
968490.981
 20
7257705.411
 30
0.0
 40
13.999
  1
51
 50
359.118569
  7
ROMANS
 11
968491.19635
 21
7257719.408344
 31
0.0
210
0.0
220
0.0
230
1.0
 73
     3
  0
TEXT
  8
-10
  6
CONTINUOUS
 62
   134
  5
317
 10
968429.41
 20
7257706.671
 30
0.0
 40
13.999
  1
52
 50
359.118569
  7
ROMANS
 11
968429.62535
 21
7257720.668344
 31
0.0
210
0.0
220
0.0
230
1.0
 73
     3
  0
TEXT
  8
-10
  6
CONTINUOUS
 62
   134
  5
318
 10
968363.218
 20
7257708.024
 30
0.0
 40
13.999
  1
53
 50
359.118569
  7
ROMANS
 11
968363.43335
 21
7257722.021344
 31
0.0
210
0.0
220
0.0
230
1.0
 73
     3
  0
TEXT
  8
-10
  6
CONTINUOUS
 62
   134
  5
319
 10
968359.583
 20
7257530.153
 30
0.0
 40
13.999
  1
54
 50
359.118569
  7
ROMANS
 11
968359.79835
 21
7257544.150344
 31
0.0
210
0.0
220
0.0
230
1.0
 73
     3
  0
TEXT
  8
-10
  6
CONTINUOUS
 62
   134
  5
31A
 10
968428.51
 20
7257528.742
 30
0.0
 40
13.999
  1
55
 50
359.118569
  7
ROMANS
 11
968428.72535
 21
7257542.739344
 31
0.0
210
0.0
220
0.0
230
1.0
 73
     3
  0
TEXT
  8
-10
  6
CONTINUOUS
 62
   134
  5
31B
 10
968487.687
 20
7257527.532
 30
0.0
 40
13.999
  1
56
 50
359.118569
  7
ROMANS
 11
968487.90235
 21
7257541.529344
 31
0.0
210
0.0
220
0.0
230
1.0
 73
     3
  0
TEXT
  8
-10
  6
CONTINUOUS
 62
   134
  5
31C
 10
968549.143
 20
7257526.276
 30
0.0
 40
13.999
  1
57
 50
359.118569
  7
ROMANS
 11
968549.35835
 21
7257540.273344
 31
0.0
210
0.0
220
0.0
230
1.0
 73
     3
  0
TEXT
  8
-10
  6
CONTINUOUS
 62
   134
  5
31D
 10
968605.836
 20
7257525.116
 30
0.0
 40
13.999
  1
58
 50
359.118569
  7
ROMANS
 11
968606.05135
 21
7257539.113344
 31
0.0
210
0.0
220
0.0
230
1.0
 73
     3
  0
TEXT
  8
-10
  6
CONTINUOUS
 62
   134
  5
31E
 10
968665.071
 20
7257523.906
 30
0.0
 40
13.999
  1
59
 50
359.118569
  7
ROMANS
 11
968665.28635
 21
7257537.903344
 31
0.0
210
0.0
220
0.0
230
1.0
 73
     3
  0
TEXT
  8
-10
  6
CONTINUOUS
 62
   134
  5
31F
 10
968724.218
 20
7257522.696
 30
0.0
 40
13.999
  1
60
 50
359.118569
  7
ROMANS
 11
968724.43335
 21
7257536.693344
 31
0.0
210
0.0
220
0.0
230
1.0
 73
     3
  0
TEXT
  8
-10
  6
CONTINUOUS
 62
   134
  5
320
 10
968788.101
 20
7257521.39
 30
0.0
 40
13.999
  1
61
 50
359.118569
  7
ROMANS
 11
968788.31635
 21
7257535.387344
 31
0.0
210
0.0
220
0.0
230
1.0
 73
     3
  0
TEXT
  8
-10
  6
CONTINUOUS
 62
   134
  5
321
 10
968847.366
 20
7257520.18
 30
0.0
 40
13.999
  1
62
 50
359.118569
  7
ROMANS
 11
968847.58135
 21
7257534.177344
 31
0.0
210
0.0
220
0.0
230
1.0
 73
     3
  0
TEXT
  8
-10
  6
CONTINUOUS
 62
   134
  5
322
 10
968913.585
 20
7257518.826
 30
0.0
 40
13.999
  1
63
 50
359.118569
  7
ROMANS
 11
968913.80035
 21
7257532.823344
 31
0.0
210
0.0
220
0.0
230
1.0
 73
     3
  0
TEXT
  8
-10
  6
CONTINUOUS
 62
   134
  5
323
 10
968910.821
 20
7257383.665
 30
0.0
 40
13.999
  1
64
 50
359.118569
  7
ROMANS
 11
968911.03635
 21
7257397.662344
 31
0.0
210
0.0
220
0.0
230
1.0
 73
     3
  0
TEXT
  8
-10
  6
CONTINUOUS
 62
   134
  5
324
 10
968840.649
 20
7257385.101
 30
0.0
 40
13.999
  1
65
 50
359.118569
  7
ROMANS
 11
968840.86435
 21
7257399.098344
 31
0.0
210
0.0
220
0.0
230
1.0
 73
     3
  0
TEXT
  8
-10
  6
CONTINUOUS
 62
   134
  5
325
 10
968783.663
 20
7257386.266
 30
0.0
 40
13.999
  1
66
 50
359.118569
  7
ROMANS
 11
968783.87835
 21
7257400.263344
 31
0.0
210
0.0
220
0.0
230
1.0
 73
     3
  0
TEXT
  8
-10
  6
CONTINUOUS
 62
   134
  5
326
 10
968724.488
 20
7257387.476
 30
0.0
 40
13.999
  1
67
 50
359.118569
  7
ROMANS
 11
968724.70335
 21
7257401.473344
 31
0.0
210
0.0
220
0.0
230
1.0
 73
     3
  0
TEXT
  8
-10
  6
CONTINUOUS
 62
   134
  5
327
 10
968662.973
 20
7257388.735
 30
0.0
 40
13.999
  1
68
 50
359.118569
  7
ROMANS
 11
968663.18835
 21
7257402.732344
 31
0.0
210
0.0
220
0.0
230
1.0
 73
     3
  0
TEXT
  8
-10
  6
CONTINUOUS
 62
   134
  5
328
 10
968539.911
 20
7257391.251
 30
0.0
 40
13.999
  1
70
 50
359.118569
  7
ROMANS
 11
968540.12635
 21
7257405.248344
 31
0.0
210
0.0
220
0.0
230
1.0
 73
     3
  0
TEXT
  8
-10
  6
CONTINUOUS
 62
   134
  5
329
 10
968601.486
 20
7257389.993
 30
0.0
 40
13.999
  1
69
 50
359.118569
  7
ROMANS
 11
968601.70135
 21
7257403.990344
 31
0.0
210
0.0
220
0.0
230
1.0
 73
     3
  0
TEXT
  8
-10
  6
CONTINUOUS
 62
   134
  5
32A
 10
968483.073
 20
7257392.413
 30
0.0
 40
13.999
  1
71
 50
359.118569
  7
ROMANS
 11
968483.28835
 21
7257406.410344
 31
0.0
210
0.0
220
0.0
230
1.0
 73
     3
  0
TEXT
  8
-10
  6
CONTINUOUS
 62
   134
  5
32B
 10
968423.779
 20
7257393.626
 30
0.0
 40
13.999
  1
72
 50
359.118569
  7
ROMANS
 11
968423.99435
 21
7257407.623344
 31
0.0
210
0.0
220
0.0
230
1.0
 73
     3
  0
TEXT
  8
-10
  6
CONTINUOUS
 62
   134
  5
32C
 10
968357.56
 20
7257394.98
 30
0.0
 40
13.999
  1
73
 50
359.118569
  7
ROMANS
 11
968357.77535
 21
7257408.977344
 31
0.0
210
0.0
220
0.0
230
1.0
 73
     3
  0
TEXT
  8
-10
  6
CONTINUOUS
 62
   134
  5
32D
 10
969041.88
 20
7257379.547
 30
0.0
 40
13.999
  1
74
 50
359.118569
  7
ROMANS
 11
969042.09535
 21
7257393.544344
 31
0.0
210
0.0
220
0.0
230
1.0
 73
     3
  0
TEXT
  8
-10
  6
CONTINUOUS
 62
   134
  5
32E
 10
969044.594
 20
7257512.228
 30
0.0
 40
13.999
  1
93
 50
359.118569
  7
ROMANS
 11
969044.80935
 21
7257526.225344
 31
0.0
210
0.0
220
0.0
230
1.0
 73
     3
  0
TEXT
  8
-10
  6
CONTINUOUS
 62
   134
  5
32F
 10
969042.684
 20
7257692.456
 30
0.0
 40
13.999
  1
200
 50
359.118569
  7
ROMANS
 11
969042.89935
 21
7257706.453344
 31
0.0
210
0.0
220
0.0
230
1.0
 73
     3
  0
TEXT
  8
-10
  6
CONTINUOUS
 62
   134
  5
330
 10
969045.541
 20
7257832.185
 30
0.0
 40
13.999
  1
181
 50
359.118569
  7
ROMANS
 11
969045.75635
 21
7257846.182344
 31
0.0
210
0.0
220
0.0
230
1.0
 73
     3
  0
TEXT
  8
-10
  6
CONTINUOUS
 62
   134
  5
331
 10
969043.641
 20
7258010.102
 30
0.0
 40
13.999
  1
180
 50
359.118569
  7
ROMANS
 11
969043.85635
 21
7258024.099344
 31
0.0
210
0.0
220
0.0
230
1.0
 73
     3
  0
TEXT
  8
-10
  6
CONTINUOUS
 62
   134
  5
332
 10
969048.154
 20
7258147.456
 30
0.0
 40
13.999
  1
161
 50
359.118569
  7
ROMANS
 11
969048.36935
 21
7258161.453344
 31
0.0
210
0.0
220
0.0
230
1.0
 73
     3
  0
TEXT
  8
-10
  6
CONTINUOUS
 62
   134
  5
333
 10
968047.623
 20
7258483.776
 30
0.0
 40
13.999
  1
257
 50
359.118569
  7
ROMANS
 11
968047.83835
 21
7258497.773344
 31
0.0
210
0.0
220
0.0
230
1.0
 73
     3
  0
TEXT
  8
-10
  6
CONTINUOUS
 62
   134
  5
334
 10
968046.114
 20
7258409.992
 30
0.0
 40
13.999
  1
258
 50
359.118569
  7
ROMANS
 11
968046.32935
 21
7258423.989344
 31
0.0
210
0.0
220
0.0
230
1.0
 73
     3
  0
TEXT
  8
-10
  6
CONTINUOUS
 62
   134
  5
335
 10
968045.004
 20
7258355.716
 30
0.0
 40
13.999
  1
259
 50
359.118569
  7
ROMANS
 11
968045.21935
 21
7258369.713344
 31
0.0
210
0.0
220
0.0
230
1.0
 73
     3
  0
TEXT
  8
-10
  6
CONTINUOUS
 62
   134
  5
336
 10
968043.842
 20
7258298.894
 30
0.0
 40
13.999
  1
260
 50
359.118569
  7
ROMANS
 11
968044.05735
 21
7258312.891344
 31
0.0
210
0.0
220
0.0
230
1.0
 73
     3
  0
TEXT
  8
-10
  6
CONTINUOUS
 62
   134
  5
337
 10
968042.729
 20
7258244.499
 30
0.0
 40
13.999
  1
261
 50
359.118569
  7
ROMANS
 11
968042.94435
 21
7258258.496344
 31
0.0
210
0.0
220
0.0
230
1.0
 73
     3
  0
TEXT
  8
-10
  6
CONTINUOUS
 62
   134
  5
338
 10
968186.437
 20
7258241.561
 30
0.0
 40
13.999
  1
283
 50
359.118569
  7
ROMANS
 11
968186.65235
 21
7258255.558344
 31
0.0
210
0.0
220
0.0
230
1.0
 73
     3
  0
TEXT
  8
-10
  6
CONTINUOUS
 62
   134
  5
339
 10
968187.611
 20
7258298.961
 30
0.0
 40
13.999
  1
284
 50
359.118569
  7
ROMANS
 11
968187.82635
 21
7258312.958344
 31
0.0
210
0.0
220
0.0
230
1.0
 73
     3
  0
TEXT
  8
-10
  6
CONTINUOUS
 62
   134
  5
33A
 10
968188.675
 20
7258350.986
 30
0.0
 40
13.999
  1
285
 50
359.118569
  7
ROMANS
 11
968188.89035
 21
7258364.983344
 31
0.0
210
0.0
220
0.0
230
1.0
 73
     3
  0
TEXT
  8
-10
  6
CONTINUOUS
 62
   134
  5
33B
 10
968189.791
 20
7258405.557
 30
0.0
 40
13.999
  1
286
 50
359.118569
  7
ROMANS
 11
968190.00635
 21
7258419.554344
 31
0.0
210
0.0
220
0.0
230
1.0
 73
     3
  0
TEXT
  8
-10
  6
CONTINUOUS
 62
   134
  5
33C
 10
968191.387
 20
7258483.578
 30
0.0
 40
13.999
  1
287
 50
359.118569
  7
ROMANS
 11
968191.60235
 21
7258497.575344
 31
0.0
210
0.0
220
0.0
230
1.0
 73
     3
  0
TEXT
  8
-10
  6
CONTINUOUS
 62
   134
  5
33D
 10
968037.125
 20
7258669.036
 30
0.0
 40
13.999
  1
288
 50
359.118569
  7
ROMANS
 11
968037.34035
 21
7258683.033344
 31
0.0
210
0.0
220
0.0
230
1.0
 73
     3
  0
TEXT
  8
-10
  6
CONTINUOUS
 62
   134
  5
33E
 10
968131.72
 20
7258667.102
 30
0.0
 40
13.999
  1
289
 50
359.118569
  7
ROMANS
 11
968131.93535
 21
7258681.099344
 31
0.0
210
0.0
220
0.0
230
1.0
 73
     3
  0
TEXT
  8
-10
  6
CONTINUOUS
 62
   134
  5
33F
 10
968223.593
 20
7258638.045
 30
0.0
 40
13.999
  1
290
 50
359.118569
  7
ROMANS
 11
968223.80835
 21
7258652.042344
 31
0.0
210
0.0
220
0.0
230
1.0
 73
     3
  0
TEXT
  8
-10
  6
CONTINUOUS
 62
   134
  5
340
 10
968227.006
 20
7258692.018
 30
0.0
 40
13.999
  1
291
 50
359.118569
  7
ROMANS
 11
968227.22135
 21
7258706.015344
 31
0.0
210
0.0
220
0.0
230
1.0
 73
     3
  0
TEXT
  8
-10
  6
CONTINUOUS
 62
   134
  5
341
 10
968377.207
 20
7258796.876
 30
0.0
 40
13.999
  1
120
 50
359.118569
  7
ROMANS
 11
968377.42235
 21
7258810.873344
 31
0.0
210
0.0
220
0.0
230
1.0
 73
     3
  0
TEXT
  8
-10
  6
CONTINUOUS
 62
   134
  5
342
 10
968444.592
 20
7258795.498
 30
0.0
 40
13.999
  1
119
 50
359.118569
  7
ROMANS
 11
968444.80735
 21
7258809.495344
 31
0.0
210
0.0
220
0.0
230
1.0
 73
     3
  0
TEXT
  8
-10
  6
CONTINUOUS
 62
   134
  5
343
 10
968503.833
 20
7258794.286
 30
0.0
 40
13.999
  1
118
 50
359.118569
  7
ROMANS
 11
968504.04835
 21
7258808.283344
 31
0.0
210
0.0
220
0.0
230
1.0
 73
     3
  0
TEXT
  8
-10
  6
CONTINUOUS
 62
   134
  5
344
 10
968564.332
 20
7258793.05
 30
0.0
 40
13.999
  1
117
 50
359.118569
  7
ROMANS
 11
968564.54735
 21
7258807.047344
 31
0.0
210
0.0
220
0.0
230
1.0
 73
     3
  0
TEXT
  8
-10
  6
CONTINUOUS
 62
   134
  5
345
 10
968624.714
 20
7258791.815
 30
0.0
 40
13.999
  1
116
 50
359.118569
  7
ROMANS
 11
968624.92935
 21
7258805.812344
 31
0.0
210
0.0
220
0.0
230
1.0
 73
     3
  0
TEXT
  8
-10
  6
CONTINUOUS
 62
   134
  5
346
 10
968685.11
 20
7258790.579
 30
0.0
 40
13.999
  1
115
 50
359.118569
  7
ROMANS
 11
968685.32535
 21
7258804.576344
 31
0.0
210
0.0
220
0.0
230
1.0
 73
     3
  0
TEXT
  8
-10
  6
CONTINUOUS
 62
   134
  5
347
 10
968744.25
 20
7258789.371
 30
0.0
 40
13.999
  1
114
 50
359.118569
  7
ROMANS
 11
968744.46535
 21
7258803.368344
 31
0.0
210
0.0
220
0.0
230
1.0
 73
     3
  0
TEXT
  8
-10
  6
CONTINUOUS
 62
   134
  5
348
 10
968804.542
 20
7258788.138
 30
0.0
 40
13.999
  1
113
 50
359.118569
  7
ROMANS
 11
968804.75735
 21
7258802.135344
 31
0.0
210
0.0
220
0.0
230
1.0
 73
     3
  0
TEXT
  8
-10
  6
CONTINUOUS
 62
   134
  5
349
 10
968864.998
 20
7258786.9
 30
0.0
 40
13.999
  1
112
 50
359.118569
  7
ROMANS
 11
968865.21335
 21
7258800.897344
 31
0.0
210
0.0
220
0.0
230
1.0
 73
     3
  0
TEXT
  8
-10
  6
CONTINUOUS
 62
   134
  5
34A
 10
968932.427
 20
7258785.522
 30
0.0
 40
13.999
  1
111
 50
359.118569
  7
ROMANS
 11
968932.64235
 21
7258799.519344
 31
0.0
210
0.0
220
0.0
230
1.0
 73
     3
  0
TEXT
  8
-10
  6
CONTINUOUS
 62
   134
  5
34B
 10
969065.178
 20
7258782.808
 30
0.0
 40
13.999
  1
121
 50
359.118569
  7
ROMANS
 11
969065.39335
 21
7258796.805344
 31
0.0
210
0.0
220
0.0
230
1.0
 73
     3
  0
TEXT
  8
-10
  6
CONTINUOUS
 62
   134
  5
34C
 10
968049.02
 20
7258800.54
 30
0.0
 40
13.999
  1
295
 50
359.118569
  7
ROMANS
 11
968049.23535
 21
7258814.537344
 31
0.0
210
0.0
220
0.0
230
1.0
 73
     3
  0
TEXT
  8
-10
  6
CONTINUOUS
 62
   134
  5
34D
 10
968105.717
 20
7258799.381
 30
0.0
 40
13.999
  1
294
 50
359.118569
  7
ROMANS
 11
968105.93235
 21
7258813.378344
 31
0.0
210
0.0
220
0.0
230
1.0
 73
     3
  0
TEXT
  8
-10
  6
CONTINUOUS
 62
   134
  5
34E
 10
968172.022
 20
7258798.025
 30
0.0
 40
13.999
  1
293
 50
359.118569
  7
ROMANS
 11
968172.23735
 21
7258812.022344
 31
0.0
210
0.0
220
0.0
230
1.0
 73
     3
  0
TEXT
  8
-10
  6
CONTINUOUS
 62
   134
  5
34F
 10
968235.985
 20
7258796.717
 30
0.0
 40
13.999
  1
292
 50
359.118569
  7
ROMANS
 11
968236.20035
 21
7258810.714344
 31
0.0
210
0.0
220
0.0
230
1.0
 73
     3
  0
TEXT
  8
-10
  6
CONTINUOUS
 62
   134
  5
350
 10
965945.922
 20
7257005.754
 30
0.0
 40
13.999
  1
1
 50
358.9089
  7
ROMANS
 11
965946.188571
 21
7257019.750462
 31
0.0
210
0.0
220
0.0
230
1.0
 73
     3
  0
TEXT
  8
-10
  6
CONTINUOUS
 62
   134
  5
351
 10
967478.702
 20
7260670.616
 30
0.0
 40
13.999
  1
UNSUBDIVIDED
 50
358.9089
  7
ROMANS
 11
967478.968571
 21
7260684.612462
 31
0.0
210
0.0
220
0.0
230
1.0
 73
     3
  0
TEXT
  8
-10
  6
CONTINUOUS
 62
   134
  5
352
 10
968573.398
 20
7260623.794
 30
0.0
 40
13.999
  1
UNSUBDIVIDED
 50
358.9089
  7
ROMANS
 11
968573.664571
 21
7260637.790462
 31
0.0
210
0.0
220
0.0
230
1.0
 73
     3
  0
TEXT
  8
-10
  6
CONTINUOUS
 62
   134
  5
353
 10
967216.882
 20
7258372.321
 30
0.0
 40
13.999
  1
UNSUBDIVIDED
 50
358.9089
  7
ROMANS
 11
967217.148571
 21
7258386.317462
 31
0.0
210
0.0
220
0.0
230
1.0
 73
     3
  0
TEXT
  8
-10
  6
CONTINUOUS
 62
   134
  5
354
 10
966371.374
 20
7257479.859
 30
0.0
 40
13.999
  1
UNSUBDIVIDED
 50
358.9089
  7
ROMANS
 11
966371.640571
 21
7257493.855462
 31
0.0
210
0.0
220
0.0
230
1.0
 73
     3
  0
TEXT
  8
-10
  6
CONTINUOUS
 62
   134
  5
355
 10
967898.032
 20
7256969.778
 30
0.0
 40
13.999
  1
UNSUBDIVIDED
 50
358.9089
  7
ROMANS
 11
967898.298571
 21
7256983.774462
 31
0.0
210
0.0
220
0.0
230
1.0
 73
     3
  0
TEXT
  8
-10
  6
CONTINUOUS
 62
   134
  5
356
 10
964113.734
 20
7258830.043
 30
0.0
 40
13.999
  1
UNSUBDIVIDED
 50
358.9089
  7
ROMANS
 11
964114.000571
 21
7258844.039462
 31
0.0
210
0.0
220
0.0
230
1.0
 73
     3
  0
TEXT
  8
-10
  6
CONTINUOUS
 62
   134
  5
357
 10
964226.542
 20
7257506.876
 30
0.0
 40
13.999
  1
UNSUBDIVIDED
 50
358.9089
  7
ROMANS
 11
964226.808571
 21
7257520.872462
 31
0.0
210
0.0
220
0.0
230
1.0
 73
     3
  0
TEXT
  8
-10
  6
CONTINUOUS
 62
   134
  5
358
 10
965849.495
 20
7257149.576
 30
0.0
 40
13.999
  1
UNSUBDIVIDED
 50
358.9089
  7
ROMANS
 11
965849.761571
 21
7257163.572462
 31
0.0
210
0.0
220
0.0
230
1.0
 73
     3
  0
TEXT
  8
-15
  6
CONTINUOUS
 62
    30
  5
35A
 10
964857.921
 20
7261035.453
 30
0.0
 40
50.0
  1
FARMERS
 50
27.9089
  7
ROMANC
 72
     4
 11
965014.424971
 21
7261146.639085
 31
0.0
210
0.0
220
0.0
230
1.0
  0
TEXT
  8
-15
  6
CONTINUOUS
 62
    30
  5
35B
 10
965269.153
 20
7260748.625
 30
0.0
 40
50.0
  1
COOP
 50
27.9089
  7
ROMANC
 72
     4
 11
965346.162605
 21
7260817.705174
 31
0.0
210
0.0
220
0.0
230
1.0
  0
TEXT
  8
-10
  6
CONTINUOUS
 62
   134
  5
35C
 10
965304.526
 20
7261025.009
 30
0.0
 40
24.0
  1
2
 50
357.9089
  7
ROMANC
210
0.0
220
0.0
230
1.0
  0
TEXT
  8
-11
  6
CONTINUOUS
 62
     7
  5
35E
 10
964199.944
 20
7259575.921
 30
0.0
 40
8.0
  1
100'
 50
37.683972
  7
ROMANS
210
0.0
220
0.0
230
1.0
  0
TEXT
  8
-11
  6
CONTINUOUS
 62
     7
  5
35F
 10
964275.805
 20
7259634.52
 30
0.0
 40
8.0
  1
100'
 50
37.683972
  7
ROMANS
210
0.0
220
0.0
230
1.0
  0
TEXT
  8
-11
  6
CONTINUOUS
 62
     7
  5
360
 10
965302.765
 20
7259960.233
 30
0.0
 40
8.0
  1
2547.4'
 50
357.9089
  7
ROMANS
210
0.0
220
0.0
230
1.0
  0
TEXT
  8
-11
  6
CONTINUOUS
 62
     7
  5
361
 10
965345.059
 20
7259928.588
 30
0.0
 40
8.0
  1
2994.7'
 50
357.9089
  7
ROMANS
210
0.0
220
0.0
230
1.0
  0
TEXT
  8
-19
  6
CONTINUOUS
 62
     1
  5
363
 10
964983.78
 20
7258550.244
 30
0.0
 40
24.0
  1
SPUR 331
 50
307.683961
  7
ROMANC
 72
     4
 11
965052.652231
 21
7258480.712292
 31
0.0
210
0.0
220
0.0
230
1.0
  0
TEXT
  8
-19
  6
CONTINUOUS
 62
     1
  5
364
 10
963919.575
 20
7259919.535
 30
0.0
 40
24.0
  1
SOUTHEAST DRIVE
 50
307.683886
  7
ROMANC
 72
     4
 11
964045.51058
 21
7259776.128807
 31
0.0
210
0.0
220
0.0
230
1.0
  0
TEXT
  8
-10
  6
CONTINUOUS
 62
   134
  5
365
 10
965528.915
 20
7259345.438
 30
0.0
 40
24.0
  1
2
 50
357.9089
  7
ROMANC
210
0.0
220
0.0
230
1.0
  0
TEXT
  8
-15
  6
CONTINUOUS
 62
    30
  5
366
 10
965127.078
 20
7259354.124
 30
0.0
 40
50.0
  1
FARMERS
 50
27.9089
  7
ROMANC
 72
     4
 11
965283.581971
 21
7259465.310085
 31
0.0
210
0.0
220
0.0
230
1.0
  0
TEXT
  8
-15
  6
CONTINUOUS
 62
    30
  5
367
 10
965478.923
 20
7259120.618
 30
0.0
 40
50.0
  1
COOP
 50
27.9089
  7
ROMANC
 72
     4
 11
965555.932605
 21
7259189.698174
 31
0.0
210
0.0
220
0.0
230
1.0
  0
TEXT
  8
-10
  6
CONTINUOUS
 62
   134
  5
368
 10
965599.852
 20
7258455.765
 30
0.0
 40
24.0
  1
5
 50
357.9089
  7
ROMANC
210
0.0
220
0.0
230
1.0
  0
TEXT
  8
-11
  6
CONTINUOUS
 62
     7
  5
369
 10
964823.319
 20
7258694.143
 30
0.0
 40
8.0
  1
S89%%d49'E
 50
307.683967
  7
ROMANS
210
0.0
220
0.0
230
1.0
  0
TEXT
  8
-11
  6
CONTINUOUS
 62
     7
  5
36A
 10
965297.411
 20
7258147.101
 30
0.0
 40
8.0
  1
120'
 50
37.684447
  7
ROMANS
210
0.0
220
0.0
230
1.0
  0
TEXT
  8
-11
  6
CONTINUOUS
 62
     7
  5
36B
 10
965381.304
 20
7258211.905
 30
0.0
 40
8.0
  1
100'
 50
37.684447
  7
ROMANS
210
0.0
220
0.0
230
1.0
  0
TEXT
  8
-11
  6
CONTINUOUS
 62
     7
  5
36C
 10
965172.551
 20
7258262.857
 30
0.0
 40
8.0
  1
N32%%d13'W
 50
300.511431
  7
ROMANS
210
0.0
220
0.0
230
1.0
  0
TEXT
  8
-11
  6
CONTINUOUS
 62
     7
  5
36D
 10
965186.29
 20
7258212.713
 30
0.0
 40
8.0
  1
151.3'
 50
300.511431
  7
ROMANS
210
0.0
220
0.0
230
1.0
  0
TEXT
  8
-11
  6
CONTINUOUS
 62
     7
  5
36E
 10
965237.835
 20
7258122.921
 30
0.0
 40
8.0
  1
35.9'
 50
307.684433
  7
ROMANS
210
0.0
220
0.0
230
1.0
  0
TEXT
  8
-11
  6
CONTINUOUS
 62
     7
  5
36F
 10
965257.986
 20
7257977.781
 30
0.0
 40
8.0
  1
R=215'
 50
357.9089
  7
ROMANS
210
0.0
220
0.0
230
1.0
  0
TEXT
  8
-11
  6
CONTINUOUS
 62
     7
  5
370
 10
965244.289
 20
7257957.884
 30
0.0
 40
8.0
  1
L=284.7'
 50
357.9089
  7
ROMANS
210
0.0
220
0.0
230
1.0
  0
TEXT
  8
-11
  6
CONTINUOUS
 62
     7
  5
371
 10
965171.898
 20
7257748.337
 30
0.0
 40
8.0
  1
N36%%d03'E  169.2'
 50
51.858633
  7
ROMANS
210
0.0
220
0.0
230
1.0
  0
TEXT
  8
-11
  6
CONTINUOUS
 62
     7
  5
372
 10
965102.381
 20
7257659.157
 30
0.0
 40
8.0
  1
141.2'
 50
51.858633
  7
ROMANS
210
0.0
220
0.0
230
1.0
  0
TEXT
  8
-11
  6
CONTINUOUS
 62
     7
  5
373
 10
965039.969
 20
7257571.879
 30
0.0
 40
8.0
  1
73.1'
 50
62.983228
  7
ROMANS
210
0.0
220
0.0
230
1.0
  0
TEXT
  8
-11
  6
CONTINUOUS
 62
     7
  5
374
 10
965054.088
 20
7257563.658
 30
0.0
 40
8.0
  1
R=219'
 50
61.885572
  7
ROMANS
210
0.0
220
0.0
230
1.0
  0
TEXT
  8
-11
  6
CONTINUOUS
 62
     7
  5
375
 10
964922.194
 20
7257270.924
 30
0.0
 40
8.0
  1
450.3'
 50
68.608875
  7
ROMANS
210
0.0
220
0.0
230
1.0
  0
TEXT
  8
-11
  6
CONTINUOUS
 62
     7
  5
376
 10
964910.975
 20
7257207.276
 30
0.0
 40
8.0
  1
N19%%d18'E
 50
68.608875
  7
ROMANS
210
0.0
220
0.0
230
1.0
  0
TEXT
  8
-11
  6
CONTINUOUS
 62
     7
  5
377
 10
964788.949
 20
7257003.615
 30
0.0
 40
8.0
  1
R=215'
 50
38.687311
  7
ROMANS
210
0.0
220
0.0
230
1.0
  0
TEXT
  8
-11
  6
CONTINUOUS
 62
     7
  5
378
 10
964751.515
 20
7257001.919
 30
0.0
 40
8.0
  1
L=262.7'
 50
29.159639
  7
ROMANS
210
0.0
220
0.0
230
1.0
  0
TEXT
  8
-11
  6
CONTINUOUS
 62
     7
  5
379
 10
964624.596
 20
7256982.52
 30
0.0
 40
8.0
  1
99.5'
 50
357.9089
  7
ROMANS
210
0.0
220
0.0
230
1.0
  0
TEXT
  8
-11
  6
CONTINUOUS
 62
     7
  5
37A
 10
965326.075
 20
7257586.005
 30
0.0
 40
8.0
  1
427'
 50
321.858675
  7
ROMANS
210
0.0
220
0.0
230
1.0
  0
TEXT
  8
-19
  6
CONTINUOUS
 62
     1
  5
37B
 10
966835.89
 20
7260799.992
 30
0.0
 40
24.0
  1
LOOP 289
 50
87.9089
  7
ROMANC
 72
     4
 11
966827.466272
 21
7260898.156739
 31
0.0
210
0.0
220
0.0
230
1.0
  0
TEXT
  8
-11
  6
CONTINUOUS
 62
     7
  5
37C
 10
964584.585
 20
7256944.244
 30
0.0
 40
8.0
  1
50'
 50
87.9089
  7
ROMANS
210
0.0
220
0.0
230
1.0
  0
TEXT
  8
-11
  6
CONTINUOUS
 62
     7
  5
37D
 10
964235.672
 20
7256960.737
 30
0.0
 40
8.0
  1
741.1'
 50
357.9089
  7
ROMANS
210
0.0
220
0.0
230
1.0
  0
TEXT
  8
-11
  6
CONTINUOUS
 62
     7
  5
37E
 10
968005.645
 20
7258859.124
 30
0.0
 40
8.0
  1
90'
 50
358.118569
  7
ROMANS
210
0.0
220
0.0
230
1.0
  0
TEXT
  8
-11
  6
CONTINUOUS
 62
     7
  5
37F
 10
968005.777
 20
7258948.485
 30
0.0
 40
8.0
  1
75'
 50
358.118569
  7
ROMANS
210
0.0
220
0.0
230
1.0
  0
TEXT
  8
-11
  6
CONTINUOUS
 62
     7
  5
380
 10
968055.59
 20
7258855.965
 30
0.0
 40
8.0
  1
31.7'
 50
358.118569
  7
ROMANS
210
0.0
220
0.0
230
1.0
  0
TEXT
  8
-11
  6
CONTINUOUS
 62
     7
  5
381
 10
968115.003
 20
7258855.062
 30
0.0
 40
8.0
  1
64'
 50
358.118569
  7
ROMANS
210
0.0
220
0.0
230
1.0
  0
TEXT
  8
-11
  6
CONTINUOUS
 62
     7
  5
382
 10
968182.919
 20
7258852.834
 30
0.0
 40
8.0
  1
64'
 50
358.118569
  7
ROMANS
210
0.0
220
0.0
230
1.0
  0
TEXT
  8
-11
  6
CONTINUOUS
 62
     7
  5
383
 10
968241.626
 20
7258850.904
 30
0.0
 40
8.0
  1
48'
 50
358.118569
  7
ROMANS
210
0.0
220
0.0
230
1.0
  0
TEXT
  8
-11
  6
CONTINUOUS
 62
     7
  5
384
 10
968040.86
 20
7258755.444
 30
0.0
 40
8.0
  1
64.59'
 50
358.118569
  7
ROMANS
210
0.0
220
0.0
230
1.0
  0
TEXT
  8
-11
  6
CONTINUOUS
 62
     7
  5
385
 10
968244.607
 20
7258748.752
 30
0.0
 40
8.0
  1
65'
 50
358.118569
  7
ROMANS
210
0.0
220
0.0
230
1.0
  0
TEXT
  8
-11
  6
CONTINUOUS
 62
     7
  5
386
 10
968044.079
 20
7258787.59
 30
0.0
 40
8.0
  1
108.64'
 50
79.185303
  7
ROMANS
210
0.0
220
0.0
230
1.0
  0
TEXT
  8
-11
  6
CONTINUOUS
 62
     7
  5
387
 10
968089.487
 20
7258799.328
 30
0.0
 40
8.0
  1
120'
 50
88.118569
  7
ROMANS
210
0.0
220
0.0
230
1.0
  0
TEXT
  8
-11
  6
CONTINUOUS
 62
     7
  5
388
 10
968217.261
 20
7258795.13
 30
0.0
 40
8.0
  1
120'
 50
88.118569
  7
ROMANS
210
0.0
220
0.0
230
1.0
  0
TEXT
  8
-11
  6
CONTINUOUS
 62
     7
  5
389
 10
968280.571
 20
7258793.051
 30
0.0
 40
8.0
  1
105'
 50
88.118569
  7
ROMANS
210
0.0
220
0.0
230
1.0
  0
TEXT
  8
-11
  6
CONTINUOUS
 62
     7
  5
38A
 10
968032.02
 20
7258733.755
 30
0.0
 40
8.0
  1
20'
 50
88.118569
  7
ROMANS
210
0.0
220
0.0
230
1.0
  0
TEXT
  8
-11
  6
CONTINUOUS
 62
     7
  5
38B
 10
968279.028
 20
7258728.526
 30
0.0
 40
8.0
  1
20'
 50
88.118569
  7
ROMANS
210
0.0
220
0.0
230
1.0
  0
TEXT
  8
-11
  6
CONTINUOUS
 62
     7
  5
38C
 10
968036.734
 20
7258717.524
 30
0.0
 40
8.0
  1
73.37'
 50
358.118569
  7
ROMANS
210
0.0
220
0.0
230
1.0
  0
TEXT
  8
-11
  6
CONTINUOUS
 62
     7
  5
38D
 10
968124.108
 20
7258623.553
 30
0.0
 40
8.0
  1
110.2'
 50
358.118569
  7
ROMANS
210
0.0
220
0.0
230
1.0
  0
TEXT
  8
-11
  6
CONTINUOUS
 62
     7
  5
38E
 10
968038.256
 20
7258623.489
 30
0.0
 40
8.0
  1
75'
 50
358.118569
  7
ROMANS
210
0.0
220
0.0
230
1.0
  0
TEXT
  8
-11
  6
CONTINUOUS
 62
     7
  5
38F
 10
968234.302
 20
7258715.647
 30
0.0
 40
8.0
  1
75'
 50
358.118569
  7
ROMANS
210
0.0
220
0.0
230
1.0
  0
TEXT
  8
-11
  6
CONTINUOUS
 62
     7
  5
390
 10
968019.138
 20
7258657.024
 30
0.0
 40
8.0
  1
95.32'
 50
79.185544
  7
ROMANS
210
0.0
220
0.0
230
1.0
  0
TEXT
  8
-11
  6
CONTINUOUS
 62
     7
  5
391
 10
968233.444
 20
7258619.385
 30
0.0
 40
8.0
  1
60'
 50
358.118569
  7
ROMANS
210
0.0
220
0.0
230
1.0
  0
TEXT
  8
-11
  6
CONTINUOUS
 62
     7
  5
392
 10
968215.568
 20
7258638.355
 30
0.0
 40
8.0
  1
55'
 50
88.118569
  7
ROMANS
210
0.0
220
0.0
230
1.0
  0
TEXT
  8
-11
  6
CONTINUOUS
 62
     7
  5
393
 10
968277.152
 20
7258636.331
 30
0.0
 40
8.0
  1
40'
 50
88.118569
  7
ROMANS
210
0.0
220
0.0
230
1.0
  0
TEXT
  8
-11
  6
CONTINUOUS
 62
     7
  5
394
 10
968278.704
 20
7258683.562
 30
0.0
 40
8.0
  1
55.5'
 50
88.118569
  7
ROMANS
210
0.0
220
0.0
230
1.0
  0
TEXT
  8
-11
  6
CONTINUOUS
 62
     7
  5
395
 10
968201.247
 20
7258658.43
 30
0.0
 40
8.0
  1
110.5'
 50
88.118569
  7
ROMANS
210
0.0
220
0.0
230
1.0
  0
TEXT
  8
-11
  6
CONTINUOUS
 62
     7
  5
396
 10
968090.741
 20
7258662.061
 30
0.0
 40
8.0
  1
110.5'
 50
88.118569
  7
ROMANS
210
0.0
220
0.0
230
1.0
  0
TEXT
  8
-11
  6
CONTINUOUS
 62
     7
  5
397
 10
968072.304
 20
7258901.7
 30
0.0
 40
8.0
  1
75'
 50
88.118569
  7
ROMANS
210
0.0
220
0.0
230
1.0
  0
TEXT
  8
-11
  6
CONTINUOUS
 62
     7
  5
398
 10
968312.994
 20
7258848.56
 30
0.0
 40
8.0
  1
75'
 50
358.118569
  7
ROMANS
210
0.0
220
0.0
230
1.0
  0
TEXT
  8
-11
  6
CONTINUOUS
 62
     7
  5
399
 10
968018.764
 20
7258575.775
 30
0.0
 40
8.0
  1
75'
 50
88.118569
  7
ROMANS
210
0.0
220
0.0
230
1.0
  0
TEXT
  8
-11
  6
CONTINUOUS
 62
     7
  5
39A
 10
968043.903
 20
7258532.348
 30
0.0
 40
8.0
  1
112.6'
 50
358.118569
  7
ROMANS
210
0.0
220
0.0
230
1.0
  0
TEXT
  8
-11
  6
CONTINUOUS
 62
     7
  5
39B
 10
968190.095
 20
7258527.546
 30
0.0
 40
8.0
  1
112.6'
 50
358.118569
  7
ROMANS
210
0.0
220
0.0
230
1.0
  0
TEXT
  8
-11
  6
CONTINUOUS
 62
     7
  5
39C
 10
968133.115
 20
7258529.419
 30
0.0
 40
8.0
  1
20'
 50
358.118569
  7
ROMANS
210
0.0
220
0.0
230
1.0
  0
TEXT
  8
-11
  6
CONTINUOUS
 62
     7
  5
39D
 10
968041.189
 20
7258449.711
 30
0.0
 40
8.0
  1
127.6'
 50
358.118569
  7
ROMANS
210
0.0
220
0.0
230
1.0
  0
TEXT
  8
-11
  6
CONTINUOUS
 62
     7
  5
39E
 10
968194.862
 20
7258444.663
 30
0.0
 40
8.0
  1
127.6'
 50
358.118569
  7
ROMANS
210
0.0
220
0.0
230
1.0
  0
TEXT
  8
-11
  6
CONTINUOUS
 62
     7
  5
39F
 10
968012.926
 20
7258485.743
 30
0.0
 40
8.0
  1
85'
 50
88.118569
  7
ROMANS
210
0.0
220
0.0
230
1.0
  0
TEXT
  8
-11
  6
CONTINUOUS
 62
     7
  5
3A0
 10
968273.077
 20
7258477.197
 30
0.0
 40
8.0
  1
85'
 50
88.118569
  7
ROMANS
210
0.0
220
0.0
230
1.0
  0
TEXT
  8
-11
  6
CONTINUOUS
 62
     7
  5
3A1
 10
968160.844
 20
7258480.883
 30
0.0
 40
8.0
  1
100'
 50
88.118569
  7
ROMANS
210
0.0
220
0.0
230
1.0
  0
TEXT
  8
-11
  6
CONTINUOUS
 62
     7
  5
3A2
 10
968123.432
 20
7258482.112
 30
0.0
 40
8.0
  1
100'
 50
88.118569
  7
ROMANS
210
0.0
220
0.0
230
1.0
  0
TEXT
  8
-11
  6
CONTINUOUS
 62
     7
  5
3A3
 10
968011.004
 20
7258409.696
 30
0.0
 40
8.0
  1
55'
 50
88.118569
  7
ROMANS
210
0.0
220
0.0
230
1.0
  0
TEXT
  8
-11
  6
CONTINUOUS
 62
     7
  5
3A4
 10
968271.9
 20
7258406.315
 30
0.0
 40
8.0
  1
55'
 50
88.118569
  7
ROMANS
210
0.0
220
0.0
230
1.0
  0
TEXT
  8
-11
  6
CONTINUOUS
 62
     7
  5
3A5
 10
968009.82
 20
7258356.112
 30
0.0
 40
8.0
  1
55'
 50
88.118569
  7
ROMANS
210
0.0
220
0.0
230
1.0
  0
TEXT
  8
-11
  6
CONTINUOUS
 62
     7
  5
3A6
 10
968007.871
 20
7258296.79
 30
0.0
 40
8.0
  1
55'
 50
88.118569
  7
ROMANS
210
0.0
220
0.0
230
1.0
  0
TEXT
  8
-11
  6
CONTINUOUS
 62
     7
  5
3A7
 10
968007.399
 20
7258246.953
 30
0.0
 40
8.0
  1
55'
 50
88.118569
  7
ROMANS
210
0.0
220
0.0
230
1.0
  0
TEXT
  8
-11
  6
CONTINUOUS
 62
     7
  5
3A8
 10
968267.699
 20
7258243.502
 30
0.0
 40
8.0
  1
55'
 50
88.118569
  7
ROMANS
210
0.0
220
0.0
230
1.0
  0
TEXT
  8
-11
  6
CONTINUOUS
 62
     7
  5
3A9
 10
968042.019
 20
7258229.651
 30
0.0
 40
8.0
  1
127.6'
 50
358.118569
  7
ROMANS
210
0.0
220
0.0
230
1.0
  0
TEXT
  8
-11
  6
CONTINUOUS
 62
     7
  5
3AA
 10
968187.06
 20
7258224.887
 30
0.0
 40
8.0
  1
127.6'
 50
358.118569
  7
ROMANS
210
0.0
220
0.0
230
1.0
  0
TEXT
  8
-11
  6
CONTINUOUS
 62
     7
  5
3AB
 10
967959.16
 20
7258232.949
 30
0.0
 40
8.0
  1
37.5'
 50
358.118569
  7
ROMANS
210
0.0
220
0.0
230
1.0
  0
TEXT
  8
-11
  6
CONTINUOUS
 62
     7
  5
3AC
 10
966985.479
 20
7259882.512
 30
0.0
 40
8.0
  1
143.9'
 50
358.9089
  7
ROMANS
210
0.0
220
0.0
230
1.0
  0
TEXT
  8
-11
  6
CONTINUOUS
 62
     7
  5
3AD
 10
967000.865
 20
7259952.868
 30
0.0
 40
8.0
  1
121.8'
 50
358.9089
  7
ROMANS
210
0.0
220
0.0
230
1.0
  0
TEXT
  8
-11
  6
CONTINUOUS
 62
     7
  5
3AE
 10
967165.358
 20
7259922.652
 30
0.0
 40
8.0
  1
R=456'
 50
341.044644
  7
ROMANS
210
0.0
220
0.0
230
1.0
  0
TEXT
  8
-11
  6
CONTINUOUS
 62
     7
  5
3AF
 10
967554.608
 20
7259576.713
 30
0.0
 40
8.0
  1
367.64'
 50
306.21505
  7
ROMANS
210
0.0
220
0.0
230
1.0
  0
TEXT
  8
-11
  6
CONTINUOUS
 62
     7
  5
3B0
 10
967826.673
 20
7259297.531
 30
0.0
 40
8.0
  1
R=400'
 50
342.664642
  7
ROMANS
210
0.0
220
0.0
230
1.0
  0
TEXT
  8
-11
  6
CONTINUOUS
 62
     7
  5
3B1
 10
967257.095
 20
7259838.306
 30
0.0
 40
8.0
  1
R=400'
 50
333.398389
  7
ROMANS
210
0.0
220
0.0
230
1.0
  0
TEXT
  8
-11
  6
CONTINUOUS
 62
     7
  5
3B2
 10
967450.988
 20
7259601.151
 30
0.0
 40
8.0
  1
N37%%d18'22"W  367.64'
 50
306.215131
  7
ROMANS
210
0.0
220
0.0
230
1.0
  0
TEXT
  8
-11
  6
CONTINUOUS
 62
     7
  5
3B3
 10
967804.783
 20
7259261.437
 30
0.0
 40
8.0
  1
R=456
 50
340.199456
  7
ROMANS
210
0.0
220
0.0
230
1.0
  0
TEXT
  8
-11
  6
CONTINUOUS
 62
     7
  5
3B4
 10
966951.103
 20
7259922.167
 30
0.0
 40
8.0
  1
56'
 50
88.9089
  7
ROMANS
210
0.0
220
0.0
230
1.0
  0
TEXT
  8
-11
  6
CONTINUOUS
 62
     7
  5
3B5
 10
967960.453
 20
7259245.601
 30
0.0
 40
8.0
  1
56'
 50
88.9089
  7
ROMANS
210
0.0
220
0.0
230
1.0
  0
TEXT
  8
-11
  6
CONTINUOUS
 62
     7
  5
3B6
 10
965775.047
 20
7258263.551
 30
0.0
 40
8.0
  1
1055.7  N40%%d10'E
 50
47.792158
  7
ROMANS
210
0.0
220
0.0
230
1.0
  0
TEXT
  8
-11
  6
CONTINUOUS
 62
     7
  5
3B7
 10
966216.856
 20
7258752.535
 30
0.0
 40
8.0
  1
151.3'
 50
47.792158
  7
ROMANS
210
0.0
220
0.0
230
1.0
  0
TEXT
  8
-11
  6
CONTINUOUS
 62
     7
  5
3B8
 10
966152.172
 20
7257875.515
 30
0.0
 40
8.0
  1
S30%%d10'W
 50
59.135842
  7
ROMANS
210
0.0
220
0.0
230
1.0
  0
TEXT
  8
-11
  6
CONTINUOUS
 62
     7
  5
3B9
 10
966169.128
 20
7257869.288
 30
0.0
 40
8.0
  1
877.4'
 50
59.135842
  7
ROMANS
210
0.0
220
0.0
230
1.0
  0
TEXT
  8
-11
  6
CONTINUOUS
 62
     7
  5
3BA
 10
966573.424
 20
7258708.313
 30
0.0
 40
8.0
  1
N30%%d10'E
 50
70.314294
  7
ROMANS
210
0.0
220
0.0
230
1.0
  0
TEXT
  8
-11
  6
CONTINUOUS
 62
     7
  5
3BB
 10
966590.968
 20
7258712.095
 30
0.0
 40
8.0
  1
835.19'
 50
70.314294
  7
ROMANS
210
0.0
220
0.0
230
1.0
  0
TEXT
  8
-11
  6
CONTINUOUS
 62
     7
  5
3BC
 10
965599.743
 20
7258752.477
 30
0.0
 40
8.0
  1
1158.44'
 50
357.9089
  7
ROMANS
210
0.0
220
0.0
230
1.0
  0
TEXT
  8
-11
  6
CONTINUOUS
 62
     7
  5
3BD
 10
966497.409
 20
7259280.942
 30
0.0
 40
8.0
  1
R=3883.77'
 50
75.017356
  7
ROMANS
210
0.0
220
0.0
230
1.0
  0
TEXT
  8
-11
  6
CONTINUOUS
 62
     7
  5
3BE
 10
966682.09
 20
7260719.15
 30
0.0
 40
8.0
  1
1024.8'
 50
87.9089
  7
ROMANS
210
0.0
220
0.0
230
1.0
  0
TEXT
  8
-11
  6
CONTINUOUS
 62
     7
  5
3BF
 10
966833.31
 20
7259415.422
 30
0.0
 40
8.0
  1
836.5'
 50
75.787486
  7
ROMANS
210
0.0
220
0.0
230
1.0
  0
TEXT
  8
-11
  6
CONTINUOUS
 62
     7
  5
3C0
 10
966814.848
 20
7259405.595
 30
0.0
 40
8.0
  1
R=4183.77'
 50
75.582117
  7
ROMANS
210
0.0
220
0.0
230
1.0
  0
TEXT
  8
-11
  6
CONTINUOUS
 62
     7
  5
3C1
 10
966968.132
 20
7260729.126
 30
0.0
 40
8.0
  1
1024.8'
 50
87.9089
  7
ROMANS
210
0.0
220
0.0
230
1.0
  0
TEXT
  8
-11
  6
CONTINUOUS
 62
     7
  5
3C2
 10
965916.077
 20
7257132.365
 30
0.0
 40
8.0
  1
253.3'
 50
357.9089
  7
ROMANS
210
0.0
220
0.0
230
1.0
  0
TEXT
  8
-11
  6
CONTINUOUS
 62
     7
  5
3C3
 10
965900.183
 20
7257199.783
 30
0.0
 40
8.0
  1
244.3'
 50
357.9089
  7
ROMANS
210
0.0
220
0.0
230
1.0
  0
TEXT
  8
-11
  6
CONTINUOUS
 62
     7
  5
3C4
 10
965946.716
 20
7256922.644
 30
0.0
 40
8.0
  1
413.6'
 50
357.9089
  7
ROMANS
210
0.0
220
0.0
230
1.0
  0
TEXT
  8
-11
  6
CONTINUOUS
 62
     7
  5
3C5
 10
965785.703
 20
7257102.8
 30
0.0
 40
8.0
  1
23.8'
 50
50.604186
  7
ROMANS
210
0.0
220
0.0
230
1.0
  0
TEXT
  8
-11
  6
CONTINUOUS
 62
     7
  5
3C6
 10
965685.559
 20
7256990.88
 30
0.0
 40
8.0
  1
319.1'
 50
48.408703
  7
ROMANS
210
0.0
220
0.0
230
1.0
  0
TEXT
  8
-11
  6
CONTINUOUS
 62
     7
  5
3C7
 10
966108.222
 20
7257017.803
 30
0.0
 40
8.0
  1
254.2'
 50
303.617131
  7
ROMANS
210
0.0
220
0.0
230
1.0
  0
TEXT
  8
-11
  6
CONTINUOUS
 62
     7
  5
3C8
 10
965773.764
 20
7256996.088
 30
0.0
 40
8.0
  1
189.9'
 50
87.9089
  7
ROMANS
210
0.0
220
0.0
230
1.0
  0
TEXT
  8
-11
  6
CONTINUOUS
 62
     7
  5
3C9
 10
966119.183
 20
7257366.582
 30
0.0
 40
8.0
  1
S39%%d46'E
 50
307.683892
  7
ROMANS
210
0.0
220
0.0
230
1.0
  0
TEXT
  8
-11
  6
CONTINUOUS
 62
     7
  5
3CA
 10
965740.325
 20
7257857.053
 30
0.0
 40
8.0
  1
630.3'
 50
307.683892
  7
ROMANS
210
0.0
220
0.0
230
1.0
  0
TEXT
  8
-11
  6
CONTINUOUS
 62
     7
  5
3CB
 10
966167.71
 20
7257198.549
 30
0.0
 40
8.0
  1
100'
 50
37.683825
  7
ROMANS
210
0.0
220
0.0
230
1.0
  0
TEXT
  8
-19
  6
CONTINUOUS
 62
     1
  5
3CC
 10
965828.822
 20
7257827.86
 30
0.0
 40
24.0
  1
LOOP 289
 50
51.858928
  7
ROMANC
 72
     4
 11
965879.780412
 21
7257912.183873
 31
0.0
210
0.0
220
0.0
230
1.0
  0
TEXT
  8
-11
  6
CONTINUOUS
 62
     7
  5
3CD
 10
966523.176
 20
7262060.934
 30
0.0
 40
8.0
  1
308.2'
 50
336.486958
  7
ROMANS
210
0.0
220
0.0
230
1.0
  0
TEXT
  8
-11
  6
CONTINUOUS
 62
     7
  5
3CE
 10
966597.094
 20
7262006.147
 30
0.0
 40
8.0
  1
R=215'
 50
310.421525
  7
ROMANS
210
0.0
220
0.0
230
1.0
  0
TEXT
  8
-11
  6
CONTINUOUS
 62
     7
  5
3CF
 10
966660.098
 20
7261740.903
 30
0.0
 40
8.0
  1
N7%%d48'W
 50
275.708864
  7
ROMANS
210
0.0
220
0.0
230
1.0
  0
TEXT
  8
-11
  6
CONTINUOUS
 62
     7
  5
3D0
 10
966672.392
 20
7261617.938
 30
0.0
 40
8.0
  1
559.6'
 50
275.708864
  7
ROMANS
210
0.0
220
0.0
230
1.0
  0
TEXT
  8
-11
  6
CONTINUOUS
 62
     7
  5
3D1
 10
966758.625
 20
7261347.675
 30
0.0
 40
8.0
  1
150'
 50
357.9089
  7
ROMANS
210
0.0
220
0.0
230
1.0
  0
TEXT
  8
-11
  6
CONTINUOUS
 62
     7
  5
3D2
 10
966919.211
 20
7261340.219
 30
0.0
 40
8.0
  1
150'
 50
357.9089
  7
ROMANS
210
0.0
220
0.0
230
1.0
  0
TEXT
  8
-11
  6
CONTINUOUS
 62
     7
  5
3D3
 10
967032.804
 20
7261555.102
 30
0.0
 40
8.0
  1
S7%%d52'W  558.5'
 50
80.042225
  7
ROMANS
210
0.0
220
0.0
230
1.0
  0
TEXT
  8
-11
  6
CONTINUOUS
 62
     7
  5
3D4
 10
967113.208
 20
7261954.602
 30
0.0
 40
8.0
  1
R=215'
 50
55.856906
  7
ROMANS
210
0.0
220
0.0
230
1.0
  0
TEXT
  8
-11
  6
CONTINUOUS
 62
     7
  5
3D5
 10
967174.243
 20
7262024.789
 30
0.0
 40
8.0
  1
309.8'
 50
33.614669
  7
ROMANS
210
0.0
220
0.0
230
1.0
  0
TEXT
  8
-15
  6
CONTINUOUS
 62
    30
  5
3D6
 10
965733.799
 20
7256904.96
 30
0.0
 40
50.0
  1
LEWTERS
 50
27.9089
  7
ROMANC
 72
     4
 11
965886.300725
 21
7257014.026209
 31
0.0
210
0.0
220
0.0
230
1.0
  0
TEXT
  8
-11
  6
CONTINUOUS
 62
     7
  5
3D7
 10
968381.188
 20
7258881.17
 30
0.0
 40
8.0
  1
56'
 50
88.118569
  7
ROMANS
210
0.0
220
0.0
230
1.0
  0
TEXT
  8
-11
  6
CONTINUOUS
 62
     7
  5
3D8
 10
968375.564
 20
7258922.961
 30
0.0
 40
8.0
  1
19'
 50
88.118569
  7
ROMANS
210
0.0
220
0.0
230
1.0
  0
TEXT
  8
-11
  6
CONTINUOUS
 62
     7
  5
3D9
 10
968388.081
 20
7258849.651
 30
0.0
 40
8.0
  1
60'
 50
358.118569
  7
ROMANS
210
0.0
220
0.0
230
1.0
  0
TEXT
  8
-11
  6
CONTINUOUS
 62
     7
  5
3DA
 10
968458.013
 20
7258847.354
 30
0.0
 40
8.0
  1
60'
 50
358.118569
  7
ROMANS
210
0.0
220
0.0
230
1.0
  0
TEXT
  8
-11
  6
CONTINUOUS
 62
     7
  5
3DB
 10
968517.979
 20
7258845.384
 30
0.0
 40
8.0
  1
60'
 50
358.118569
  7
ROMANS
210
0.0
220
0.0
230
1.0
  0
TEXT
  8
-11
  6
CONTINUOUS
 62
     7
  5
3DC
 10
968577.948
 20
7258843.414
 30
0.0
 40
8.0
  1
60'
 50
358.118569
  7
ROMANS
210
0.0
220
0.0
230
1.0
  0
TEXT
  8
-11
  6
CONTINUOUS
 62
     7
  5
3DD
 10
968637.916
 20
7258841.444
 30
0.0
 40
8.0
  1
60'
 50
358.118569
  7
ROMANS
210
0.0
220
0.0
230
1.0
  0
TEXT
  8
-11
  6
CONTINUOUS
 62
     7
  5
3DE
 10
968697.884
 20
7258839.474
 30
0.0
 40
8.0
  1
60'
 50
358.118569
  7
ROMANS
210
0.0
220
0.0
230
1.0
  0
TEXT
  8
-11
  6
CONTINUOUS
 62
     7
  5
3DF
 10
968757.851
 20
7258837.504
 30
0.0
 40
8.0
  1
60'
 50
358.118569
  7
ROMANS
210
0.0
220
0.0
230
1.0
  0
TEXT
  8
-11
  6
CONTINUOUS
 62
     7
  5
3E0
 10
968817.819
 20
7258835.534
 30
0.0
 40
8.0
  1
60'
 50
358.118569
  7
ROMANS
210
0.0
220
0.0
230
1.0
  0
TEXT
  8
-11
  6
CONTINUOUS
 62
     7
  5
3E1
 10
968877.785
 20
7258833.564
 30
0.0
 40
8.0
  1
60'
 50
358.118569
  7
ROMANS
210
0.0
220
0.0
230
1.0
  0
TEXT
  8
-11
  6
CONTINUOUS
 62
     7
  5
3E2
 10
968937.754
 20
7258831.594
 30
0.0
 40
8.0
  1
60'
 50
358.118569
  7
ROMANS
210
0.0
220
0.0
230
1.0
  0
TEXT
  8
-11
  6
CONTINUOUS
 62
     7
  5
3E3
 10
968943.174
 20
7258737.159
 30
0.0
 40
8.0
  1
75'
 50
358.118569
  7
ROMANS
210
0.0
220
0.0
230
1.0
  0
TEXT
  8
-11
  6
CONTINUOUS
 62
     7
  5
3E4
 10
968941.984
 20
7258700.896
 30
0.0
 40
8.0
  1
75'
 50
358.118569
  7
ROMANS
210
0.0
220
0.0
230
1.0
  0
TEXT
  8
-11
  6
CONTINUOUS
 62
     7
  5
3E5
 10
968938.6
 20
7258597.879
 30
0.0
 40
8.0
  1
60'
 50
358.118569
  7
ROMANS
210
0.0
220
0.0
230
1.0
  0
TEXT
  8
-11
  6
CONTINUOUS
 62
     7
  5
3E6
 10
968878.632
 20
7258599.848
 30
0.0
 40
8.0
  1
60'
 50
358.118569
  7
ROMANS
210
0.0
220
0.0
230
1.0
  0
TEXT
  8
-11
  6
CONTINUOUS
 62
     7
  5
3E7
 10
968818.663
 20
7258601.818
 30
0.0
 40
8.0
  1
60'
 50
358.118569
  7
ROMANS
210
0.0
220
0.0
230
1.0
  0
TEXT
  8
-11
  6
CONTINUOUS
 62
     7
  5
3E8
 10
968758.696
 20
7258603.788
 30
0.0
 40
8.0
  1
60'
 50
358.118569
  7
ROMANS
210
0.0
220
0.0
230
1.0
  0
TEXT
  8
-11
  6
CONTINUOUS
 62
     7
  5
3E9
 10
968698.729
 20
7258605.757
 30
0.0
 40
8.0
  1
60'
 50
358.118569
  7
ROMANS
210
0.0
220
0.0
230
1.0
  0
TEXT
  8
-11
  6
CONTINUOUS
 62
     7
  5
3EA
 10
968638.761
 20
7258607.728
 30
0.0
 40
8.0
  1
60'
 50
358.118569
  7
ROMANS
210
0.0
220
0.0
230
1.0
  0
TEXT
  8
-11
  6
CONTINUOUS
 62
     7
  5
3EB
 10
968578.794
 20
7258609.697
 30
0.0
 40
8.0
  1
60'
 50
358.118569
  7
ROMANS
210
0.0
220
0.0
230
1.0
  0
TEXT
  8
-11
  6
CONTINUOUS
 62
     7
  5
3EC
 10
968518.825
 20
7258611.667
 30
0.0
 40
8.0
  1
60'
 50
358.118569
  7
ROMANS
210
0.0
220
0.0
230
1.0
  0
TEXT
  8
-11
  6
CONTINUOUS
 62
     7
  5
3ED
 10
968458.857
 20
7258613.637
 30
0.0
 40
8.0
  1
60'
 50
358.118569
  7
ROMANS
210
0.0
220
0.0
230
1.0
  0
TEXT
  8
-11
  6
CONTINUOUS
 62
     7
  5
3EE
 10
968398.891
 20
7258615.606
 30
0.0
 40
8.0
  1
60'
 50
358.118569
  7
ROMANS
210
0.0
220
0.0
230
1.0
  0
TEXT
  8
-11
  6
CONTINUOUS
 62
     7
  5
3EF
 10
968384.777
 20
7258710.329
 30
0.0
 40
8.0
  1
75'
 50
358.118569
  7
ROMANS
210
0.0
220
0.0
230
1.0
  0
TEXT
  8
-11
  6
CONTINUOUS
 62
     7
  5
3F0
 10
968386.03
 20
7258748.5
 30
0.0
 40
8.0
  1
75'
 50
358.118569
  7
ROMANS
210
0.0
220
0.0
230
1.0
  0
TEXT
  8
-11
  6
CONTINUOUS
 62
     7
  5
3F1
 10
968365.991
 20
7258727.868
 30
0.0
 40
8.0
  1
20'
 50
88.118569
  7
ROMANS
210
0.0
220
0.0
230
1.0
  0
TEXT
  8
-11
  6
CONTINUOUS
 62
     7
  5
3F2
 10
968982.239
 20
7258713.993
 30
0.0
 40
8.0
  1
20'
 50
88.118569
  7
ROMANS
210
0.0
220
0.0
230
1.0
  0
TEXT
  8
-11
  6
CONTINUOUS
 62
     7
  5
3F3
 10
968369.247
 20
7258788.264
 30
0.0
 40
8.0
  1
105'
 50
88.118569
  7
ROMANS
210
0.0
220
0.0
230
1.0
  0
TEXT
  8
-11
  6
CONTINUOUS
 62
     7
  5
3F4
 10
968364.838
 20
7258654.026
 30
0.0
 40
8.0
  1
105'
 50
88.118569
  7
ROMANS
210
0.0
220
0.0
230
1.0
  0
TEXT
  8
-11
  6
CONTINUOUS
 62
     7
  5
3F5
 10
968978.969
 20
7258633.853
 30
0.0
 40
8.0
  1
105'
 50
88.118569
  7
ROMANS
210
0.0
220
0.0
230
1.0
  0
TEXT
  8
-11
  6
CONTINUOUS
 62
     7
  5
3F6
 10
968983.589
 20
7258774.452
 30
0.0
 40
8.0
  1
105'
 50
88.118569
  7
ROMANS
210
0.0
220
0.0
230
1.0
  0
TEXT
  8
-11
  6
CONTINUOUS
 62
     7
  5
3F7
 10
968430.321
 20
7258787.532
 30
0.0
 40
8.0
  1
120'
 50
88.118569
  7
ROMANS
210
0.0
220
0.0
230
1.0
  0
TEXT
  8
-11
  6
CONTINUOUS
 62
     7
  5
3F8
 10
968910.311
 20
7258771.762
 30
0.0
 40
8.0
  1
120'
 50
88.118569
  7
ROMANS
210
0.0
220
0.0
230
1.0
  0
TEXT
  8
-11
  6
CONTINUOUS
 62
     7
  5
3F9
 10
968906.705
 20
7258642.595
 30
0.0
 40
8.0
  1
120'
 50
88.118569
  7
ROMANS
210
0.0
220
0.0
230
1.0
  0
TEXT
  8
-11
  6
CONTINUOUS
 62
     7
  5
3FA
 10
968426.078
 20
7258658.383
 30
0.0
 40
8.0
  1
120'
 50
88.118569
  7
ROMANS
210
0.0
220
0.0
230
1.0
  0
TEXT
  8
-11
  6
CONTINUOUS
 62
     7
  5
3FB
 10
969077.233
 20
7258836.681
 30
0.0
 40
8.0
  1
60'
 50
358.118569
  7
ROMANS
210
0.0
220
0.0
230
1.0
  0
TEXT
  8
-11
  6
CONTINUOUS
 62
     7
  5
3FC
 10
969069.271
 20
7258594.292
 30
0.0
 40
8.0
  1
60'
 50
358.118569
  7
ROMANS
210
0.0
220
0.0
230
1.0
  0
TEXT
  8
-11
  6
CONTINUOUS
 62
     7
  5
3FD
 10
969053.313
 20
7258639.759
 30
0.0
 40
8.0
  1
105'
 50
88.118569
  7
ROMANS
210
0.0
220
0.0
230
1.0
  0
TEXT
  8
-11
  6
CONTINUOUS
 62
     7
  5
3FE
 10
969057.575
 20
7258769.544
 30
0.0
 40
8.0
  1
105'
 50
88.118569
  7
ROMANS
210
0.0
220
0.0
230
1.0
  0
TEXT
  8
-11
  6
CONTINUOUS
 62
     7
  5
3FF
 10
969007.791
 20
7258834.505
 30
0.0
 40
8.0
  1
56'
 50
358.118569
  7
ROMANS
210
0.0
220
0.0
230
1.0
  0
TEXT
  8
-11
  6
CONTINUOUS
 62
     7
  5
400
 10
969052.515
 20
7258712.391
 30
0.0
 40
8.0
  1
20'
 50
88.118569
  7
ROMANS
210
0.0
220
0.0
230
1.0
  0
TEXT
  8
-11
  6
CONTINUOUS
 62
     7
  5
401
 10
968004.382
 20
7258654.388
 30
0.0
 40
8.0
  1
N7%%d30'E
 50
79.185544
  7
ROMANS
210
0.0
220
0.0
230
1.0
  0
TEXT
  8
-11
  6
CONTINUOUS
 62
     7
  5
402
 10
968393.547
 20
7258567.865
 30
0.0
 40
8.0
  1
56'
 50
88.118569
  7
ROMANS
210
0.0
220
0.0
230
1.0
  0
TEXT
  8
-11
  6
CONTINUOUS
 62
     7
  5
403
 10
968305.4
 20
7258525.434
 30
0.0
 40
8.0
  1
75'
 50
358.118569
  7
ROMANS
210
0.0
220
0.0
230
1.0
  0
TEXT
  8
-11
  6
CONTINUOUS
 62
     7
  5
404
 10
968383.452
 20
7258535.307
 30
0.0
 40
8.0
  1
60'
 50
358.118569
  7
ROMANS
210
0.0
220
0.0
230
1.0
  0
TEXT
  8
-11
  6
CONTINUOUS
 62
     7
  5
405
 10
968443.421
 20
7258533.337
 30
0.0
 40
8.0
  1
60'
 50
358.118569
  7
ROMANS
210
0.0
220
0.0
230
1.0
  0
TEXT
  8
-11
  6
CONTINUOUS
 62
     7
  5
406
 10
968503.389
 20
7258531.367
 30
0.0
 40
8.0
  1
60'
 50
358.118569
  7
ROMANS
210
0.0
220
0.0
230
1.0
  0
TEXT
  8
-11
  6
CONTINUOUS
 62
     7
  5
407
 10
968563.355
 20
7258529.396
 30
0.0
 40
8.0
  1
60'
 50
358.118569
  7
ROMANS
210
0.0
220
0.0
230
1.0
  0
TEXT
  8
-11
  6
CONTINUOUS
 62
     7
  5
408
 10
968623.323
 20
7258527.427
 30
0.0
 40
8.0
  1
60'
 50
358.118569
  7
ROMANS
210
0.0
220
0.0
230
1.0
  0
TEXT
  8
-11
  6
CONTINUOUS
 62
     7
  5
409
 10
968683.291
 20
7258525.456
 30
0.0
 40
8.0
  1
60'
 50
358.118569
  7
ROMANS
210
0.0
220
0.0
230
1.0
  0
TEXT
  8
-11
  6
CONTINUOUS
 62
     7
  5
40A
 10
968743.258
 20
7258523.487
 30
0.0
 40
8.0
  1
60'
 50
358.118569
  7
ROMANS
210
0.0
220
0.0
230
1.0
  0
TEXT
  8
-11
  6
CONTINUOUS
 62
     7
  5
40B
 10
968803.226
 20
7258521.517
 30
0.0
 40
8.0
  1
60'
 50
358.118569
  7
ROMANS
210
0.0
220
0.0
230
1.0
  0
TEXT
  8
-11
  6
CONTINUOUS
 62
     7
  5
40C
 10
968863.195
 20
7258519.546
 30
0.0
 40
8.0
  1
60'
 50
358.118569
  7
ROMANS
210
0.0
220
0.0
230
1.0
  0
TEXT
  8
-11
  6
CONTINUOUS
 62
     7
  5
40D
 10
968923.162
 20
7258517.576
 30
0.0
 40
8.0
  1
60'
 50
358.118569
  7
ROMANS
210
0.0
220
0.0
230
1.0
  0
TEXT
  8
-11
  6
CONTINUOUS
 62
     7
  5
40E
 10
968936.225
 20
7258420.799
 30
0.0
 40
8.0
  1
75'
 50
358.118569
  7
ROMANS
210
0.0
220
0.0
230
1.0
  0
TEXT
  8
-11
  6
CONTINUOUS
 62
     7
  5
40F
 10
968934.979
 20
7258382.882
 30
0.0
 40
8.0
  1
75'
 50
358.118569
  7
ROMANS
210
0.0
220
0.0
230
1.0
  0
TEXT
  8
-11
  6
CONTINUOUS
 62
     7
  5
410
 10
968932.403
 20
7258282.239
 30
0.0
 40
8.0
  1
60'
 50
358.118569
  7
ROMANS
210
0.0
220
0.0
230
1.0
  0
TEXT
  8
-11
  6
CONTINUOUS
 62
     7
  5
411
 10
968866.827
 20
7258284.393
 30
0.0
 40
8.0
  1
60'
 50
358.118569
  7
ROMANS
210
0.0
220
0.0
230
1.0
  0
TEXT
  8
-11
  6
CONTINUOUS
 62
     7
  5
412
 10
968378.537
 20
7258296.783
 30
0.0
 40
8.0
  1
60'
 50
358.118569
  7
ROMANS
210
0.0
220
0.0
230
1.0
  0
TEXT
  8
-11
  6
CONTINUOUS
 62
     7
  5
413
 10
968445.568
 20
7258294.582
 30
0.0
 40
8.0
  1
60'
 50
358.118569
  7
ROMANS
210
0.0
220
0.0
230
1.0
  0
TEXT
  8
-11
  6
CONTINUOUS
 62
     7
  5
414
 10
968503.858
 20
7258292.667
 30
0.0
 40
8.0
  1
60'
 50
358.118569
  7
ROMANS
210
0.0
220
0.0
230
1.0
  0
TEXT
  8
-11
  6
CONTINUOUS
 62
     7
  5
415
 10
968567.247
 20
7258290.585
 30
0.0
 40
8.0
  1
60'
 50
358.118569
  7
ROMANS
210
0.0
220
0.0
230
1.0
  0
TEXT
  8
-11
  6
CONTINUOUS
 62
     7
  5
416
 10
968627.721
 20
7258288.598
 30
0.0
 40
8.0
  1
60'
 50
358.118569
  7
ROMANS
210
0.0
220
0.0
230
1.0
  0
TEXT
  8
-11
  6
CONTINUOUS
 62
     7
  5
417
 10
968686.011
 20
7258286.683
 30
0.0
 40
8.0
  1
60'
 50
358.118569
  7
ROMANS
210
0.0
220
0.0
230
1.0
  0
TEXT
  8
-11
  6
CONTINUOUS
 62
     7
  5
418
 10
968743.572
 20
7258284.793
 30
0.0
 40
8.0
  1
60'
 50
358.118569
  7
ROMANS
210
0.0
220
0.0
230
1.0
  0
TEXT
  8
-11
  6
CONTINUOUS
 62
     7
  5
419
 10
968807.691
 20
7258282.687
 30
0.0
 40
8.0
  1
60'
 50
358.118569
  7
ROMANS
210
0.0
220
0.0
230
1.0
  0
TEXT
  8
-11
  6
CONTINUOUS
 62
     7
  5
41A
 10
968378.806
 20
7258393.854
 30
0.0
 40
8.0
  1
75'
 50
358.118569
  7
ROMANS
210
0.0
220
0.0
230
1.0
  0
TEXT
  8
-11
  6
CONTINUOUS
 62
     7
  5
41B
 10
968380.124
 20
7258433.958
 30
0.0
 40
8.0
  1
75'
 50
358.118569
  7
ROMANS
210
0.0
220
0.0
230
1.0
  0
TEXT
  8
-11
  6
CONTINUOUS
 62
     7
  5
41C
 10
968363.205
 20
7258474.632
 30
0.0
 40
8.0
  1
105'
 50
88.118569
  7
ROMANS
210
0.0
220
0.0
230
1.0
  0
TEXT
  8
-11
  6
CONTINUOUS
 62
     7
  5
41D
 10
968977.43
 20
7258454.456
 30
0.0
 40
8.0
  1
105'
 50
88.118569
  7
ROMANS
210
0.0
220
0.0
230
1.0
  0
TEXT
  8
-11
  6
CONTINUOUS
 62
     7
  5
41E
 10
968973.215
 20
7258326.129
 30
0.0
 40
8.0
  1
105'
 50
88.118569
  7
ROMANS
210
0.0
220
0.0
230
1.0
  0
TEXT
  8
-11
  6
CONTINUOUS
 62
     7
  5
41F
 10
968360.447
 20
7258346.257
 30
0.0
 40
8.0
  1
105'
 50
88.118569
  7
ROMANS
210
0.0
220
0.0
230
1.0
  0
TEXT
  8
-11
  6
CONTINUOUS
 62
     7
  5
420
 10
968422.319
 20
7258475.61
 30
0.0
 40
8.0
  1
120'
 50
88.118569
  7
ROMANS
210
0.0
220
0.0
230
1.0
  0
TEXT
  8
-11
  6
CONTINUOUS
 62
     7
  5
421
 10
968901.021
 20
7258459.885
 30
0.0
 40
8.0
  1
120'
 50
88.118569
  7
ROMANS
210
0.0
220
0.0
230
1.0
  0
TEXT
  8
-11
  6
CONTINUOUS
 62
     7
  5
422
 10
968896.733
 20
7258329.37
 30
0.0
 40
8.0
  1
120'
 50
88.118569
  7
ROMANS
210
0.0
220
0.0
230
1.0
  0
TEXT
  8
-11
  6
CONTINUOUS
 62
     7
  5
423
 10
968418.761
 20
7258345.071
 30
0.0
 40
8.0
  1
120'
 50
88.118569
  7
ROMANS
210
0.0
220
0.0
230
1.0
  0
TEXT
  8
-11
  6
CONTINUOUS
 62
     7
  5
424
 10
968361.145
 20
7258411.927
 30
0.0
 40
8.0
  1
20'
 50
88.118569
  7
ROMANS
210
0.0
220
0.0
230
1.0
  0
TEXT
  8
-11
  6
CONTINUOUS
 62
     7
  5
425
 10
968975.586
 20
7258398.314
 30
0.0
 40
8.0
  1
20'
 50
88.118569
  7
ROMANS
210
0.0
220
0.0
230
1.0
  0
TEXT
  8
-11
  6
CONTINUOUS
 62
     7
  5
426
 10
968311.021
 20
7258217.635
 30
0.0
 40
8.0
  1
56'
 50
358.118569
  7
ROMANS
210
0.0
220
0.0
230
1.0
  0
TEXT
  8
-11
  6
CONTINUOUS
 62
     7
  5
427
 10
968378.198
 20
7258219.807
 30
0.0
 40
8.0
  1
60'
 50
358.118569
  7
ROMANS
210
0.0
220
0.0
230
1.0
  0
TEXT
  8
-11
  6
CONTINUOUS
 62
     7
  5
428
 10
968438.165
 20
7258217.838
 30
0.0
 40
8.0
  1
60'
 50
358.118569
  7
ROMANS
210
0.0
220
0.0
230
1.0
  0
TEXT
  8
-11
  6
CONTINUOUS
 62
     7
  5
429
 10
968498.132
 20
7258215.868
 30
0.0
 40
8.0
  1
60'
 50
358.118569
  7
ROMANS
210
0.0
220
0.0
230
1.0
  0
TEXT
  8
-11
  6
CONTINUOUS
 62
     7
  5
42A
 10
968558.101
 20
7258213.898
 30
0.0
 40
8.0
  1
60'
 50
358.118569
  7
ROMANS
210
0.0
220
0.0
230
1.0
  0
TEXT
  8
-11
  6
CONTINUOUS
 62
     7
  5
42B
 10
968618.068
 20
7258211.929
 30
0.0
 40
8.0
  1
60'
 50
358.118569
  7
ROMANS
210
0.0
220
0.0
230
1.0
  0
TEXT
  8
-11
  6
CONTINUOUS
 62
     7
  5
42C
 10
968678.036
 20
7258209.959
 30
0.0
 40
8.0
  1
60'
 50
358.118569
  7
ROMANS
210
0.0
220
0.0
230
1.0
  0
TEXT
  8
-11
  6
CONTINUOUS
 62
     7
  5
42D
 10
968738.005
 20
7258207.99
 30
0.0
 40
8.0
  1
60'
 50
358.118569
  7
ROMANS
210
0.0
220
0.0
230
1.0
  0
TEXT
  8
-11
  6
CONTINUOUS
 62
     7
  5
42E
 10
968797.971
 20
7258206.02
 30
0.0
 40
8.0
  1
60'
 50
358.118569
  7
ROMANS
210
0.0
220
0.0
230
1.0
  0
TEXT
  8
-11
  6
CONTINUOUS
 62
     7
  5
42F
 10
968857.939
 20
7258204.049
 30
0.0
 40
8.0
  1
60'
 50
358.118569
  7
ROMANS
210
0.0
220
0.0
230
1.0
  0
TEXT
  8
-11
  6
CONTINUOUS
 62
     7
  5
430
 10
968917.906
 20
7258202.079
 30
0.0
 40
8.0
  1
60'
 50
358.118569
  7
ROMANS
210
0.0
220
0.0
230
1.0
  0
TEXT
  8
-11
  6
CONTINUOUS
 62
     7
  5
431
 10
968369.565
 20
7257979.218
 30
0.0
 40
8.0
  1
60'
 50
358.118569
  7
ROMANS
210
0.0
220
0.0
230
1.0
  0
TEXT
  8
-11
  6
CONTINUOUS
 62
     7
  5
432
 10
968437.327
 20
7257976.994
 30
0.0
 40
8.0
  1
60'
 50
358.118569
  7
ROMANS
210
0.0
220
0.0
230
1.0
  0
TEXT
  8
-11
  6
CONTINUOUS
 62
     7
  5
433
 10
968497.802
 20
7257975.006
 30
0.0
 40
8.0
  1
60'
 50
358.118569
  7
ROMANS
210
0.0
220
0.0
230
1.0
  0
TEXT
  8
-11
  6
CONTINUOUS
 62
     7
  5
434
 10
968559.734
 20
7257972.973
 30
0.0
 40
8.0
  1
60'
 50
358.118569
  7
ROMANS
210
0.0
220
0.0
230
1.0
  0
TEXT
  8
-11
  6
CONTINUOUS
 62
     7
  5
435
 10
968616.615
 20
7257972.564
 30
0.0
 40
8.0
  1
60'
 50
358.118569
  7
ROMANS
210
0.0
220
0.0
230
1.0
  0
TEXT
  8
-11
  6
CONTINUOUS
 62
     7
  5
436
 10
968675.631
 20
7257970.624
 30
0.0
 40
8.0
  1
60'
 50
358.118569
  7
ROMANS
210
0.0
220
0.0
230
1.0
  0
TEXT
  8
-11
  6
CONTINUOUS
 62
     7
  5
437
 10
968739.022
 20
7257968.542
 30
0.0
 40
8.0
  1
60'
 50
358.118569
  7
ROMANS
210
0.0
220
0.0
230
1.0
  0
TEXT
  8
-11
  6
CONTINUOUS
 62
     7
  5
438
 10
968799.497
 20
7257966.555
 30
0.0
 40
8.0
  1
60'
 50
358.118569
  7
ROMANS
210
0.0
220
0.0
230
1.0
  0
TEXT
  8
-11
  6
CONTINUOUS
 62
     7
  5
439
 10
968859.292
 20
7257966.051
 30
0.0
 40
8.0
  1
60'
 50
358.118569
  7
ROMANS
210
0.0
220
0.0
230
1.0
  0
TEXT
  8
-11
  6
CONTINUOUS
 62
     7
  5
43A
 10
968924.867
 20
7257963.897
 30
0.0
 40
8.0
  1
60'
 50
358.118569
  7
ROMANS
210
0.0
220
0.0
230
1.0
  0
TEXT
  8
-11
  6
CONTINUOUS
 62
     7
  5
43B
 10
968356.371
 20
7258155.538
 30
0.0
 40
8.0
  1
105'
 50
88.118569
  7
ROMANS
210
0.0
220
0.0
230
1.0
  0
TEXT
  8
-11
  6
CONTINUOUS
 62
     7
  5
43C
 10
968970.597
 20
7258135.361
 30
0.0
 40
8.0
  1
105'
 50
88.118569
  7
ROMANS
210
0.0
220
0.0
230
1.0
  0
TEXT
  8
-11
  6
CONTINUOUS
 62
     7
  5
43D
 10
968966.431
 20
7258008.492
 30
0.0
 40
8.0
  1
105'
 50
88.118569
  7
ROMANS
210
0.0
220
0.0
230
1.0
  0
TEXT
  8
-11
  6
CONTINUOUS
 62
     7
  5
43E
 10
968353.663
 20
7258028.621
 30
0.0
 40
8.0
  1
105'
 50
88.118569
  7
ROMANS
210
0.0
220
0.0
230
1.0
  0
TEXT
  8
-11
  6
CONTINUOUS
 62
     7
  5
43F
 10
968415.535
 20
7258157.973
 30
0.0
 40
8.0
  1
120'
 50
88.118569
  7
ROMANS
210
0.0
220
0.0
230
1.0
  0
TEXT
  8
-11
  6
CONTINUOUS
 62
     7
  5
440
 10
968896.421
 20
7258142.177
 30
0.0
 40
8.0
  1
120'
 50
88.118569
  7
ROMANS
210
0.0
220
0.0
230
1.0
  0
TEXT
  8
-11
  6
CONTINUOUS
 62
     7
  5
441
 10
968892.014
 20
7258008.017
 30
0.0
 40
8.0
  1
120'
 50
88.118569
  7
ROMANS
210
0.0
220
0.0
230
1.0
  0
TEXT
  8
-11
  6
CONTINUOUS
 62
     7
  5
442
 10
968411.857
 20
7258023.788
 30
0.0
 40
8.0
  1
120'
 50
88.118569
  7
ROMANS
210
0.0
220
0.0
230
1.0
  0
TEXT
  8
-11
  6
CONTINUOUS
 62
     7
  5
443
 10
968352.247
 20
7258096.55
 30
0.0
 40
8.0
  1
20'
 50
88.118569
  7
ROMANS
210
0.0
220
0.0
230
1.0
  0
TEXT
  8
-11
  6
CONTINUOUS
 62
     7
  5
444
 10
968970.354
 20
7258083.545
 30
0.0
 40
8.0
  1
20'
 50
88.118569
  7
ROMANS
210
0.0
220
0.0
230
1.0
  0
TEXT
  8
-11
  6
CONTINUOUS
 62
     7
  5
445
 10
968294.617
 20
7257585.254
 30
0.0
 40
8.0
  1
56'
 50
358.118569
  7
ROMANS
210
0.0
220
0.0
230
1.0
  0
TEXT
  8
-11
  6
CONTINUOUS
 62
     7
  5
446
 10
968369.249
 20
7257903.24
 30
0.0
 40
8.0
  1
60'
 50
358.118569
  7
ROMANS
210
0.0
220
0.0
230
1.0
  0
TEXT
  8
-11
  6
CONTINUOUS
 62
     7
  5
447
 10
968437.01
 20
7257901.013
 30
0.0
 40
8.0
  1
60'
 50
358.118569
  7
ROMANS
210
0.0
220
0.0
230
1.0
  0
TEXT
  8
-11
  6
CONTINUOUS
 62
     7
  5
448
 10
968497.487
 20
7257899.027
 30
0.0
 40
8.0
  1
60'
 50
358.118569
  7
ROMANS
210
0.0
220
0.0
230
1.0
  0
TEXT
  8
-11
  6
CONTINUOUS
 62
     7
  5
449
 10
968557.231
 20
7257897.064
 30
0.0
 40
8.0
  1
60'
 50
358.118569
  7
ROMANS
210
0.0
220
0.0
230
1.0
  0
TEXT
  8
-11
  6
CONTINUOUS
 62
     7
  5
44A
 10
968616.347
 20
7257898.042
 30
0.0
 40
8.0
  1
60'
 50
358.118569
  7
ROMANS
210
0.0
220
0.0
230
1.0
  0
TEXT
  8
-11
  6
CONTINUOUS
 62
     7
  5
44B
 10
968675.388
 20
7257896.832
 30
0.0
 40
8.0
  1
60'
 50
358.118569
  7
ROMANS
210
0.0
220
0.0
230
1.0
  0
TEXT
  8
-11
  6
CONTINUOUS
 62
     7
  5
44C
 10
968738.073
 20
7257895.503
 30
0.0
 40
8.0
  1
60'
 50
358.118569
  7
ROMANS
210
0.0
220
0.0
230
1.0
  0
TEXT
  8
-11
  6
CONTINUOUS
 62
     7
  5
44D
 10
968797.139
 20
7257895.022
 30
0.0
 40
8.0
  1
60'
 50
358.118569
  7
ROMANS
210
0.0
220
0.0
230
1.0
  0
TEXT
  8
-11
  6
CONTINUOUS
 62
     7
  5
44E
 10
968853.947
 20
7257892.426
 30
0.0
 40
8.0
  1
60'
 50
358.118569
  7
ROMANS
210
0.0
220
0.0
230
1.0
  0
TEXT
  8
-11
  6
CONTINUOUS
 62
     7
  5
44F
 10
968922.485
 20
7257891.635
 30
0.0
 40
8.0
  1
60'
 50
358.118569
  7
ROMANS
210
0.0
220
0.0
230
1.0
  0
TEXT
  8
-11
  6
CONTINUOUS
 62
     7
  5
450
 10
968920.362
 20
7257649.37
 30
0.0
 40
8.0
  1
60'
 50
358.118569
  7
ROMANS
210
0.0
220
0.0
230
1.0
  0
TEXT
  8
-11
  6
CONTINUOUS
 62
     7
  5
451
 10
968851.12
 20
7257650.916
 30
0.0
 40
8.0
  1
60'
 50
358.118569
  7
ROMANS
210
0.0
220
0.0
230
1.0
  0
TEXT
  8
-11
  6
CONTINUOUS
 62
     7
  5
452
 10
968794.312
 20
7257653.512
 30
0.0
 40
8.0
  1
60'
 50
358.118569
  7
ROMANS
210
0.0
220
0.0
230
1.0
  0
TEXT
  8
-11
  6
CONTINUOUS
 62
     7
  5
453
 10
968736.702
 20
7257653.944
 30
0.0
 40
8.0
  1
60'
 50
358.118569
  7
ROMANS
210
0.0
220
0.0
230
1.0
  0
TEXT
  8
-11
  6
CONTINUOUS
 62
     7
  5
454
 10
968674.77
 20
7257655.978
 30
0.0
 40
8.0
  1
60'
 50
358.118569
  7
ROMANS
210
0.0
220
0.0
230
1.0
  0
TEXT
  8
-11
  6
CONTINUOUS
 62
     7
  5
455
 10
968615.023
 20
7257657.941
 30
0.0
 40
8.0
  1
60'
 50
358.118569
  7
ROMANS
210
0.0
220
0.0
230
1.0
  0
TEXT
  8
-11
  6
CONTINUOUS
 62
     7
  5
456
 10
968547.214
 20
7257658.709
 30
0.0
 40
8.0
  1
60'
 50
358.118569
  7
ROMANS
210
0.0
220
0.0
230
1.0
  0
TEXT
  8
-11
  6
CONTINUOUS
 62
     7
  5
457
 10
968493.275
 20
7257659.75
 30
0.0
 40
8.0
  1
60'
 50
358.118569
  7
ROMANS
210
0.0
220
0.0
230
1.0
  0
TEXT
  8
-11
  6
CONTINUOUS
 62
     7
  5
458
 10
968432.774
 20
7257661.008
 30
0.0
 40
8.0
  1
60'
 50
358.118569
  7
ROMANS
210
0.0
220
0.0
230
1.0
  0
TEXT
  8
-11
  6
CONTINUOUS
 62
     7
  5
459
 10
968367.174
 20
7257662.433
 30
0.0
 40
8.0
  1
60'
 50
358.118569
  7
ROMANS
210
0.0
220
0.0
230
1.0
  0
TEXT
  8
-11
  6
CONTINUOUS
 62
     7
  5
45A
 10
968367.353
 20
7257801.112
 30
0.0
 40
8.0
  1
75'
 50
358.118569
  7
ROMANS
210
0.0
220
0.0
230
1.0
  0
TEXT
  8
-11
  6
CONTINUOUS
 62
     7
  5
45B
 10
968366.108
 20
7257763.196
 30
0.0
 40
8.0
  1
75'
 50
358.118569
  7
ROMANS
210
0.0
220
0.0
230
1.0
  0
TEXT
  8
-11
  6
CONTINUOUS
 62
     7
  5
45C
 10
968922.773
 20
7257789.437
 30
0.0
 40
8.0
  1
75'
 50
358.118569
  7
ROMANS
210
0.0
220
0.0
230
1.0
  0
TEXT
  8
-11
  6
CONTINUOUS
 62
     7
  5
45D
 10
968923.01
 20
7257752.203
 30
0.0
 40
8.0
  1
75'
 50
358.118569
  7
ROMANS
210
0.0
220
0.0
230
1.0
  0
TEXT
  8
-11
  6
CONTINUOUS
 62
     7
  5
45E
 10
968350.219
 20
7257835.226
 30
0.0
 40
8.0
  1
105'
 50
88.118569
  7
ROMANS
210
0.0
220
0.0
230
1.0
  0
TEXT
  8
-11
  6
CONTINUOUS
 62
     7
  5
45F
 10
968963.467
 20
7257829.68
 30
0.0
 40
8.0
  1
105'
 50
88.118569
  7
ROMANS
210
0.0
220
0.0
230
1.0
  0
TEXT
  8
-11
  6
CONTINUOUS
 62
     7
  5
460
 10
968961.269
 20
7257696.176
 30
0.0
 40
8.0
  1
105'
 50
88.118569
  7
ROMANS
210
0.0
220
0.0
230
1.0
  0
TEXT
  8
-11
  6
CONTINUOUS
 62
     7
  5
461
 10
968346.686
 20
7257705.417
 30
0.0
 40
8.0
  1
105'
 50
88.118569
  7
ROMANS
210
0.0
220
0.0
230
1.0
  0
TEXT
  8
-11
  6
CONTINUOUS
 62
     7
  5
462
 10
968410.84
 20
7257837.616
 30
0.0
 40
8.0
  1
120'
 50
88.118569
  7
ROMANS
210
0.0
220
0.0
230
1.0
  0
TEXT
  8
-11
  6
CONTINUOUS
 62
     7
  5
463
 10
968887.545
 20
7257827.796
 30
0.0
 40
8.0
  1
120'
 50
88.118569
  7
ROMANS
210
0.0
220
0.0
230
1.0
  0
TEXT
  8
-11
  6
CONTINUOUS
 62
     7
  5
464
 10
968885.541
 20
7257700.124
 30
0.0
 40
8.0
  1
120'
 50
88.118569
  7
ROMANS
210
0.0
220
0.0
230
1.0
  0
TEXT
  8
-11
  6
CONTINUOUS
 62
     7
  5
465
 10
968406.551
 20
7257707.1
 30
0.0
 40
8.0
  1
120'
 50
88.118569
  7
ROMANS
210
0.0
220
0.0
230
1.0
  0
TEXT
  8
-11
  6
CONTINUOUS
 62
     7
  5
466
 10
968349.104
 20
7257779.06
 30
0.0
 40
8.0
  1
20'
 50
88.118569
  7
ROMANS
210
0.0
220
0.0
230
1.0
  0
TEXT
  8
-11
  6
CONTINUOUS
 62
     7
  5
467
 10
968962.087
 20
7257765.492
 30
0.0
 40
8.0
  1
20'
 50
88.118569
  7
ROMANS
210
0.0
220
0.0
230
1.0
  0
TEXT
  8
-11
  6
CONTINUOUS
 62
     7
  5
468
 10
968366.176
 20
7257587.616
 30
0.0
 40
8.0
  1
60'
 50
358.118569
  7
ROMANS
210
0.0
220
0.0
230
1.0
  0
TEXT
  8
-11
  6
CONTINUOUS
 62
     7
  5
469
 10
968430.317
 20
7257586.237
 30
0.0
 40
8.0
  1
60'
 50
358.118569
  7
ROMANS
210
0.0
220
0.0
230
1.0
  0
TEXT
  8
-11
  6
CONTINUOUS
 62
     7
  5
46A
 10
968490.112
 20
7257585.734
 30
0.0
 40
8.0
  1
60'
 50
358.118569
  7
ROMANS
210
0.0
220
0.0
230
1.0
  0
TEXT
  8
-11
  6
CONTINUOUS
 62
     7
  5
46B
 10
968551.315
 20
7257583.723
 30
0.0
 40
8.0
  1
60'
 50
358.118569
  7
ROMANS
210
0.0
220
0.0
230
1.0
  0
TEXT
  8
-11
  6
CONTINUOUS
 62
     7
  5
46C
 10
968608.901
 20
7257582.563
 30
0.0
 40
8.0
  1
60'
 50
358.118569
  7
ROMANS
210
0.0
220
0.0
230
1.0
  0
TEXT
  8
-11
  6
CONTINUOUS
 62
     7
  5
46D
 10
968670.104
 20
7257580.551
 30
0.0
 40
8.0
  1
60'
 50
358.118569
  7
ROMANS
210
0.0
220
0.0
230
1.0
  0
TEXT
  8
-11
  6
CONTINUOUS
 62
     7
  5
46E
 10
968731.358
 20
7257579.999
 30
0.0
 40
8.0
  1
60'
 50
358.118569
  7
ROMANS
210
0.0
220
0.0
230
1.0
  0
TEXT
  8
-11
  6
CONTINUOUS
 62
     7
  5
46F
 10
968788.213
 20
7257578.861
 30
0.0
 40
8.0
  1
60'
 50
358.118569
  7
ROMANS
210
0.0
220
0.0
230
1.0
  0
TEXT
  8
-11
  6
CONTINUOUS
 62
     7
  5
470
 10
968848.713
 20
7257577.605
 30
0.0
 40
8.0
  1
60'
 50
358.118569
  7
ROMANS
210
0.0
220
0.0
230
1.0
  0
TEXT
  8
-11
  6
CONTINUOUS
 62
     7
  5
471
 10
968916.472
 20
7257575.378
 30
0.0
 40
8.0
  1
60'
 50
358.118569
  7
ROMANS
210
0.0
220
0.0
230
1.0
  0
TEXT
  8
-11
  6
CONTINUOUS
 62
     7
  5
472
 10
968361.843
 20
7257344.695
 30
0.0
 40
8.0
  1
60'
 50
358.118569
  7
ROMANS
210
0.0
220
0.0
230
1.0
  0
TEXT
  8
-11
  6
CONTINUOUS
 62
     7
  5
473
 10
968425.257
 20
7257343.342
 30
0.0
 40
8.0
  1
60'
 50
358.118569
  7
ROMANS
210
0.0
220
0.0
230
1.0
  0
TEXT
  8
-11
  6
CONTINUOUS
 62
     7
  5
474
 10
968485.756
 20
7257342.083
 30
0.0
 40
8.0
  1
60'
 50
358.118569
  7
ROMANS
210
0.0
220
0.0
230
1.0
  0
TEXT
  8
-11
  6
CONTINUOUS
 62
     7
  5
475
 10
968544.092
 20
7257341.627
 30
0.0
 40
8.0
  1
60'
 50
358.118569
  7
ROMANS
210
0.0
220
0.0
230
1.0
  0
TEXT
  8
-11
  6
CONTINUOUS
 62
     7
  5
476
 10
968605.345
 20
7257341.075
 30
0.0
 40
8.0
  1
60'
 50
358.118569
  7
ROMANS
210
0.0
220
0.0
230
1.0
  0
TEXT
  8
-11
  6
CONTINUOUS
 62
     7
  5
477
 10
968667.301
 20
7257339.77
 30
0.0
 40
8.0
  1
60'
 50
358.118569
  7
ROMANS
210
0.0
220
0.0
230
1.0
  0
TEXT
  8
-11
  6
CONTINUOUS
 62
     7
  5
478
 10
968724.158
 20
7257338.631
 30
0.0
 40
8.0
  1
60'
 50
358.118569
  7
ROMANS
210
0.0
220
0.0
230
1.0
  0
TEXT
  8
-11
  6
CONTINUOUS
 62
     7
  5
479
 10
968783.928
 20
7257337.399
 30
0.0
 40
8.0
  1
60'
 50
358.118569
  7
ROMANS
210
0.0
220
0.0
230
1.0
  0
TEXT
  8
-11
  6
CONTINUOUS
 62
     7
  5
47A
 10
968844.426
 20
7257336.14
 30
0.0
 40
8.0
  1
60'
 50
358.118569
  7
ROMANS
210
0.0
220
0.0
230
1.0
  0
TEXT
  8
-11
  6
CONTINUOUS
 62
     7
  5
47B
 10
968908.543
 20
7257334.035
 30
0.0
 40
8.0
  1
60'
 50
358.118569
  7
ROMANS
210
0.0
220
0.0
230
1.0
  0
TEXT
  8
-11
  6
CONTINUOUS
 62
     7
  5
47C
 10
968344.351
 20
7257523.345
 30
0.0
 40
8.0
  1
105'
 50
88.118569
  7
ROMANS
210
0.0
220
0.0
230
1.0
  0
TEXT
  8
-11
  6
CONTINUOUS
 62
     7
  5
47D
 10
968958.159
 20
7257512.67
 30
0.0
 40
8.0
  1
105'
 50
88.118569
  7
ROMANS
210
0.0
220
0.0
230
1.0
  0
TEXT
  8
-11
  6
CONTINUOUS
 62
     7
  5
47E
 10
968955.256
 20
7257379.92
 30
0.0
 40
8.0
  1
105'
 50
88.118569
  7
ROMANS
210
0.0
220
0.0
230
1.0
  0
TEXT
  8
-11
  6
CONTINUOUS
 62
     7
  5
47F
 10
968341.45
 20
7257390.594
 30
0.0
 40
8.0
  1
105'
 50
88.118569
  7
ROMANS
210
0.0
220
0.0
230
1.0
  0
TEXT
  8
-11
  6
CONTINUOUS
 62
     7
  5
480
 10
968403.488
 20
7257525.051
 30
0.0
 40
8.0
  1
120'
 50
88.118569
  7
ROMANS
210
0.0
220
0.0
230
1.0
  0
TEXT
  8
-11
  6
CONTINUOUS
 62
     7
  5
481
 10
968882.406
 20
7257515.888
 30
0.0
 40
8.0
  1
120'
 50
88.118569
  7
ROMANS
210
0.0
220
0.0
230
1.0
  0
TEXT
  8
-11
  6
CONTINUOUS
 62
     7
  5
482
 10
968879.433
 20
7257380.952
 30
0.0
 40
8.0
  1
120'
 50
88.118569
  7
ROMANS
210
0.0
220
0.0
230
1.0
  0
TEXT
  8
-11
  6
CONTINUOUS
 62
     7
  5
483
 10
968399.834
 20
7257391.597
 30
0.0
 40
8.0
  1
120'
 50
88.118569
  7
ROMANS
210
0.0
220
0.0
230
1.0
  0
TEXT
  8
-11
  6
CONTINUOUS
 62
     7
  5
484
 10
968339.472
 20
7257463.651
 30
0.0
 40
8.0
  1
20'
 50
88.118569
  7
ROMANS
210
0.0
220
0.0
230
1.0
  0
TEXT
  8
-11
  6
CONTINUOUS
 62
     7
  5
485
 10
968959.012
 20
7257449.869
 30
0.0
 40
8.0
  1
20'
 50
88.118569
  7
ROMANS
210
0.0
220
0.0
230
1.0
  0
TEXT
  8
-11
  6
CONTINUOUS
 62
     7
  5
486
 10
968344.798
 20
7257292.674
 30
0.0
 40
8.0
  1
56.38'
 50
88.118569
  7
ROMANS
210
0.0
220
0.0
230
1.0
  0
TEXT
  8
-11
  6
CONTINUOUS
 62
     7
  5
487
 10
969032.416
 20
7257294.173
 30
0.0
 40
8.0
  1
56'
 50
88.118569
  7
ROMANS
210
0.0
220
0.0
230
1.0
  0
TEXT
  8
-11
  6
CONTINUOUS
 62
     7
  5
488
 10
968981.365
 20
7257338.209
 30
0.0
 40
8.0
  1
56'
 50
358.118569
  7
ROMANS
210
0.0
220
0.0
230
1.0
  0
TEXT
  8
-11
  6
CONTINUOUS
 62
     7
  5
489
 10
969048.935
 20
7257330.151
 30
0.0
 40
8.0
  1
60'
 50
358.118569
  7
ROMANS
210
0.0
220
0.0
230
1.0
  0
TEXT
  8
-11
  6
CONTINUOUS
 62
     7
  5
48A
 10
969049.648
 20
7257573.921
 30
0.0
 40
8.0
  1
60'
 50
358.118569
  7
ROMANS
210
0.0
220
0.0
230
1.0
  0
TEXT
  8
-11
  6
CONTINUOUS
 62
     7
  5
48B
 10
969029.447
 20
7257514.706
 30
0.0
 40
8.0
  1
105'
 50
88.118569
  7
ROMANS
210
0.0
220
0.0
230
1.0
  0
TEXT
  8
-11
  6
CONTINUOUS
 62
     7
  5
48C
 10
969028.517
 20
7257375.322
 30
0.0
 40
8.0
  1
105'
 50
88.118569
  7
ROMANS
210
0.0
220
0.0
230
1.0
  0
TEXT
  8
-11
  6
CONTINUOUS
 62
     7
  5
48D
 10
969086.807
 20
7257373.407
 30
0.0
 40
8.0
  1
120'
 50
88.118569
  7
ROMANS
210
0.0
220
0.0
230
1.0
  0
TEXT
  8
-11
  6
CONTINUOUS
 62
     7
  5
48E
 10
969087.01
 20
7257512.815
 30
0.0
 40
8.0
  1
120'
 50
88.118569
  7
ROMANS
210
0.0
220
0.0
230
1.0
  0
TEXT
  8
-11
  6
CONTINUOUS
 62
     7
  5
48F
 10
968992.916
 20
7257970.465
 30
0.0
 40
8.0
  1
56'
 50
358.118569
  7
ROMANS
210
0.0
220
0.0
230
1.0
  0
TEXT
  8
-11
  6
CONTINUOUS
 62
     7
  5
490
 10
969053.829
 20
7257648.758
 30
0.0
 40
8.0
  1
60'
 50
358.118569
  7
ROMANS
210
0.0
220
0.0
230
1.0
  0
TEXT
  8
-11
  6
CONTINUOUS
 62
     7
  5
491
 10
968931.911
 20
7258067.358
 30
0.0
 40
8.0
  1
75'
 50
358.118569
  7
ROMANS
210
0.0
220
0.0
230
1.0
  0
TEXT
  8
-11
  6
CONTINUOUS
 62
     7
  5
492
 10
968930.242
 20
7258105.369
 30
0.0
 40
8.0
  1
75'
 50
358.118569
  7
ROMANS
210
0.0
220
0.0
230
1.0
  0
TEXT
  8
-11
  6
CONTINUOUS
 62
     7
  5
493
 10
968376.156
 20
7258113.351
 30
0.0
 40
8.0
  1
75'
 50
358.118569
  7
ROMANS
210
0.0
220
0.0
230
1.0
  0
TEXT
  8
-11
  6
CONTINUOUS
 62
     7
  5
494
 10
968377.826
 20
7258075.341
 30
0.0
 40
8.0
  1
75'
 50
358.118569
  7
ROMANS
210
0.0
220
0.0
230
1.0
  0
TEXT
  8
-11
  6
CONTINUOUS
 62
     7
  5
495
 10
968359.883
 20
7257484.693
 30
0.0
 40
8.0
  1
75'
 50
358.118569
  7
ROMANS
210
0.0
220
0.0
230
1.0
  0
TEXT
  8
-11
  6
CONTINUOUS
 62
     7
  5
496
 10
968358.638
 20
7257446.78
 30
0.0
 40
8.0
  1
75'
 50
358.118569
  7
ROMANS
210
0.0
220
0.0
230
1.0
  0
TEXT
  8
-11
  6
CONTINUOUS
 62
     7
  5
497
 10
968914.085
 20
7257435.833
 30
0.0
 40
8.0
  1
75'
 50
358.118569
  7
ROMANS
210
0.0
220
0.0
230
1.0
  0
TEXT
  8
-11
  6
CONTINUOUS
 62
     7
  5
498
 10
968912.415
 20
7257473.844
 30
0.0
 40
8.0
  1
75'
 50
358.118569
  7
ROMANS
210
0.0
220
0.0
230
1.0
  0
TEXT
  8
-11
  6
CONTINUOUS
 62
     7
  5
499
 10
969045.119
 20
7257472.404
 30
0.0
 40
8.0
  1
75'
 50
358.118569
  7
ROMANS
210
0.0
220
0.0
230
1.0
  0
TEXT
  8
-11
  6
CONTINUOUS
 62
     7
  5
49A
 10
969045.284
 20
7257432.982
 30
0.0
 40
8.0
  1
75'
 50
358.118569
  7
ROMANS
210
0.0
220
0.0
230
1.0
  0
TEXT
  8
-11
  6
CONTINUOUS
 62
     7
  5
49B
 10
969051.048
 20
7257786.075
 30
0.0
 40
8.0
  1
75'
 50
358.118569
  7
ROMANS
210
0.0
220
0.0
230
1.0
  0
TEXT
  8
-11
  6
CONTINUOUS
 62
     7
  5
49C
 10
969052.806
 20
7257749.933
 30
0.0
 40
8.0
  1
75'
 50
358.118569
  7
ROMANS
210
0.0
220
0.0
230
1.0
  0
TEXT
  8
-11
  6
CONTINUOUS
 62
     7
  5
49D
 10
969058.691
 20
7258063.193
 30
0.0
 40
8.0
  1
75'
 50
358.118569
  7
ROMANS
210
0.0
220
0.0
230
1.0
  0
TEXT
  8
-11
  6
CONTINUOUS
 62
     7
  5
49E
 10
969059.985
 20
7258102.568
 30
0.0
 40
8.0
  1
75'
 50
358.118569
  7
ROMANS
210
0.0
220
0.0
230
1.0
  0
TEXT
  8
-11
  6
CONTINUOUS
 62
     7
  5
49F
 10
969028.823
 20
7257449.404
 30
0.0
 40
8.0
  1
20'
 50
88.118569
  7
ROMANS
210
0.0
220
0.0
230
1.0
  0
TEXT
  8
-11
  6
CONTINUOUS
 62
     7
  5
4A0
 10
969033.98
 20
7257764.956
 30
0.0
 40
8.0
  1
20'
 50
88.118569
  7
ROMANS
210
0.0
220
0.0
230
1.0
  0
TEXT
  8
-11
  6
CONTINUOUS
 62
     7
  5
4A1
 10
969039.143
 20
7258080.655
 30
0.0
 40
8.0
  1
20'
 50
88.118569
  7
ROMANS
210
0.0
220
0.0
230
1.0
  0
TEXT
  8
-11
  6
CONTINUOUS
 62
     7
  5
4A2
 10
969033.792
 20
7257691.462
 30
0.0
 40
8.0
  1
105'
 50
88.118569
  7
ROMANS
210
0.0
220
0.0
230
1.0
  0
TEXT
  8
-11
  6
CONTINUOUS
 62
     7
  5
4A3
 10
969035.265
 20
7257826.935
 30
0.0
 40
8.0
  1
105'
 50
88.118569
  7
ROMANS
210
0.0
220
0.0
230
1.0
  0
TEXT
  8
-11
  6
CONTINUOUS
 62
     7
  5
4A4
 10
969039.717
 20
7258007.734
 30
0.0
 40
8.0
  1
105'
 50
88.118569
  7
ROMANS
210
0.0
220
0.0
230
1.0
  0
TEXT
  8
-11
  6
CONTINUOUS
 62
     7
  5
4A5
 10
969041.908
 20
7258142.438
 30
0.0
 40
8.0
  1
105'
 50
88.118569
  7
ROMANS
210
0.0
220
0.0
230
1.0
  0
TEXT
  8
-11
  6
CONTINUOUS
 62
     7
  5
4A6
 10
969102.238
 20
7258144.18
 30
0.0
 40
8.0
  1
120'
 50
88.118569
  7
ROMANS
210
0.0
220
0.0
230
1.0
  0
TEXT
  8
-11
  6
CONTINUOUS
 62
     7
  5
4A7
 10
969097.791
 20
7258008.804
 30
0.0
 40
8.0
  1
120'
 50
88.118569
  7
ROMANS
210
0.0
220
0.0
230
1.0
  0
TEXT
  8
-11
  6
CONTINUOUS
 62
     7
  5
4A8
 10
969094.085
 20
7257827.982
 30
0.0
 40
8.0
  1
120'
 50
88.118569
  7
ROMANS
210
0.0
220
0.0
230
1.0
  0
TEXT
  8
-11
  6
CONTINUOUS
 62
     7
  5
4A9
 10
969093.231
 20
7257688.765
 30
0.0
 40
8.0
  1
120'
 50
88.118569
  7
ROMANS
210
0.0
220
0.0
230
1.0
  0
TEXT
  8
-11
  6
CONTINUOUS
 62
     7
  5
4AA
 10
969073.166
 20
7258520.677
 30
0.0
 40
8.0
  1
60'
 50
358.118569
  7
ROMANS
210
0.0
220
0.0
230
1.0
  0
TEXT
  8
-11
  6
CONTINUOUS
 62
     7
  5
4AB
 10
969065.922
 20
7258277.423
 30
0.0
 40
8.0
  1
60'
 50
358.118569
  7
ROMANS
210
0.0
220
0.0
230
1.0
  0
TEXT
  8
-11
  6
CONTINUOUS
 62
     7
  5
4AC
 10
969064.295
 20
7258205.248
 30
0.0
 40
8.0
  1
60'
 50
358.118569
  7
ROMANS
210
0.0
220
0.0
230
1.0
  0
TEXT
  8
-11
  6
CONTINUOUS
 62
     7
  5
4AD
 10
969057.053
 20
7257961.809
 30
0.0
 40
8.0
  1
60'
 50
358.118569
  7
ROMANS
210
0.0
220
0.0
230
1.0
  0
TEXT
  8
-11
  6
CONTINUOUS
 62
     7
  5
4AE
 10
969058.45
 20
7257891.022
 30
0.0
 40
8.0
  1
60'
 50
358.118569
  7
ROMANS
210
0.0
220
0.0
230
1.0
  0
TEXT
  8
-11
  6
CONTINUOUS
 62
     7
  5
4AF
 10
969047.094
 20
7258456.657
 30
0.0
 40
8.0
  1
105'
 50
88.118569
  7
ROMANS
210
0.0
220
0.0
230
1.0
  0
TEXT
  8
-11
  6
CONTINUOUS
 62
     7
  5
4B0
 10
969046.435
 20
7258323.391
 30
0.0
 40
8.0
  1
105'
 50
88.118569
  7
ROMANS
210
0.0
220
0.0
230
1.0
  0
TEXT
  8
-11
  6
CONTINUOUS
 62
     7
  5
4B1
 10
969107.436
 20
7258322.876
 30
0.0
 40
8.0
  1
120'
 50
88.118569
  7
ROMANS
210
0.0
220
0.0
230
1.0
  0
TEXT
  8
-11
  6
CONTINUOUS
 62
     7
  5
4B2
 10
969108.885
 20
7258457.606
 30
0.0
 40
8.0
  1
120'
 50
88.118569
  7
ROMANS
210
0.0
220
0.0
230
1.0
  0
TEXT
  8
-11
  6
CONTINUOUS
 62
     7
  5
4B3
 10
969067.541
 20
7258416.707
 30
0.0
 40
8.0
  1
75'
 50
358.118569
  7
ROMANS
210
0.0
220
0.0
230
1.0
  0
TEXT
  8
-11
  6
CONTINUOUS
 62
     7
  5
4B4
 10
969067.83
 20
7258380.211
 30
0.0
 40
8.0
  1
75'
 50
358.118569
  7
ROMANS
210
0.0
220
0.0
230
1.0
  0
TEXT
  8
-11
  6
CONTINUOUS
 62
     7
  5
4B5
 10
969071.682
 20
7258692.416
 30
0.0
 40
8.0
  1
75'
 50
358.118569
  7
ROMANS
210
0.0
220
0.0
230
1.0
  0
TEXT
  8
-11
  6
CONTINUOUS
 62
     7
  5
4B6
 10
969073.092
 20
7258735.329
 30
0.0
 40
8.0
  1
75'
 50
358.118569
  7
ROMANS
210
0.0
220
0.0
230
1.0
  0
TEXT
  8
-11
  6
CONTINUOUS
 62
     7
  5
4B7
 10
969114.9
 20
7258773.065
 30
0.0
 40
8.0
  1
120'
 50
88.118569
  7
ROMANS
210
0.0
220
0.0
230
1.0
  0
TEXT
  8
-11
  6
CONTINUOUS
 62
     7
  5
4B8
 10
969110.621
 20
7258642.852
 30
0.0
 40
8.0
  1
120'
 50
88.118569
  7
ROMANS
210
0.0
220
0.0
230
1.0
  0
TEXT
  8
-11
  6
CONTINUOUS
 62
     7
  5
4B9
 10
968271.978
 20
7258352.636
 30
0.0
 40
8.0
  1
55'
 50
88.118569
  7
ROMANS
210
0.0
220
0.0
230
1.0
  0
TEXT
  8
-11
  6
CONTINUOUS
 62
     7
  5
4BA
 10
968269.461
 20
7258295.227
 30
0.0
 40
8.0
  1
55'
 50
88.118569
  7
ROMANS
210
0.0
220
0.0
230
1.0
  0
TEXT
  8
-11
  6
CONTINUOUS
 62
     7
  5
4BB
 10
967817.13
 20
7257240.964
 30
0.0
 40
8.0
  1
37.5'
 50
356.767469
  7
ROMANS
210
0.0
220
0.0
230
1.0
  0
TEXT
  8
-15
  6
CONTINUOUS
 62
    30
  5
4BC
 10
965223.614
 20
7260894.795
 30
0.0
 40
50.0
  1

 50
27.9089
  7
ROMANC
 72
     4
 11
965223.614
 21
7260894.795
 31
0.0
210
0.0
220
0.0
230
1.0
  0
TEXT
  8
-15
  6
CONTINUOUS
 62
    30
  5
4BD
 10
965815.954
 20
7259249.395
 30
0.0
 40
50.0
  1

 50
27.9089
  7
ROMANC
 72
     4
 11
965815.954
 21
7259249.395
 31
0.0
210
0.0
220
0.0
230
1.0
  0
TEXT
  8
-15
  6
CONTINUOUS
 62
    30
  5
4BE
 10
966010.378
 20
7256987.848
 30
0.0
 40
12.5
  1

 50
27.9089
  7
ROMANC
 72
     4
 11
966010.378
 21
7256987.848
 31
0.0
210
0.0
220
0.0
230
1.0
  0
TEXT
  8
-15
  6
CONTINUOUS
 62
    30
  5
4BF
 10
968539.77
 20
7258617.056
 30
0.0
 40
50.0
  1
YELLOW
 50
28.828275
  7
ROMANC
 72
     4
 11
968670.845722
 21
7258717.736316
 31
0.0
210
0.0
220
0.0
230
1.0
  0
TEXT
  8
-15
  6
CONTINUOUS
 62
    30
  5
4C0
 10
968525.395
 20
7258018.219
 30
0.0
 40
50.0
  1
HOUSE
 50
28.828275
  7
ROMANC
 72
     4
 11
968631.291628
 21
7258105.040806
 31
0.0
210
0.0
220
0.0
230
1.0
  0
TEXT
  8
-15
  6
CONTINUOUS
 62
    30
  5
4C1
 10
968524.671
 20
7257351.601
 30
0.0
 40
50.0
  1
CANYON
 50
28.828275
  7
ROMANC
 72
     4
 11
968658.503711
 21
7257453.798755
 31
0.0
210
0.0
220
0.0
230
1.0
  0
TEXT
  8
-11
  6
CONTINUOUS
 62
     7
  5
4C2
 10
965137.444
 20
7262119.468
 30
0.0
 40
8.0
  1
2511.27'
 50
357.9089
  7
ROMANS
 72
     4
 11
965166.90342
 21
7262122.39502
 31
0.0
210
0.0
220
0.0
230
1.0
  0
TEXT
  8
-11
  6
CONTINUOUS
 62
     7
  5
4C3
 10
967594.456
 20
7262072.59
 30
0.0
 40
8.0
  1
719.45'
 50
357.9089
  7
ROMANS
 72
     4
 11
967619.918084
 21
7262075.662974
 31
0.0
210
0.0
220
0.0
230
1.0
  0
TEXT
  8
-11
  6
CONTINUOUS
 62
     7
  5
4C4
 10
968615.661
 20
7262030.721
 30
0.0
 40
8.0
  1
1095.53'
 50
357.9089
  7
ROMANS
 72
     4
 11
968645.12042
 21
7262033.64802
 31
0.0
210
0.0
220
0.0
230
1.0
  0
TEXT
  8
-11
  6
CONTINUOUS
 62
     7
  5
4C5
 10
968004.116
 20
7260710.819
 30
0.0
 40
8.0
  1
2968.01'
 50
88.9089
  7
ROMANS
 72
     4
 11
968000.675288
 21
7260740.22285
 31
0.0
210
0.0
220
0.0
230
1.0
  0
TEXT
  8
-11
  6
CONTINUOUS
 62
     7
  5
4C6
 10
968092.528
 20
7260708.839
 30
0.0
 40
8.0
  1
3098.64'
 50
88.9089
  7
ROMANS
 72
     4
 11
968089.087288
 21
7260738.24285
 31
0.0
210
0.0
220
0.0
230
1.0
  0
TEXT
  8
-11
  6
CONTINUOUS
 62
     7
  5
4C7
 10
967958.153
 20
7258989.309
 30
0.0
 40
8.0
  1
219.63'
 50
87.9089
  7
ROMANS
 72
     4
 11
967955.080026
 21
7259014.771084
 31
0.0
210
0.0
220
0.0
230
1.0
  0
TEXT
  8
-11
  6
CONTINUOUS
 62
     7
  5
4C8
 10
967921.537
 20
7258429.663
 30
0.0
 40
8.0
  1
417.59'
 50
88.828275
  7
ROMANS
 72
     4
 11
967918.055892
 21
7258455.073499
 31
0.0
210
0.0
220
0.0
230
1.0
  0
TEXT
  8
-11
  6
CONTINUOUS
 62
     7
  5
4C9
 10
968272.741
 20
7257738.871
 30
0.0
 40
8.0
  1
934.49'
 50
88.828275
  7
ROMANS
 72
     4
 11
968269.259892
 21
7257764.281499
 31
0.0
210
0.0
220
0.0
230
1.0
  0
TEXT
  8
-11
  6
CONTINUOUS
 62
     7
  5
4CA
 10
968697.632
 20
7258913.156
 30
0.0
 40
8.0
  1
738.81'
 50
358.828275
  7
ROMANS
 72
     4
 11
968723.042499
 21
7258916.637108
 31
0.0
210
0.0
220
0.0
230
1.0
  0
TEXT
  8
-11
  6
CONTINUOUS
 62
     7
  5
4CB
 10
968644.889
 20
7257265.417
 30
0.0
 40
8.0
  1
839.77'
 50
358.828275
  7
ROMANS
 72
     4
 11
968670.299499
 21
7257268.898108
 31
0.0
210
0.0
220
0.0
230
1.0
  0
TEXT
  8
-11
  6
CONTINUOUS
 62
     7
  5
4CC
 10
964522.37
 20
7259083.75
 30
0.0
 40
8.0
  1
2
 50
307.683969
  7
ROMANS
 72
     1
 11
964530.127333
 21
7259086.794122
 31
0.0
210
0.0
220
0.0
230
1.0
 73
     3
  0
TEXT
  8
-11
  6
CONTINUOUS
 62
     7
  5
4CD
 10
964527.223
 20
7259077.47
 30
0.0
 40
8.0
  1
1
 50
307.683969
  7
ROMANS
 72
     1
 11
964534.369027
 21
7259081.305516
 31
0.0
210
0.0
220
0.0
230
1.0
 73
     3
  0
TEXT
  8
-11
  6
CONTINUOUS
 62
     7
  5
4CE
 10
964532.074
 20
7259071.188
 30
0.0
 40
8.0
  1
6
 50
307.683969
  7
ROMANS
 72
     1
 11
964539.945647
 21
7259074.084131
 31
0.0
210
0.0
220
0.0
230
1.0
 73
     3
  0
TEXT
  8
-11
  6
CONTINUOUS
 62
     7
  5
4CF
 10
964536.927
 20
7259064.906
 30
0.0
 40
8.0
  1
5
 50
307.683969
  7
ROMANS
 72
     1
 11
964544.691057
 21
7259067.941416
 31
0.0
210
0.0
220
0.0
230
1.0
 73
     3
  0
TEXT
  8
-11
  6
CONTINUOUS
 62
     7
  5
4D0
 10
964541.778
 20
7259058.625
 30
0.0
 40
8.0
  1
.
 50
307.683969
  7
ROMANS
 72
     1
 11
964548.917303
 21
7259062.469221
 31
0.0
210
0.0
220
0.0
230
1.0
 73
     3
  0
TEXT
  8
-11
  6
CONTINUOUS
 62
     7
  5
4D1
 10
964546.631
 20
7259052.343
 30
0.0
 40
8.0
  1
0
 50
307.683969
  7
ROMANS
 72
     1
 11
964554.582728
 21
7259055.135458
 31
0.0
210
0.0
220
0.0
230
1.0
 73
     3
  0
TEXT
  8
-11
  6
CONTINUOUS
 62
     7
  5
4D2
 10
964551.482
 20
7259046.063
 30
0.0
 40
8.0
  1
1
 50
307.683969
  7
ROMANS
 72
     1
 11
964558.628027
 21
7259049.898516
 31
0.0
210
0.0
220
0.0
230
1.0
 73
     3
  0
TEXT
  8
-11
  6
CONTINUOUS
 62
     7
  5
4D3
 10
964556.333
 20
7259039.782
 30
0.0
 40
8.0
  1
'
 50
307.683969
  7
ROMANS
 72
     1
 11
964563.479027
 21
7259043.617516
 31
0.0
210
0.0
220
0.0
230
1.0
 73
     3
  0
LINE
  8
-21
  6
DASHDOT
 62
     7
  5
4D5
 10
963940.327
 20
7262180.354
 30
0.0
 11
964059.737
 21
7261592.152
 31
0.0
  0
LINE
  8
-21
  6
DASHDOT
 62
     7
  5
4D6
 10
963938.994
 20
7262136.658
 30
0.0
 11
964049.703
 21
7261591.321
 31
0.0
  0
LINE
  8
-21
  6
DASHDOT
 62
     7
  5
4D7
 10
964059.737
 20
7261592.152
 30
0.0
 11
964052.133
 21
7261373.434
 31
0.0
  0
LINE
  8
-21
  6
DASHDOT
 62
     7
  5
4D8
 10
964049.703
 20
7261591.321
 30
0.0
 11
964042.302
 21
7261378.453
 31
0.0
  0
LINE
  8
-21
  6
DASHDOT
 62
     7
  5
4D9
 10
964052.133
 20
7261373.434
 30
0.0
 11
964003.271
 21
7261335.383
 31
0.0
  0
LINE
  8
-21
  6
DASHDOT
 62
     7
  5
4DA
 10
964042.302
 20
7261378.453
 30
0.0
 11
963997.128
 21
7261343.274
 31
0.0
  0
LINE
  8
-21
  6
DASHDOT
 62
     7
  5
4DB
 10
963997.128
 20
7261343.274
 30
0.0
 11
964003.271
 21
7261335.383
 31
0.0
  0
TEXT
  8
-22
  6
CONTINUOUS
 62
     3
  5
4DD
 10
964023.311
 20
7261332.299
 30
0.0
 40
8.0
  1
61.93'
 50
37.909092
  7
ROMANS
210
0.0
220
0.0
230
1.0
  0
TEXT
  8
-22
  6
CONTINUOUS
 62
     3
  5
4DE
 10
963995.065
 20
7261940.875
 30
0.0
 40
8.0
  1
600.20'  S13%%d34'E
 50
281.475578
  7
ROMANS
210
0.0
220
0.0
230
1.0
  0
TEXT
  8
-22
  6
CONTINUOUS
 62
     3
  5
4DF
 10
964066.636
 20
7261425.91
 30
0.0
 40
8.0
  1
218.85   S0%%d06'E
 50
87.9089
  7
ROMANS
210
0.0
220
0.0
230
1.0
  0
LINE
  8
-21
  6
DASHDOT
 62
     7
  5
4E0
 10
968237.857
 20
7258810.426
 30
0.0
 11
968237.585
 21
7258699.925
 31
0.0
  0
TEXT
  8
-22
  6
CONTINUOUS
 62
     3
  5
4E1
 10
968233.676
 20
7258712.571
 30
0.0
 40
8.0
  1
10' PVT ESMT
 50
88.828275
  7
ROMANS
210
0.0
220
0.0
230
1.0
  0
TEXT
  8
-22
  6
CONTINUOUS
 62
     3
  5
4E2
 10
967059.17
 20
7258121.471
 30
0.0
 40
8.0
  1
OVERHEAD ELECTRICAL TRANSMISSION LINE EASEMENT
 50
87.9089
  7
ROMANS
210
0.0
220
0.0
230
1.0
  0
LINE
  8
-21
  6
DASHDOT
 62
     7
  5
4E3
 10
966222.696
 20
7257979.312
 30
0.0
 11
966857.739
 21
7257492.772
 31
0.0
  0
LINE
  8
-21
  6
DASHDOT
 62
     7
  5
4E4
 10
966238.774
 20
7258004.787
 30
0.0
 11
966876.569
 21
7257516.138
 31
0.0
  0
LINE
  8
-21
  6
DASHDOT
 62
     7
  5
4E5
 10
966857.739
 20
7257492.772
 30
0.0
 11
966875.983
 21
7257516.586
 31
0.0
  0
TEXT
  8
-22
  6
CONTINUOUS
 62
     3
  5
4E6
 10
966490.284
 20
7257789.477
 30
0.0
 40
8.0
  1
30' DRAINAGE EASEMENT
 50
322.542272
  7
ROMANS
210
0.0
220
0.0
230
1.0
  0
TEXT
  8
-22
  6
CONTINUOUS
 62
     3
  5
4E7
 10
966491.684
 20
7257756.076
 30
0.0
 40
8.0
  1
S54%%d38'E   800'
 50
322.542289
  7
ROMANS
210
0.0
220
0.0
230
1.0
  0
LINE
  8
-21
  6
DASHDOT
 62
     7
  5
4E8
 10
967057.591
 20
7258787.154
 30
0.0
 11
967042.597
 21
7258787.516
 31
0.0
  0
TEXT
  8
-22
  6
CONTINUOUS
 62
     3
  5
4E9
 10
967094.728
 20
7258273.202
 30
0.0
 40
8.0
  1
2565.84'
 50
87.9089
  7
ROMANS
210
0.0
220
0.0
230
1.0
  0
TEXT
  8
-22
  6
CONTINUOUS
 62
     3
  5
4EA
 10
967041.085
 20
7258270.139
 30
0.0
 40
8.0
  1
3164.67'
 50
87.9089
  7
ROMANS
210
0.0
220
0.0
230
1.0
  0
TEXT
  8
-22
  6
CONTINUOUS
 62
     3
  5
4EB
 10
967057.194
 20
7257978.264
 30
0.0
 40
8.0
  1
6.0541 ACRES
 50
87.9089
  7
ROMANS
210
0.0
220
0.0
230
1.0
  0
TEXT
  8
-22
  6
CONTINUOUS
 62
     3
  5
4EC
 10
967161.007
 20
7260992.421
 30
0.0
 40
8.0
  1
2183.73'
 50
87.9089
  7
ROMANS
210
0.0
220
0.0
230
1.0
  0
TEXT
  8
-22
  6
CONTINUOUS
 62
     3
  5
4ED
 10
967125.773
 20
7261081.216
 30
0.0
 40
8.0
  1
OVERHEAD TRANSMISSION LINE EASEMENT
 50
87.9089
  7
ROMANS
210
0.0
220
0.0
230
1.0
  0
TEXT
  8
-22
  6
CONTINUOUS
 62
     3
  5
4EE
 10
966153.824
 20
7256908.559
 30
0.0
 40
8.0
  1
50.22'
 50
357.9089
  7
ROMANS
210
0.0
220
0.0
230
1.0
  0
TEXT
  8
-22
  6
CONTINUOUS
 62
     3
  5
4EF
 10
965830.876
 20
7256916.837
 30
0.0
 40
8.0
  1
141.6'
 50
357.9089
  7
ROMANS
210
0.0
220
0.0
230
1.0
  0
TEXT
  8
-22
  6
CONTINUOUS
 62
     3
  5
4F0
 10
966019.122
 20
7256912.16
 30
0.0
 40
8.0
  1
221.76'
 50
357.9089
  7
ROMANS
210
0.0
220
0.0
230
1.0
  0
TEXT
  8
-22
  6
CONTINUOUS
 62
     3
  5
4F1
 10
966006.246
 20
7256932.111
 30
0.0
 40
8.0
  1
10' UTILITY EASEMENT
 50
357.9089
  7
ROMANS
210
0.0
220
0.0
230
1.0
  0
POLYLINE
  8
-1
  6
HIDDEN
 62
   253
  5
4F3
 66
     1
 10
0.0
 20
0.0
 30
0.0
 70
     1
  0
VERTEX
  8
-1
  6
HIDDEN
 62
   253
  5
4F4
 10
964102.316
 20
7262199.828
 30
0.0
  0
VERTEX
  8
-1
  6
HIDDEN
 62
   253
  5
4F5
 10
969379.659
 20
7262032.338
 30
0.0
  0
VERTEX
  8
-1
  6
HIDDEN
 62
   253
  5
4F6
 10
969215.104
 20
7256786.197
 30
0.0
  0
VERTEX
  8
-1
  6
HIDDEN
 62
   253
  5
4F7
 10
963937.692
 20
7256951.479
 30
0.0
  0
SEQEND
  8
-1
  6
HIDDEN
 62
   253
  5
4F8
  0
TEXT
  8
-19
  6
CONTINUOUS
 62
     1
  5
4F9
 10
968063.924
 20
7260883.52
 30
0.0
 40
24.0
  1
OLIVE   AVE
 50
88.9089
  7
ROMANC
 72
     4
 11
968054.538528
 21
7261020.911631
 31
0.0
210
0.0
220
0.0
230
1.0
  0
TEXT
  8
-19
  6
CONTINUOUS
 62
     1
  5
4FA
 10
967963.704
 20
7258265.334
 30
0.0
 40
24.0
  1
OLIVE   AVE
 50
88.828275
  7
ROMANC
 72
     4
 11
967954.511871
 21
7258402.738702
 31
0.0
210
0.0
220
0.0
230
1.0
  0
TEXT
  8
-19
  6
CONTINUOUS
 62
     1
  5
4FB
 10
968331.45
 20
7258293.413
 30
0.0
 40
24.0
  1
PEACH AVE
 50
88.828275
  7
ROMANC
 72
     4
 11
968321.933284
 21
7258414.948021
 31
0.0
210
0.0
220
0.0
230
1.0
  0
TEXT
  8
-19
  6
CONTINUOUS
 62
     1
  5
4FC
 10
969012.677
 20
7258104.362
 30
0.0
 40
24.0
  1
QUETZEL AVE
 50
88.828275
  7
ROMANC
 72
     4
 11
969003.566013
 21
7258245.733872
 31
0.0
210
0.0
220
0.0
230
1.0
  0
TEXT
  8
-19
  6
CONTINUOUS
 62
     1
  5
4FD
 10
968599.339
 20
7258875.74
 30
0.0
 40
24.0
  1
E 60TH ST
 50
358.828275
  7
ROMANC
 72
     4
 11
968713.129641
 21
7258885.415114
 31
0.0
210
0.0
220
0.0
230
1.0
  0
TEXT
  8
-19
  6
CONTINUOUS
 62
     1
  5
4FE
 10
968564.253
 20
7258558.413
 30
0.0
 40
24.0
  1
E 61ST ST
 50
358.828275
  7
ROMANC
 72
     4
 11
968668.880557
 21
7258568.27553
 31
0.0
210
0.0
220
0.0
230
1.0
  0
TEXT
  8
-19
  6
CONTINUOUS
 62
     1
  5
4FF
 10
968549.911
 20
7258245.373
 30
0.0
 40
24.0
  1
E 62ND ST
 50
358.828275
  7
ROMANC
 72
     4
 11
968662.568878
 21
7258255.071283
 31
0.0
210
0.0
220
0.0
230
1.0
  0
TEXT
  8
-19
  6
CONTINUOUS
 62
     1
  5
500
 10
968544.542
 20
7257927.439
 30
0.0
 40
24.0
  1
E 63RD ST
 50
358.828275
  7
ROMANC
 72
     4
 11
968656.066115
 21
7257937.160472
 31
0.0
210
0.0
220
0.0
230
1.0
  0
TEXT
  8
-19
  6
CONTINUOUS
 62
     1
  5
501
 10
968534.687
 20
7257611.951
 30
0.0
 40
24.0
  1
E 64TH ST
 50
358.828275
  7
ROMANC
 72
     4
 11
968649.611404
 21
7257621.602925
 31
0.0
210
0.0
220
0.0
230
1.0
  0
TEXT
  8
-19
  6
CONTINUOUS
 62
     1
  5
502
 10
968529.32
 20
7257294.015
 30
0.0
 40
24.0
  1
E 65TH ST
 50
358.828275
  7
ROMANC
 72
     4
 11
968643.110641
 21
7257303.690114
 31
0.0
210
0.0
220
0.0
230
1.0
  0
LINE
  8
-6
  6
CONTINUOUS
 62
     7
  5
504
 10
969103.207
 20
7257265.784
 30
0.0
 11
968262.484
 21
7257287.384
 31
0.0
  0
LINE
  8
-6
  6
CONTINUOUS
 62
     7
  5
505
 10
969029.014
 20
7257640.133
 30
0.0
 11
969112.293
 21
7257637.944
 31
0.0
  0
LINE
  8
-6
  6
CONTINUOUS
 62
     7
  5
506
 10
969027.543
 20
7257584.152
 30
0.0
 11
969110.925
 21
7257581.961
 31
0.0
  0
LINE
  8
-6
  6
CONTINUOUS
 62
     7
  5
507
 10
969009.397
 20
7257464.587
 30
0.0
 11
969107.996
 21
7257461.998
 31
0.0
  0
LINE
  8
-6
  6
CONTINUOUS
 62
     7
  5
508
 10
969008.87
 20
7257444.594
 30
0.0
 11
969107.509
 21
7257442.002
 31
0.0
  0
LINE
  8
-6
  6
CONTINUOUS
 62
     7
  5
509
 10
969020.715
 20
7257324.241
 30
0.0
 11
969104.58
 21
7257322.037
 31
0.0
  0
LINE
  8
-6
  6
CONTINUOUS
 62
     7
  5
50A
 10
968366.678
 20
7258549.843
 30
0.0
 11
968966.473
 21
7258534.083
 31
0.0
  0
LINE
  8
-6
  6
CONTINUOUS
 62
     7
  5
50B
 10
968348.532
 20
7258430.279
 30
0.0
 11
968978.315
 21
7258413.731
 31
0.0
  0
LINE
  8
-6
  6
CONTINUOUS
 62
     7
  5
50C
 10
968348.006
 20
7258410.285
 30
0.0
 11
968977.79
 21
7258393.737
 31
0.0
  0
LINE
  8
-6
  6
CONTINUOUS
 62
     7
  5
50D
 10
968359.85
 20
7258289.932
 30
0.0
 11
968959.644
 21
7258274.173
 31
0.0
  0
LINE
  8
-6
  6
CONTINUOUS
 62
     7
  5
50E
 10
968358.38
 20
7258233.953
 30
0.0
 11
968958.172
 21
7258218.192
 31
0.0
  0
LINE
  8
-6
  6
CONTINUOUS
 62
     7
  5
50F
 10
968340.232
 20
7258114.387
 30
0.0
 11
968970.015
 21
7258097.839
 31
0.0
  0
LINE
  8
-6
  6
CONTINUOUS
 62
     7
  5
510
 10
968339.707
 20
7258094.395
 30
0.0
 11
968969.49
 21
7258077.846
 31
0.0
  0
LINE
  8
-6
  6
CONTINUOUS
 62
     7
  5
511
 10
968351.55
 20
7257974.041
 30
0.0
 11
968951.343
 21
7257958.281
 31
0.0
  0
LINE
  8
-6
  6
CONTINUOUS
 62
     7
  5
512
 10
968350.079
 20
7257918.06
 30
0.0
 11
968949.872
 21
7257902.301
 31
0.0
  0
LINE
  8
-6
  6
CONTINUOUS
 62
     7
  5
513
 10
968331.934
 20
7257798.496
 30
0.0
 11
968961.716
 21
7257781.948
 31
0.0
  0
LINE
  8
-6
  6
CONTINUOUS
 62
     7
  5
514
 10
968331.407
 20
7257778.503
 30
0.0
 11
968961.189
 21
7257761.954
 31
0.0
  0
LINE
  8
-6
  6
CONTINUOUS
 62
     7
  5
515
 10
968343.251
 20
7257658.15
 30
0.0
 11
968943.044
 21
7257642.39
 31
0.0
  0
LINE
  8
-6
  6
CONTINUOUS
 62
     7
  5
516
 10
968341.779
 20
7257602.169
 30
0.0
 11
968941.572
 21
7257586.41
 31
0.0
  0
LINE
  8
-6
  6
CONTINUOUS
 62
     7
  5
517
 10
968323.631
 20
7257482.605
 30
0.0
 11
968953.415
 21
7257466.057
 31
0.0
  0
LINE
  8
-6
  6
CONTINUOUS
 62
     7
  5
518
 10
968323.107
 20
7257462.612
 30
0.0
 11
968952.89
 21
7257446.063
 31
0.0
  0
LINE
  8
-6
  6
CONTINUOUS
 62
     7
  5
519
 10
968334.95
 20
7257342.258
 30
0.0
 11
968934.744
 21
7257326.499
 31
0.0
  0
LINE
  8
-6
  6
CONTINUOUS
 62
     7
  5
51A
 10
968981.073
 20
7258518.694
 30
0.0
 11
968978.315
 21
7258413.731
 31
0.0
  0
LINE
  8
-6
  6
CONTINUOUS
 62
     7
  5
51B
 10
968977.79
 20
7258393.737
 30
0.0
 11
968975.032
 21
7258288.773
 31
0.0
  0
LINE
  8
-6
  6
CONTINUOUS
 62
     7
  5
51C
 10
968972.773
 20
7258202.804
 30
0.0
 11
968970.015
 21
7258097.839
 31
0.0
  0
LINE
  8
-6
  6
CONTINUOUS
 62
     7
  5
51D
 10
968969.49
 20
7258077.846
 30
0.0
 11
968966.733
 21
7257972.883
 31
0.0
  0
LINE
  8
-6
  6
CONTINUOUS
 62
     7
  5
51E
 10
968956.172
 20
7257571.021
 30
0.0
 11
968953.415
 21
7257466.057
 31
0.0
  0
LINE
  8
-6
  6
CONTINUOUS
 62
     7
  5
51F
 10
968952.89
 20
7257446.063
 30
0.0
 11
968950.133
 21
7257341.099
 31
0.0
  0
LINE
  8
-6
  6
CONTINUOUS
 62
     7
  5
520
 10
969012.154
 20
7257569.551
 30
0.0
 11
969009.397
 21
7257464.587
 31
0.0
  0
LINE
  8
-6
  6
CONTINUOUS
 62
     7
  5
521
 10
969008.87
 20
7257444.594
 30
0.0
 11
969006.113
 21
7257339.63
 31
0.0
  0
LINE
  8
-6
  6
CONTINUOUS
 62
     7
  5
522
 10
968320.35
 20
7257357.648
 30
0.0
 11
968323.107
 21
7257462.612
 31
0.0
  0
LINE
  8
-6
  6
CONTINUOUS
 62
     7
  5
523
 10
968323.631
 20
7257482.605
 30
0.0
 11
968326.389
 21
7257587.568
 31
0.0
  0
LINE
  8
-6
  6
CONTINUOUS
 62
     7
  5
524
 10
968328.65
 20
7257673.539
 30
0.0
 11
968331.407
 21
7257778.503
 31
0.0
  0
LINE
  8
-6
  6
CONTINUOUS
 62
     7
  5
525
 10
968331.934
 20
7257798.496
 30
0.0
 11
968334.69
 21
7257903.459
 31
0.0
  0
LINE
  8
-6
  6
CONTINUOUS
 62
     7
  5
526
 10
968336.95
 20
7257989.43
 30
0.0
 11
968339.707
 21
7258094.395
 31
0.0
  0
LINE
  8
-6
  6
CONTINUOUS
 62
     7
  5
527
 10
968340.232
 20
7258114.387
 30
0.0
 11
968342.99
 21
7258219.351
 31
0.0
  0
LINE
  8
-6
  6
CONTINUOUS
 62
     7
  5
528
 10
968345.249
 20
7258305.321
 30
0.0
 11
968348.006
 21
7258410.285
 31
0.0
  0
LINE
  8
-6
  6
CONTINUOUS
 62
     7
  5
529
 10
968348.532
 20
7258430.279
 30
0.0
 11
968351.29
 21
7258535.243
 31
0.0
  0
LINE
  8
-6
  6
CONTINUOUS
 62
     7
  5
52A
 10
968964.473
 20
7257886.912
 30
0.0
 11
968961.716
 21
7257781.948
 31
0.0
  0
LINE
  8
-6
  6
CONTINUOUS
 62
     7
  5
52B
 10
968961.189
 20
7257761.954
 30
0.0
 11
968958.433
 21
7257656.991
 31
0.0
  0
LINE
  8
-7
  6
CONTINUOUS
 62
     7
  5
52C
 10
968423.506
 20
7258428.309
 30
0.0
 11
968426.659
 21
7258548.267
 31
0.0
  0
LINE
  8
-7
  6
CONTINUOUS
 62
     7
  5
52D
 10
968411.53
 20
7257972.465
 30
0.0
 11
968414.681
 21
7258092.425
 31
0.0
  0
LINE
  8
-7
  6
CONTINUOUS
 62
     7
  5
52E
 10
968415.207
 20
7258112.417
 30
0.0
 11
968418.359
 21
7258232.376
 31
0.0
  0
LINE
  8
-7
  6
CONTINUOUS
 62
     7
  5
52F
 10
968406.908
 20
7257796.528
 30
0.0
 11
968410.058
 21
7257916.484
 31
0.0
  0
LINE
  8
-7
  6
CONTINUOUS
 62
     7
  5
530
 10
968403.23
 20
7257656.575
 30
0.0
 11
968406.381
 21
7257776.533
 31
0.0
  0
LINE
  8
-7
  6
CONTINUOUS
 62
     7
  5
531
 10
968419.829
 20
7258288.356
 30
0.0
 11
968422.98
 21
7258408.316
 31
0.0
  0
LINE
  8
-7
  6
CONTINUOUS
 62
     7
  5
532
 10
968398.607
 20
7257480.636
 30
0.0
 11
968401.757
 21
7257600.593
 31
0.0
  0
LINE
  8
-7
  6
CONTINUOUS
 62
     7
  5
533
 10
968394.929
 20
7257340.682
 30
0.0
 11
968398.08
 21
7257460.642
 31
0.0
  0
LINE
  8
-7
  6
CONTINUOUS
 62
     7
  5
534
 10
968483.485
 20
7258426.732
 30
0.0
 11
968486.638
 21
7258546.69
 31
0.0
  0
LINE
  8
-7
  6
CONTINUOUS
 62
     7
  5
535
 10
968543.465
 20
7258425.156
 30
0.0
 11
968546.618
 21
7258545.114
 31
0.0
  0
LINE
  8
-7
  6
CONTINUOUS
 62
     7
  5
536
 10
968603.443
 20
7258423.579
 30
0.0
 11
968606.596
 21
7258543.537
 31
0.0
  0
LINE
  8
-7
  6
CONTINUOUS
 62
     7
  5
537
 10
968663.423
 20
7258422.003
 30
0.0
 11
968666.576
 21
7258541.961
 31
0.0
  0
LINE
  8
-7
  6
CONTINUOUS
 62
     7
  5
538
 10
968723.402
 20
7258420.425
 30
0.0
 11
968726.555
 21
7258540.384
 31
0.0
  0
LINE
  8
-7
  6
CONTINUOUS
 62
     7
  5
539
 10
968783.382
 20
7258418.849
 30
0.0
 11
968786.535
 21
7258538.807
 31
0.0
  0
LINE
  8
-7
  6
CONTINUOUS
 62
     7
  5
53A
 10
968843.361
 20
7258417.272
 30
0.0
 11
968846.514
 21
7258537.23
 31
0.0
  0
LINE
  8
-7
  6
CONTINUOUS
 62
     7
  5
53B
 10
968903.341
 20
7258415.696
 30
0.0
 11
968906.494
 21
7258535.654
 31
0.0
  0
LINE
  8
-7
  6
CONTINUOUS
 62
     7
  5
53C
 10
968479.809
 20
7258286.78
 30
0.0
 11
968482.96
 21
7258406.74
 31
0.0
  0
LINE
  8
-7
  6
CONTINUOUS
 62
     7
  5
53D
 10
968539.788
 20
7258285.205
 30
0.0
 11
968542.939
 21
7258405.165
 31
0.0
  0
LINE
  8
-7
  6
CONTINUOUS
 62
     7
  5
53E
 10
968599.768
 20
7258283.629
 30
0.0
 11
968602.919
 21
7258403.589
 31
0.0
  0
LINE
  8
-7
  6
CONTINUOUS
 62
     7
  5
53F
 10
968659.747
 20
7258282.054
 30
0.0
 11
968662.899
 21
7258402.014
 31
0.0
  0
LINE
  8
-7
  6
CONTINUOUS
 62
     7
  5
540
 10
968719.726
 20
7258280.478
 30
0.0
 11
968722.877
 21
7258400.438
 31
0.0
  0
LINE
  8
-7
  6
CONTINUOUS
 62
     7
  5
541
 10
968779.705
 20
7258278.903
 30
0.0
 11
968782.856
 21
7258398.863
 31
0.0
  0
LINE
  8
-7
  6
CONTINUOUS
 62
     7
  5
542
 10
968839.685
 20
7258277.326
 30
0.0
 11
968842.836
 21
7258397.287
 31
0.0
  0
LINE
  8
-7
  6
CONTINUOUS
 62
     7
  5
543
 10
968899.664
 20
7258275.752
 30
0.0
 11
968902.815
 21
7258395.712
 31
0.0
  0
LINE
  8
-7
  6
CONTINUOUS
 62
     7
  5
544
 10
968475.185
 20
7258110.84
 30
0.0
 11
968478.338
 21
7258230.8
 31
0.0
  0
LINE
  8
-7
  6
CONTINUOUS
 62
     7
  5
545
 10
968535.165
 20
7258109.265
 30
0.0
 11
968538.318
 21
7258229.223
 31
0.0
  0
LINE
  8
-7
  6
CONTINUOUS
 62
     7
  5
546
 10
968595.144
 20
7258107.687
 30
0.0
 11
968598.297
 21
7258227.646
 31
0.0
  0
LINE
  8
-7
  6
CONTINUOUS
 62
     7
  5
547
 10
968655.124
 20
7258106.112
 30
0.0
 11
968658.277
 21
7258226.07
 31
0.0
  0
LINE
  8
-7
  6
CONTINUOUS
 62
     7
  5
548
 10
968715.103
 20
7258104.534
 30
0.0
 11
968718.256
 21
7258224.493
 31
0.0
  0
LINE
  8
-7
  6
CONTINUOUS
 62
     7
  5
549
 10
968775.082
 20
7258102.958
 30
0.0
 11
968778.234
 21
7258222.917
 31
0.0
  0
LINE
  8
-7
  6
CONTINUOUS
 62
     7
  5
54A
 10
968835.061
 20
7258101.38
 30
0.0
 11
968838.214
 21
7258221.339
 31
0.0
  0
LINE
  8
-7
  6
CONTINUOUS
 62
     7
  5
54B
 10
968895.041
 20
7258099.804
 30
0.0
 11
968898.194
 21
7258219.763
 31
0.0
  0
LINE
  8
-7
  6
CONTINUOUS
 62
     7
  5
54C
 10
968471.51
 20
7257970.889
 30
0.0
 11
968474.661
 21
7258090.849
 31
0.0
  0
LINE
  8
-7
  6
CONTINUOUS
 62
     7
  5
54D
 10
968531.489
 20
7257969.314
 30
0.0
 11
968534.64
 21
7258089.274
 31
0.0
  0
LINE
  8
-7
  6
CONTINUOUS
 62
     7
  5
54E
 10
968591.468
 20
7257967.738
 30
0.0
 11
968594.619
 21
7258087.698
 31
0.0
  0
LINE
  8
-7
  6
CONTINUOUS
 62
     7
  5
54F
 10
968651.446
 20
7257966.163
 30
0.0
 11
968654.597
 21
7258086.123
 31
0.0
  0
LINE
  8
-7
  6
CONTINUOUS
 62
     7
  5
550
 10
968711.427
 20
7257964.587
 30
0.0
 11
968714.578
 21
7258084.547
 31
0.0
  0
LINE
  8
-7
  6
CONTINUOUS
 62
     7
  5
551
 10
968771.406
 20
7257963.012
 30
0.0
 11
968774.558
 21
7258082.972
 31
0.0
  0
LINE
  8
-7
  6
CONTINUOUS
 62
     7
  5
552
 10
968831.386
 20
7257961.436
 30
0.0
 11
968834.537
 21
7258081.396
 31
0.0
  0
LINE
  8
-7
  6
CONTINUOUS
 62
     7
  5
553
 10
968891.365
 20
7257959.86
 30
0.0
 11
968894.515
 21
7258079.821
 31
0.0
  0
LINE
  8
-7
  6
CONTINUOUS
 62
     7
  5
554
 10
968466.887
 20
7257794.953
 30
0.0
 11
968470.037
 21
7257914.909
 31
0.0
  0
LINE
  8
-7
  6
CONTINUOUS
 62
     7
  5
555
 10
968526.867
 20
7257793.378
 30
0.0
 11
968530.017
 21
7257913.335
 31
0.0
  0
LINE
  8
-7
  6
CONTINUOUS
 62
     7
  5
556
 10
968586.846
 20
7257791.803
 30
0.0
 11
968589.996
 21
7257911.76
 31
0.0
  0
LINE
  8
-7
  6
CONTINUOUS
 62
     7
  5
557
 10
968646.824
 20
7257790.228
 30
0.0
 11
968649.974
 21
7257910.185
 31
0.0
  0
LINE
  8
-7
  6
CONTINUOUS
 62
     7
  5
558
 10
968706.804
 20
7257788.653
 30
0.0
 11
968709.954
 21
7257908.61
 31
0.0
  0
LINE
  8
-7
  6
CONTINUOUS
 62
     7
  5
559
 10
968766.784
 20
7257787.078
 30
0.0
 11
968769.934
 21
7257907.035
 31
0.0
  0
LINE
  8
-7
  6
CONTINUOUS
 62
     7
  5
55A
 10
968826.762
 20
7257785.502
 30
0.0
 11
968829.913
 21
7257905.46
 31
0.0
  0
LINE
  8
-7
  6
CONTINUOUS
 62
     7
  5
55B
 10
968886.742
 20
7257783.927
 30
0.0
 11
968889.892
 21
7257903.885
 31
0.0
  0
LINE
  8
-7
  6
CONTINUOUS
 62
     7
  5
55C
 10
968463.21
 20
7257654.998
 30
0.0
 11
968466.361
 21
7257774.957
 31
0.0
  0
LINE
  8
-7
  6
CONTINUOUS
 62
     7
  5
55D
 10
968523.188
 20
7257653.424
 30
0.0
 11
968526.339
 21
7257773.382
 31
0.0
  0
LINE
  8
-7
  6
CONTINUOUS
 62
     7
  5
55E
 10
968583.169
 20
7257651.847
 30
0.0
 11
968586.32
 21
7257771.806
 31
0.0
  0
LINE
  8
-7
  6
CONTINUOUS
 62
     7
  5
55F
 10
968643.148
 20
7257650.272
 30
0.0
 11
968646.299
 21
7257770.231
 31
0.0
  0
LINE
  8
-7
  6
CONTINUOUS
 62
     7
  5
560
 10
968703.128
 20
7257648.696
 30
0.0
 11
968706.279
 21
7257768.655
 31
0.0
  0
LINE
  8
-7
  6
CONTINUOUS
 62
     7
  5
561
 10
968763.106
 20
7257647.121
 30
0.0
 11
968766.257
 21
7257767.08
 31
0.0
  0
LINE
  8
-7
  6
CONTINUOUS
 62
     7
  5
562
 10
968823.086
 20
7257645.545
 30
0.0
 11
968826.237
 21
7257765.504
 31
0.0
  0
LINE
  8
-7
  6
CONTINUOUS
 62
     7
  5
563
 10
968883.064
 20
7257643.97
 30
0.0
 11
968886.216
 21
7257763.929
 31
0.0
  0
LINE
  8
-7
  6
CONTINUOUS
 62
     7
  5
564
 10
968458.586
 20
7257479.061
 30
0.0
 11
968461.736
 21
7257599.018
 31
0.0
  0
LINE
  8
-7
  6
CONTINUOUS
 62
     7
  5
565
 10
968518.565
 20
7257477.486
 30
0.0
 11
968521.715
 21
7257597.443
 31
0.0
  0
LINE
  8
-7
  6
CONTINUOUS
 62
     7
  5
566
 10
968578.545
 20
7257475.911
 30
0.0
 11
968581.695
 21
7257595.868
 31
0.0
  0
LINE
  8
-7
  6
CONTINUOUS
 62
     7
  5
567
 10
968638.525
 20
7257474.336
 30
0.0
 11
968641.675
 21
7257594.294
 31
0.0
  0
LINE
  8
-7
  6
CONTINUOUS
 62
     7
  5
568
 10
968698.504
 20
7257472.761
 30
0.0
 11
968701.654
 21
7257592.718
 31
0.0
  0
LINE
  8
-7
  6
CONTINUOUS
 62
     7
  5
569
 10
968758.484
 20
7257471.186
 30
0.0
 11
968761.634
 21
7257591.144
 31
0.0
  0
LINE
  8
-7
  6
CONTINUOUS
 62
     7
  5
56A
 10
968818.461
 20
7257469.611
 30
0.0
 11
968821.611
 21
7257589.568
 31
0.0
  0
LINE
  8
-7
  6
CONTINUOUS
 62
     7
  5
56B
 10
968878.441
 20
7257468.036
 30
0.0
 11
968881.591
 21
7257587.994
 31
0.0
  0
LINE
  8
-7
  6
CONTINUOUS
 62
     7
  5
56C
 10
968454.909
 20
7257339.106
 30
0.0
 11
968458.061
 21
7257459.066
 31
0.0
  0
LINE
  8
-7
  6
CONTINUOUS
 62
     7
  5
56D
 10
968514.889
 20
7257337.531
 30
0.0
 11
968518.04
 21
7257457.491
 31
0.0
  0
LINE
  8
-7
  6
CONTINUOUS
 62
     7
  5
56E
 10
968574.868
 20
7257335.955
 30
0.0
 11
968578.019
 21
7257455.915
 31
0.0
  0
LINE
  8
-7
  6
CONTINUOUS
 62
     7
  5
56F
 10
968634.847
 20
7257334.38
 30
0.0
 11
968637.998
 21
7257454.34
 31
0.0
  0
LINE
  8
-7
  6
CONTINUOUS
 62
     7
  5
570
 10
968694.827
 20
7257332.804
 30
0.0
 11
968697.978
 21
7257452.764
 31
0.0
  0
LINE
  8
-7
  6
CONTINUOUS
 62
     7
  5
571
 10
968754.806
 20
7257331.229
 30
0.0
 11
968757.957
 21
7257451.189
 31
0.0
  0
LINE
  8
-7
  6
CONTINUOUS
 62
     7
  5
572
 10
968814.786
 20
7257329.653
 30
0.0
 11
968817.937
 21
7257449.613
 31
0.0
  0
LINE
  8
-7
  6
CONTINUOUS
 62
     7
  5
573
 10
968874.764
 20
7257328.078
 30
0.0
 11
968877.915
 21
7257448.038
 31
0.0
  0
LINE
  8
-7
  6
CONTINUOUS
 62
     7
  5
574
 10
969087.523
 20
7257582.581
 30
0.0
 11
969084.37
 21
7257462.623
 31
0.0
  0
LINE
  8
-7
  6
CONTINUOUS
 62
     7
  5
575
 10
969083.846
 20
7257442.629
 30
0.0
 11
969080.693
 21
7257322.67
 31
0.0
  0
ARC
  8
-6
  6
CONTINUOUS
 62
     7
  5
576
 10
968366.284426
 20
7258534.848939
 30
0.0
 40
15.0
 50
88.494919
 51
178.494925
210
0.0
220
0.0
230
1.0
  0
ARC
  8
-6
  6
CONTINUOUS
 62
     7
  5
577
 10
968966.078059
 20
7258519.089495
 30
0.0
 40
15.0
 50
358.494928
 51
88.494914
210
0.0
220
0.0
230
1.0
  0
ARC
  8
-6
  6
CONTINUOUS
 62
     7
  5
578
 10
968960.036975
 20
7258289.168247
 30
0.0
 40
15.0
 50
268.494911
 51
358.494628
210
0.0
220
0.0
230
1.0
  0
ARC
  8
-6
  6
CONTINUOUS
 62
     7
  5
579
 10
968360.243319
 20
7258304.927692
 30
0.0
 40
15.0
 50
178.495161
 51
268.494919
210
0.0
220
0.0
230
1.0
  0
ARC
  8
-6
  6
CONTINUOUS
 62
     7
  5
57A
 10
968957.777948
 20
7258203.198119
 30
0.0
 40
15.0
 50
358.494811
 51
88.494919
210
0.0
220
0.0
230
1.0
  0
ARC
  8
-6
  6
CONTINUOUS
 62
     7
  5
57B
 10
968351.943269
 20
7257989.036322
 30
0.0
 40
15.0
 50
178.494894
 51
268.494919
210
0.0
220
0.0
230
1.0
  0
ARC
  8
-6
  6
CONTINUOUS
 62
     7
  5
57C
 10
968951.737125
 20
7257973.276871
 30
0.0
 40
15.0
 50
268.494914
 51
358.495017
210
0.0
220
0.0
230
1.0
  0
ARC
  8
-6
  6
CONTINUOUS
 62
     7
  5
57D
 10
968357.985172
 20
7258218.957541
 30
0.0
 40
15.0
 50
88.494914
 51
178.494344
210
0.0
220
0.0
230
1.0
  0
ARC
  8
-6
  6
CONTINUOUS
 62
     7
  5
57E
 10
968349.684578
 20
7257903.066185
 30
0.0
 40
15.0
 50
88.494914
 51
178.495456
210
0.0
220
0.0
230
1.0
  0
ARC
  8
-6
  6
CONTINUOUS
 62
     7
  5
57F
 10
968949.478042
 20
7257887.306746
 30
0.0
 40
15.0
 50
358.494997
 51
88.494917
210
0.0
220
0.0
230
1.0
  0
ARC
  8
-6
  6
CONTINUOUS
 62
     7
  5
580
 10
968343.643635
 20
7257673.144941
 30
0.0
 40
15.0
 50
178.494856
 51
268.494919
210
0.0
220
0.0
230
1.0
  0
ARC
  8
-6
  6
CONTINUOUS
 62
     7
  5
581
 10
968943.437531
 20
7257657.385489
 30
0.0
 40
15.0
 50
268.494911
 51
358.495544
210
0.0
220
0.0
230
1.0
  0
ARC
  8
-6
  6
CONTINUOUS
 62
     7
  5
582
 10
968341.384137
 20
7257587.174824
 30
0.0
 40
15.0
 50
88.494911
 51
178.495386
210
0.0
220
0.0
230
1.0
  0
ARC
  8
-6
  6
CONTINUOUS
 62
     7
  5
583
 10
968941.177758
 20
7257571.415383
 30
0.0
 40
15.0
 50
358.494847
 51
88.494917
210
0.0
220
0.0
230
1.0
  0
ARC
  8
-6
  6
CONTINUOUS
 62
     7
  5
584
 10
968335.343611
 20
7257357.25357
 30
0.0
 40
15.0
 50
178.494928
 51
268.494919
210
0.0
220
0.0
230
1.0
  0
ARC
  8
-6
  6
CONTINUOUS
 62
     7
  5
585
 10
968935.137342
 20
7257341.494122
 30
0.0
 40
15.0
 50
268.494914
 51
358.494933
210
0.0
220
0.0
230
1.0
  0
ARC
  8
-6
  6
CONTINUOUS
 62
     7
  5
586
 10
969021.107466
 20
7257339.236304
 30
0.0
 40
15.0
 50
178.494928
 51
268.494972
210
0.0
220
0.0
230
1.0
  0
ARC
  8
-6
  6
CONTINUOUS
 62
     7
  5
587
 10
969027.148773
 20
7257569.157546
 30
0.0
 40
15.0
 50
88.494969
 51
178.494831
210
0.0
220
0.0
230
1.0
  0
LINE
  8
-6
  6
CONTINUOUS
 62
     7
  5
588
 10
969017.17
 20
7257760.485
 30
0.0
 11
969115.222
 21
7257757.909
 31
0.0
  0
LINE
  8
-6
  6
CONTINUOUS
 62
     7
  5
589
 10
969017.696
 20
7257780.478
 30
0.0
 11
969115.71
 21
7257777.903
 31
0.0
  0
LINE
  8
-6
  6
CONTINUOUS
 62
     7
  5
58A
 10
969035.842
 20
7257900.044
 30
0.0
 11
969118.638
 21
7257897.869
 31
0.0
  0
LINE
  8
-6
  6
CONTINUOUS
 62
     7
  5
58B
 10
969037.314
 20
7257956.024
 30
0.0
 11
969120.006
 21
7257953.851
 31
0.0
  0
LINE
  8
-6
  6
CONTINUOUS
 62
     7
  5
58C
 10
969020.453
 20
7257885.442
 30
0.0
 11
969017.696
 21
7257780.478
 31
0.0
  0
LINE
  8
-6
  6
CONTINUOUS
 62
     7
  5
58D
 10
969017.17
 20
7257760.485
 30
0.0
 11
969014.413
 21
7257655.521
 31
0.0
  0
LINE
  8
-7
  6
CONTINUOUS
 62
     7
  5
58E
 10
969092.145
 20
7257758.519
 30
0.0
 11
969088.992
 21
7257638.561
 31
0.0
  0
LINE
  8
-7
  6
CONTINUOUS
 62
     7
  5
58F
 10
969095.825
 20
7257898.473
 30
0.0
 11
969092.672
 21
7257778.514
 31
0.0
  0
ARC
  8
-6
  6
CONTINUOUS
 62
     7
  5
590
 10
969035.447736
 20
7257885.048945
 30
0.0
 40
15.0
 50
88.494969
 51
178.494981
210
0.0
220
0.0
230
1.0
  0
ARC
  8
-6
  6
CONTINUOUS
 62
     7
  5
591
 10
969029.407358
 20
7257655.127678
 30
0.0
 40
15.0
 50
178.494928
 51
268.494969
210
0.0
220
0.0
230
1.0
  0
LINE
  8
-6
  6
CONTINUOUS
 62
     7
  5
592
 10
969052.442
 20
7258531.825
 30
0.0
 11
969134.064
 21
7258529.68
 31
0.0
  0
LINE
  8
-6
  6
CONTINUOUS
 62
     7
  5
593
 10
969034.295
 20
7258412.26
 30
0.0
 11
969131.134
 21
7258409.715
 31
0.0
  0
LINE
  8
-6
  6
CONTINUOUS
 62
     7
  5
594
 10
969025.47
 20
7258076.376
 30
0.0
 11
969122.935
 21
7258073.815
 31
0.0
  0
LINE
  8
-6
  6
CONTINUOUS
 62
     7
  5
595
 10
969033.77
 20
7258392.266
 30
0.0
 11
969130.647
 21
7258389.721
 31
0.0
  0
LINE
  8
-6
  6
CONTINUOUS
 62
     7
  5
596
 10
969025.996
 20
7258096.37
 30
0.0
 11
969123.422
 21
7258093.81
 31
0.0
  0
LINE
  8
-6
  6
CONTINUOUS
 62
     7
  5
597
 10
969044.142
 20
7258215.935
 30
0.0
 11
969126.351
 21
7258213.775
 31
0.0
  0
LINE
  8
-6
  6
CONTINUOUS
 62
     7
  5
598
 10
969045.613
 20
7258271.914
 30
0.0
 11
969127.718
 21
7258269.758
 31
0.0
  0
LINE
  8
-6
  6
CONTINUOUS
 62
     7
  5
599
 10
969025.47
 20
7258076.376
 30
0.0
 11
969022.713
 21
7257971.414
 31
0.0
  0
LINE
  8
-6
  6
CONTINUOUS
 62
     7
  5
59A
 10
969028.752
 20
7258201.334
 30
0.0
 11
969025.996
 21
7258096.37
 31
0.0
  0
LINE
  8
-6
  6
CONTINUOUS
 62
     7
  5
59B
 10
969037.053
 20
7258517.224
 30
0.0
 11
969034.295
 21
7258412.26
 31
0.0
  0
LINE
  8
-6
  6
CONTINUOUS
 62
     7
  5
59C
 10
969033.77
 20
7258392.266
 30
0.0
 11
969031.013
 21
7258287.303
 31
0.0
  0
LINE
  8
-7
  6
CONTINUOUS
 62
     7
  5
59D
 10
969112.424
 20
7258530.254
 30
0.0
 11
969109.271
 21
7258410.295
 31
0.0
  0
LINE
  8
-7
  6
CONTINUOUS
 62
     7
  5
59E
 10
969108.747
 20
7258390.301
 30
0.0
 11
969105.593
 21
7258270.343
 31
0.0
  0
LINE
  8
-7
  6
CONTINUOUS
 62
     7
  5
59F
 10
969104.125
 20
7258214.363
 30
0.0
 11
969100.972
 21
7258094.405
 31
0.0
  0
LINE
  8
-7
  6
CONTINUOUS
 62
     7
  5
5A0
 10
969100.446
 20
7258074.411
 30
0.0
 11
969097.293
 21
7257954.452
 31
0.0
  0
ARC
  8
-6
  6
CONTINUOUS
 62
     7
  5
5A1
 10
969052.047919
 20
7258516.830403
 30
0.0
 40
15.0
 50
88.494894
 51
178.494719
210
0.0
220
0.0
230
1.0
  0
ARC
  8
-6
  6
CONTINUOUS
 62
     7
  5
5A2
 10
969046.006711
 20
7258286.909188
 30
0.0
 40
15.0
 50
178.494853
 51
268.494897
210
0.0
220
0.0
230
1.0
  0
ARC
  8
-6
  6
CONTINUOUS
 62
     7
  5
5A3
 10
969043.747628
 20
7258200.940316
 30
0.0
 40
15.0
 50
88.494958
 51
178.4951
210
0.0
220
0.0
230
1.0
  0
ARC
  8
-6
  6
CONTINUOUS
 62
     7
  5
5A4
 10
969037.706967
 20
7257971.01906
 30
0.0
 40
15.0
 50
178.494753
 51
268.494969
210
0.0
220
0.0
230
1.0
  0
LINE
  8
-6
  6
CONTINUOUS
 62
     7
  5
5A5
 10
968140.499
 20
7258226.211
 30
0.0
 11
968148.905
 21
7258546.101
 31
0.0
  0
LINE
  8
-6
  6
CONTINUOUS
 62
     7
  5
5A6
 10
968120.506
 20
7258226.738
 30
0.0
 11
968128.911
 21
7258546.627
 31
0.0
  0
LINE
  8
-6
  6
CONTINUOUS
 62
     7
  5
5A7
 10
967992.95
 20
7258230.089
 30
0.0
 11
968000.963
 21
7258534.984
 31
0.0
  0
LINE
  8
-6
  6
CONTINUOUS
 62
     7
  5
5A8
 10
967955.6
 20
7258231.071
 30
0.0
 11
968287.05
 21
7258222.361
 31
0.0
  0
LINE
  8
-7
  6
CONTINUOUS
 62
     7
  5
5A9
 10
967994.394
 20
7258285.07
 30
0.0
 11
968121.95
 21
7258281.719
 31
0.0
  0
LINE
  8
-7
  6
CONTINUOUS
 62
     7
  5
5AA
 10
968141.942
 20
7258281.192
 30
0.0
 11
968269.499
 21
7258277.842
 31
0.0
  0
LINE
  8
-7
  6
CONTINUOUS
 62
     7
  5
5AB
 10
968143.388
 20
7258336.173
 30
0.0
 11
968270.943
 21
7258332.823
 31
0.0
  0
LINE
  8
-7
  6
CONTINUOUS
 62
     7
  5
5AC
 10
968144.832
 20
7258391.155
 30
0.0
 11
968272.388
 21
7258387.804
 31
0.0
  0
LINE
  8
-7
  6
CONTINUOUS
 62
     7
  5
5AD
 10
968146.277
 20
7258446.136
 30
0.0
 11
968273.833
 21
7258442.785
 31
0.0
  0
LINE
  8
-7
  6
CONTINUOUS
 62
     7
  5
5AE
 10
967995.839
 20
7258340.051
 30
0.0
 11
968123.394
 21
7258336.7
 31
0.0
  0
LINE
  8
-7
  6
CONTINUOUS
 62
     7
  5
5AF
 10
967997.283
 20
7258395.032
 30
0.0
 11
968124.839
 21
7258391.681
 31
0.0
  0
LINE
  8
-7
  6
CONTINUOUS
 62
     7
  5
5B0
 10
967998.728
 20
7258450.013
 30
0.0
 11
968126.284
 21
7258446.662
 31
0.0
  0
LINE
  8
-6
  6
CONTINUOUS
 62
     7
  5
5B1
 10
968060.309
 20
7258874.043
 30
0.0
 11
968270.018
 21
7258868.533
 31
0.0
  0
LINE
  8
-6
  6
CONTINUOUS
 62
     7
  5
5B2
 10
968026.357
 20
7258754.892
 30
0.0
 11
968281.858
 21
7258748.181
 31
0.0
  0
LINE
  8
-6
  6
CONTINUOUS
 62
     7
  5
5B3
 10
968022.852
 20
7258734.978
 30
0.0
 11
968281.335
 21
7258728.187
 31
0.0
  0
LINE
  8
-6
  6
CONTINUOUS
 62
     7
  5
5B4
 10
968020.887
 20
7258624.49
 30
0.0
 11
968263.438
 21
7258618.118
 31
0.0
  0
LINE
  8
-6
  6
CONTINUOUS
 62
     7
  5
5B5
 10
968016.35
 20
7258549.585
 30
0.0
 11
968128.91
 21
7258546.627
 31
0.0
  0
LINE
  8
-6
  6
CONTINUOUS
 62
     7
  5
5B6
 10
968148.903
 20
7258546.101
 30
0.0
 11
968261.465
 21
7258543.143
 31
0.0
  0
LINE
  8
-6
  6
CONTINUOUS
 62
     7
  5
5B7
 10
968268.055
 20
7258222.86
 30
0.0
 11
968276.067
 21
7258527.755
 31
0.0
  0
LINE
  8
-6
  6
CONTINUOUS
 62
     7
  5
5B8
 10
968278.826
 20
7258632.721
 30
0.0
 11
968281.335
 21
7258728.187
 31
0.0
  0
LINE
  8
-6
  6
CONTINUOUS
 62
     7
  5
5B9
 10
968281.858
 20
7258748.181
 30
0.0
 11
968284.618
 21
7258853.144
 31
0.0
  0
LINE
  8
-7
  6
CONTINUOUS
 62
     7
  5
5BA
 10
968203.458
 20
7258619.694
 30
0.0
 11
968206.359
 21
7258730.156
 31
0.0
  0
LINE
  8
-7
  6
CONTINUOUS
 62
     7
  5
5BB
 10
968218.881
 20
7258749.836
 30
0.0
 11
968222.034
 21
7258869.793
 31
0.0
  0
ARC
  8
-6
  6
CONTINUOUS
 62
     7
  5
5BC
 10
968015.956939
 20
7258534.589831
 30
0.0
 40
15.0
 50
88.495097
 51
178.494606
210
0.0
220
0.0
230
1.0
  0
ARC
  8
-6
  6
CONTINUOUS
 62
     7
  5
5BD
 10
968261.071857
 20
7258528.149514
 30
0.0
 40
15.0
 50
358.494625
 51
88.495094
210
0.0
220
0.0
230
1.0
  0
ARC
  8
-6
  6
CONTINUOUS
 62
     7
  5
5BE
 10
968263.830568
 20
7258633.114112
 30
0.0
 40
15.0
 50
268.495097
 51
358.494683
210
0.0
220
0.0
230
1.0
  0
ARC
  8
-6
  6
CONTINUOUS
 62
     7
  5
5BF
 10
968269.623064
 20
7258853.539163
 30
0.0
 40
15.0
 50
358.494669
 51
88.495061
210
0.0
220
0.0
230
1.0
  0
LINE
  8
-7
  6
CONTINUOUS
 62
     7
  5
5C0
 10
968154.903
 20
7258751.517
 30
0.0
 11
968158.056
 21
7258871.474
 31
0.0
  0
LINE
  8
-7
  6
CONTINUOUS
 62
     7
  5
5C1
 10
968090.926
 20
7258753.199
 30
0.0
 11
968094.079
 21
7258873.157
 31
0.0
  0
LINE
  8
-7
  6
CONTINUOUS
 62
     7
  5
5C2
 10
968093.295
 20
7258622.588
 30
0.0
 11
968096.198
 21
7258733.051
 31
0.0
  0
ARC
  8
-6
  6
CONTINUOUS
 62
     7
  5
5C3
 10
968021.280052
 20
7258639.486278
 30
0.0
 40
15.0
 50
170.020358
 51
268.495044
210
0.0
220
0.0
230
1.0
  0
ARC
  8
-6
  6
CONTINUOUS
 62
     7
  5
5C4
 10
968059.914687
 20
7258859.048523
 30
0.0
 40
15.0
 50
88.494978
 51
170.020192
210
0.0
220
0.0
230
1.0
  0
LINE
  8
-6
  6
CONTINUOUS
 62
     7
  5
5C5
 10
968006.506
 20
7258642.085
 30
0.0
 11
968022.852
 21
7258734.978
 31
0.0
  0
LINE
  8
-6
  6
CONTINUOUS
 62
     7
  5
5C6
 10
968026.357
 20
7258754.892
 30
0.0
 11
968045.142
 21
7258861.648
 31
0.0
  0
LINE
  8
-6
  6
CONTINUOUS
 62
     7
  5
5C7
 10
968262.484
 20
7257287.384
 30
0.0
 11
968287.05
 21
7258222.361
 31
0.0
  0
LINE
  8
-6
  6
CONTINUOUS
 62
     7
  5
5C8
 10
968374.979
 20
7258865.736
 30
0.0
 11
968974.773
 21
7258849.976
 31
0.0
  0
LINE
  8
-6
  6
CONTINUOUS
 62
     7
  5
5C9
 10
968356.831
 20
7258746.171
 30
0.0
 11
968986.614
 21
7258729.624
 31
0.0
  0
LINE
  8
-6
  6
CONTINUOUS
 62
     7
  5
5CA
 10
968356.306
 20
7258726.177
 30
0.0
 11
968986.091
 21
7258709.63
 31
0.0
  0
LINE
  8
-6
  6
CONTINUOUS
 62
     7
  5
5CB
 10
968368.15
 20
7258605.825
 30
0.0
 11
968967.943
 21
7258590.066
 31
0.0
  0
LINE
  8
-6
  6
CONTINUOUS
 62
     7
  5
5CC
 10
968989.373
 20
7258834.586
 30
0.0
 11
968986.614
 21
7258729.624
 31
0.0
  0
LINE
  8
-6
  6
CONTINUOUS
 62
     7
  5
5CD
 10
968986.091
 20
7258709.63
 30
0.0
 11
968983.332
 21
7258604.665
 31
0.0
  0
LINE
  8
-6
  6
CONTINUOUS
 62
     7
  5
5CE
 10
968353.549
 20
7258621.213
 30
0.0
 11
968356.306
 21
7258726.177
 31
0.0
  0
LINE
  8
-6
  6
CONTINUOUS
 62
     7
  5
5CF
 10
968356.831
 20
7258746.171
 30
0.0
 11
968359.59
 21
7258851.136
 31
0.0
  0
LINE
  8
-7
  6
CONTINUOUS
 62
     7
  5
5D0
 10
968431.805
 20
7258744.201
 30
0.0
 11
968434.958
 21
7258864.16
 31
0.0
  0
LINE
  8
-7
  6
CONTINUOUS
 62
     7
  5
5D1
 10
968428.129
 20
7258604.249
 30
0.0
 11
968431.28
 21
7258724.208
 31
0.0
  0
LINE
  8
-7
  6
CONTINUOUS
 62
     7
  5
5D2
 10
968491.783
 20
7258742.625
 30
0.0
 11
968494.936
 21
7258862.583
 31
0.0
  0
LINE
  8
-7
  6
CONTINUOUS
 62
     7
  5
5D3
 10
968551.764
 20
7258741.048
 30
0.0
 11
968554.917
 21
7258861.007
 31
0.0
  0
LINE
  8
-7
  6
CONTINUOUS
 62
     7
  5
5D4
 10
968611.743
 20
7258739.471
 30
0.0
 11
968614.896
 21
7258859.43
 31
0.0
  0
LINE
  8
-7
  6
CONTINUOUS
 62
     7
  5
5D5
 10
968671.723
 20
7258737.894
 30
0.0
 11
968674.876
 21
7258857.854
 31
0.0
  0
LINE
  8
-7
  6
CONTINUOUS
 62
     7
  5
5D6
 10
968731.702
 20
7258736.317
 30
0.0
 11
968734.855
 21
7258856.276
 31
0.0
  0
LINE
  8
-7
  6
CONTINUOUS
 62
     7
  5
5D7
 10
968791.681
 20
7258734.741
 30
0.0
 11
968794.834
 21
7258854.7
 31
0.0
  0
LINE
  8
-7
  6
CONTINUOUS
 62
     7
  5
5D8
 10
968851.66
 20
7258733.164
 30
0.0
 11
968854.814
 21
7258853.123
 31
0.0
  0
LINE
  8
-7
  6
CONTINUOUS
 62
     7
  5
5D9
 10
968911.64
 20
7258731.588
 30
0.0
 11
968914.793
 21
7258851.547
 31
0.0
  0
LINE
  8
-7
  6
CONTINUOUS
 62
     7
  5
5DA
 10
968488.109
 20
7258602.673
 30
0.0
 11
968491.26
 21
7258722.633
 31
0.0
  0
LINE
  8
-7
  6
CONTINUOUS
 62
     7
  5
5DB
 10
968548.087
 20
7258601.098
 30
0.0
 11
968551.239
 21
7258721.058
 31
0.0
  0
LINE
  8
-7
  6
CONTINUOUS
 62
     7
  5
5DC
 10
968608.067
 20
7258599.522
 30
0.0
 11
968611.217
 21
7258719.482
 31
0.0
  0
LINE
  8
-7
  6
CONTINUOUS
 62
     7
  5
5DD
 10
968668.047
 20
7258597.947
 30
0.0
 11
968671.198
 21
7258717.908
 31
0.0
  0
LINE
  8
-7
  6
CONTINUOUS
 62
     7
  5
5DE
 10
968728.026
 20
7258596.371
 30
0.0
 11
968731.177
 21
7258716.331
 31
0.0
  0
LINE
  8
-7
  6
CONTINUOUS
 62
     7
  5
5DF
 10
968788.006
 20
7258594.795
 30
0.0
 11
968791.157
 21
7258714.757
 31
0.0
  0
LINE
  8
-7
  6
CONTINUOUS
 62
     7
  5
5E0
 10
968847.985
 20
7258593.219
 30
0.0
 11
968851.136
 21
7258713.18
 31
0.0
  0
LINE
  8
-7
  6
CONTINUOUS
 62
     7
  5
5E1
 10
968907.962
 20
7258591.644
 30
0.0
 11
968911.114
 21
7258711.605
 31
0.0
  0
ARC
  8
-6
  6
CONTINUOUS
 62
     7
  5
5E2
 10
968374.584027
 20
7258850.741322
 30
0.0
 40
15.0
 50
88.494919
 51
178.494925
210
0.0
220
0.0
230
1.0
  0
ARC
  8
-6
  6
CONTINUOUS
 62
     7
  5
5E3
 10
968974.37766
 20
7258834.981877
 30
0.0
 40
15.0
 50
358.494928
 51
88.494914
210
0.0
220
0.0
230
1.0
  0
ARC
  8
-6
  6
CONTINUOUS
 62
     7
  5
5E4
 10
968968.336576
 20
7258605.060629
 30
0.0
 40
15.0
 50
268.494911
 51
358.494628
210
0.0
220
0.0
230
1.0
  0
ARC
  8
-6
  6
CONTINUOUS
 62
     7
  5
5E5
 10
968368.54292
 20
7258620.820074
 30
0.0
 40
15.0
 50
178.495161
 51
268.494919
210
0.0
220
0.0
230
1.0
  0
LINE
  8
-6
  6
CONTINUOUS
 62
     7
  5
5E6
 10
969060.741
 20
7258847.717
 30
0.0
 11
969141.778
 21
7258845.588
 31
0.0
  0
LINE
  8
-6
  6
CONTINUOUS
 62
     7
  5
5E7
 10
969042.594
 20
7258728.153
 30
0.0
 11
969138.849
 21
7258725.623
 31
0.0
  0
LINE
  8
-6
  6
CONTINUOUS
 62
     7
  5
5E8
 10
969042.07
 20
7258708.159
 30
0.0
 11
969138.36
 21
7258705.629
 31
0.0
  0
LINE
  8
-6
  6
CONTINUOUS
 62
     7
  5
5E9
 10
969053.913
 20
7258587.806
 30
0.0
 11
969135.431
 21
7258585.664
 31
0.0
  0
LINE
  8
-6
  6
CONTINUOUS
 62
     7
  5
5EA
 10
969045.354
 20
7258833.117
 30
0.0
 11
969042.594
 21
7258728.153
 31
0.0
  0
LINE
  8
-6
  6
CONTINUOUS
 62
     7
  5
5EB
 10
969042.07
 20
7258708.159
 30
0.0
 11
969039.312
 21
7258603.196
 31
0.0
  0
LINE
  8
-7
  6
CONTINUOUS
 62
     7
  5
5EC
 10
969120.724
 20
7258846.147
 30
0.0
 11
969117.571
 21
7258726.187
 31
0.0
  0
LINE
  8
-7
  6
CONTINUOUS
 62
     7
  5
5ED
 10
969117.046
 20
7258706.194
 30
0.0
 11
969113.893
 21
7258586.235
 31
0.0
  0
ARC
  8
-6
  6
CONTINUOUS
 62
     7
  5
5EE
 10
969060.34752
 20
7258832.722786
 30
0.0
 40
15.0
 50
88.494894
 51
178.494719
210
0.0
220
0.0
230
1.0
  0
ARC
  8
-6
  6
CONTINUOUS
 62
     7
  5
5EF
 10
969054.306312
 20
7258602.801571
 30
0.0
 40
15.0
 50
178.494853
 51
268.494897
210
0.0
220
0.0
230
1.0
  0
LINE
  8
-6
  6
CONTINUOUS
 62
     7
  5
5F0
 10
968361.455
 20
7258922.11
 30
0.0
 11
969143.143
 21
7258901.572
 31
0.0
  0
LINE
  8
-6
  6
CONTINUOUS
 62
     7
  5
5F1
 10
963884.049
 20
7260254.583
 30
0.0
 11
966501.451
 21
7256871.185
 31
0.0
  0
LINE
  8
-6
  6
CONTINUOUS
 62
     7
  5
5F2
 10
963877.399
 20
7259936.313
 30
0.0
 11
965161.337
 21
7258276.626
 31
0.0
  0
LINE
  8
-6
  6
CONTINUOUS
 62
     7
  5
5F3
 10
966028.178
 20
7257153.315
 30
0.0
 11
966209.963
 21
7256880.314
 31
0.0
  0
LINE
  8
-6
  6
CONTINUOUS
 62
     7
  5
5F4
 10
963894.881
 20
7260240.579
 30
0.0
 11
966481.175
 21
7256897.395
 31
0.0
  0
LINE
  8
-6
  6
CONTINUOUS
 62
     7
  5
5F5
 10
965591.687
 20
7258055.178
 30
0.0
 11
966299.536
 21
7258837.879
 31
0.0
  0
POLYLINE
  8
-6
  6
CONTINUOUS
 62
     7
  5
5F6
 66
     1
 10
0.0
 20
0.0
 30
0.0
  0
VERTEX
  8
-6
  6
CONTINUOUS
 62
     7
  5
5F7
 10
966672.042
 20
7260317.987
 30
0.0
  0
VERTEX
  8
-6
  6
CONTINUOUS
 62
     7
  5
5F8
 10
966710.031
 20
7261342.083
 30
0.0
  0
VERTEX
  8
-6
  6
CONTINUOUS
 62
     7
  5
5F9
 10
966654.366
 20
7261898.908
 30
0.0
  0
SEQEND
  8
-6
  6
CONTINUOUS
 62
     7
  5
5FA
  0
ARC
  8
-6
  6
CONTINUOUS
 62
     7
  5
5FB
 10
966440.632106
 20
7261875.610449
 30
0.0
 40
215.0
 50
6.220883
 51
87.741397
210
0.0
220
0.0
230
1.0
  0
ARC
  8
-6
  6
CONTINUOUS
 62
     7
  5
5FC
 10
963004.7348
 20
7260454.02688
 30
0.0
 40
3669.83
 50
333.871381
 51
357.875575
210
0.0
220
0.0
230
1.0
  0
LINE
  8
-6
  6
CONTINUOUS
 62
     7
  5
5FD
 10
966958.218
 20
7260316.302
 30
0.0
 11
966995.957
 21
7261333.664
 31
0.0
  0
LINE
  8
-6
  6
CONTINUOUS
 62
     7
  5
5FE
 10
965962.287
 20
7257566.712
 30
0.0
 11
966430.58
 21
7258308.69
 31
0.0
  0
LINE
  8
-6
  6
CONTINUOUS
 62
     7
  5
5FF
 10
966430.58
 20
7258308.69
 30
0.0
 11
966717.223
 21
7259093.907
 31
0.0
  0
LINE
  8
-6
  6
CONTINUOUS
 62
     7
  5
600
 10
966995.957
 20
7261333.664
 30
0.0
 11
967093.379
 21
7261888.557
 31
0.0
  0
ARC
  8
-6
  6
CONTINUOUS
 62
     7
  5
601
 10
967305.140558
 20
7261851.378277
 30
0.0
 40
215.0
 50
87.766486
 51
170.042056
210
0.0
220
0.0
230
1.0
  0
LINE
  8
-6
  6
CONTINUOUS
 62
     7
  5
602
 10
967313.519
 20
7262066.215
 30
0.0
 11
967313.802
 21
7262073.439
 31
0.0
  0
LINE
  8
-6
  6
CONTINUOUS
 62
     7
  5
603
 10
966449.105
 20
7262090.444
 30
0.0
 11
963939.512
 21
7262182.076
 31
0.0
  0
LINE
  8
-6
  6
CONTINUOUS
 62
     7
  5
604
 10
964553.533
 20
7256982.67
 30
0.0
 11
964553.246
 21
7256970.868
 31
0.0
  0
LINE
  8
-6
  6
CONTINUOUS
 62
     7
  5
605
 10
964553.533
 20
7256982.67
 30
0.0
 11
964653.004
 21
7256980.254
 31
0.0
  0
LINE
  8
-6
  6
CONTINUOUS
 62
     7
  5
606
 10
964866.98
 20
7257122.378
 30
0.0
 11
965030.493
 21
7257541.638
 31
0.0
  0
LINE
  8
-6
  6
CONTINUOUS
 62
     7
  5
607
 10
965066.724
 20
7257608.657
 30
0.0
 11
965258.428
 21
7257852.784
 31
0.0
  0
LINE
  8
-6
  6
CONTINUOUS
 62
     7
  5
608
 10
965161.337
 20
7258276.626
 30
0.0
 11
965237.274
 21
7258145.762
 31
0.0
  0
LINE
  8
-6
  6
CONTINUOUS
 62
     7
  5
609
 10
965237.274
 20
7258145.762
 30
0.0
 11
965260.131
 21
7258116.219
 31
0.0
  0
ARC
  8
-6
  6
CONTINUOUS
 62
     7
  5
60A
 10
965089.356997
 20
7257985.600718
 30
0.0
 40
215.0
 50
321.847928
 51
37.411083
210
0.0
220
0.0
230
1.0
  0
ARC
  8
-6
  6
CONTINUOUS
 62
     7
  5
60B
 10
964664.59512
 20
7257194.941419
 30
0.0
 40
215.0
 50
266.909411
 51
340.275136
210
0.0
220
0.0
230
1.0
  0
ARC
  8
-6
  6
CONTINUOUS
 62
     7
  5
60C
 10
965238.320836
 20
7257472.58507
 30
0.0
 40
219.0
 50
141.586558
 51
161.620433
210
0.0
220
0.0
230
1.0
  0
ARC
  8
-6
  6
CONTINUOUS
 62
     7
  5
60D
 10
965919.693191
 20
7257081.077859
 30
0.0
 40
130.334493
 50
33.658964
 51
141.314522
210
0.0
220
0.0
230
1.0
  0
LINE
  8
-6
  6
CONTINUOUS
 62
     7
  5
60E
 10
965817.956
 20
7257162.543
 30
0.0
 11
965782.519
 21
7257118.635
 31
0.0
  0
ARC
  8
-6
  6
CONTINUOUS
 62
     7
  5
60F
 10
962503.050783
 20
7259816.884694
 30
0.0
 40
4246.819713
 50
316.986117
 51
321.314725
210
0.0
220
0.0
230
1.0
  0
LINE
  8
-6
  6
CONTINUOUS
 62
     7
  5
610
 10
965778.211
 20
7257113.405
 30
0.0
 11
965774.319
 21
7256923.546
 31
0.0
  0
LINE
  8
-6
  6
CONTINUOUS
 62
     7
  5
611
 10
965774.319
 20
7256923.546
 30
0.0
 11
966187.833
 21
7256915.069
 31
0.0
  0
LINE
  8
-6
  6
CONTINUOUS
 62
     7
  5
612
 10
966046.451
 20
7257126.324
 30
0.0
 11
965793.205
 21
7257131.515
 31
0.0
  0
LINE
  8
-21
  6
DASHDOT
 62
     7
  5
613
 10
965774.524
 20
7256933.544
 30
0.0
 11
966180.055
 21
7256925.229
 31
0.0
  0
LINE
  8
-6
  6
CONTINUOUS
 62
     7
  5
614
 10
965836.343
 20
7257567.508
 30
0.0
 11
963880.723
 21
7260095.447
 31
0.0
  0
LINE
  8
-6
  6
CONTINUOUS
 62
     7
  5
615
 10
966313.542
 20
7256877.07
 30
0.0
 11
966075.189
 21
7257235.023
 31
0.0
  0
LINE
  8
-6
  6
CONTINUOUS
 62
     7
  5
616
 10
966297.031
 20
7256901.866
 30
0.0
 11
966075.189
 21
7257235.023
 31
0.0
  0
ARC
  8
-6
  6
CONTINUOUS
 62
     7
  5
617
 10
961273.650809
 20
7254037.798266
 30
0.0
 40
5768.623723
 50
33.658661
 51
37.725628
210
0.0
220
0.0
230
1.0
  0
POLYLINE
  8
-21
  6
DASHDOT
 62
     7
  5
618
 66
     1
 10
0.0
 20
0.0
 30
0.0
 70
     1
  0
VERTEX
  8
-21
  6
DASHDOT
 62
     7
  5
619
 10
964522.224
 20
7256968.649
 30
0.0
  0
VERTEX
  8
-21
  6
DASHDOT
 62
     7
  5
61A
 10
964513.643
 20
7256972.132
 30
0.0
  0
VERTEX
  8
-21
  6
DASHDOT
 62
     7
  5
61B
 10
965079.497
 20
7258366.229
 30
0.0
  0
VERTEX
  8
-21
  6
DASHDOT
 62
     7
  5
61C
 10
965088.078
 20
7258362.746
 30
0.0
  0
SEQEND
  8
-21
  6
DASHDOT
 62
     7
  5
61D
  0
TEXT
  8
-22
  6
CONTINUOUS
 62
     3
  5
61E
 10
964809.74
 20
7257708.53
 30
0.0
 40
6.0
  1
1515'
 50
67.9089
  7
txt
 72
     4
 11
964811.135483
 21
7257719.945211
 31
0.0
210
0.0
220
0.0
230
1.0
  0
TEXT
  8
-22
  6
CONTINUOUS
 62
     3
  5
61F
 10
964828.683
 20
7257703.174
 30
0.0
 40
6.0
  1
1515'
 50
67.9089
  7
txt
 72
     4
 11
964830.078483
 21
7257714.589211
 31
0.0
210
0.0
220
0.0
230
1.0
  0
TEXT
  8
-22
  6
CONTINUOUS
 62
     3
  5
620
 10
964830.094
 20
7257757.327
 30
0.0
 40
6.0
  1
10'OVERHEAD POWER TRANSMISSION EASEMENT
 50
67.9089
  7
txt
 72
     4
 11
964869.172732
 21
7257861.586234
 31
0.0
210
0.0
220
0.0
230
1.0
  0
TEXT
  8
-13
  6
CONTINUOUS
 62
    14
  5
622
 10
964863.261
 20
7257810.44
 30
0.0
 40
8.0
  1
V835 P665
 50
67.9089
  7
txt
 72
     4
 11
964872.595614
 21
7257844.074654
 31
0.0
210
0.0
220
0.0
230
1.0
  0
TEXT
  8
-13
  6
CONTINUOUS
 62
    14
  5
623
 10
966768.657
 20
7257145.959
 30
0.0
 40
8.0
  1
JDGMT NO. 28798
 50
17.214122
  7
ROMANS
210
0.0
220
0.0
230
1.0
  0
TEXT
  8
-22
  6
CONTINUOUS
 62
     3
  5
624
 10
966675.276
 20
7257164.037
 30
0.0
 40
6.0
  1
671.2'
 50
17.9089
  7
txt
 72
     4
 11
966687.254556
 21
7257171.060785
 31
0.0
210
0.0
220
0.0
230
1.0
  0
TEXT
  8
-22
  6
CONTINUOUS
 62
     3
  5
625
 10
966656.8
 20
7257084.052
 30
0.0
 40
6.0
  1
626.8'
 50
17.9089
  7
txt
 72
     4
 11
966669.633045
 21
7257091.351924
 31
0.0
210
0.0
220
0.0
230
1.0
  0
TEXT
  8
-22
  6
CONTINUOUS
 62
     3
  5
626
 10
966380.753
 20
7257030.814
 30
0.0
 40
6.0
  1
74.84'
 50
306.9089
  7
txt
 72
     4
 11
966392.188166
 21
7257020.584182
 31
0.0
210
0.0
220
0.0
230
1.0
  0
TEXT
  8
-22
  6
CONTINUOUS
 62
     3
  5
627
 10
966421.666
 20
7257088.812
 30
0.0
 40
8.0
  1
ELECTRIC POWER LINE EASEMENT
 50
17.214122
  7
ROMANS
210
0.0
220
0.0
230
1.0
  0
POLYLINE
  8
-21
  6
DASHDOT
 62
     7
  5
628
 66
     1
 10
0.0
 20
0.0
 30
0.0
  0
VERTEX
  8
-21
  6
DASHDOT
 62
     7
  5
629
 10
966996.558
 20
7257185.464
 30
0.0
  0
VERTEX
  8
-21
  6
DASHDOT
 62
     7
  5
62A
 10
966397.175
 20
7257002.113
 30
0.0
  0
VERTEX
  8
-21
  6
DASHDOT
 62
     7
  5
62B
 10
966351.381
 20
7257061.307
 30
0.0
  0
VERTEX
  8
-21
  6
DASHDOT
 62
     7
  5
62C
 10
966993.223
 20
7257257.647
 30
0.0
  0
VERTEX
  8
-21
  6
DASHDOT
 62
     7
  5
62D
 10
967040.33
 20
7259892.045
 30
0.0
  0
VERTEX
  8
-21
  6
DASHDOT
 62
     7
  5
62E
 10
967063.523
 20
7259891.483
 30
0.0
  0
VERTEX
  8
-21
  6
DASHDOT
 62
     7
  5
62F
 10
966996.237
 20
7257185.519
 30
0.0
  0
SEQEND
  8
-21
  6
DASHDOT
 62
     7
  5
630
  0
TEXT
  8
-22
  6
CONTINUOUS
 62
     3
  5
631
 10
968123.244
 20
7257301.983
 30
0.0
 40
6.0
  1
10' UUE
 50
357.828275
  7
txt
 72
     4
 11
968138.582741
 21
7257304.403482
 31
0.0
210
0.0
220
0.0
230
1.0
  0
TEXT
  8
-22
  6
CONTINUOUS
 62
     3
  5
632
 10
968173.748
 20
7257301.031
 30
0.0
 40
6.0
  1
146.6'
 50
357.828275
  7
txt
 72
     4
 11
968187.385963
 21
7257303.515979
 31
0.0
210
0.0
220
0.0
230
1.0
  0
TEXT
  8
-13
  6
CONTINUOUS
 62
    14
  5
633
 10
968139.803
 20
7257291.795
 30
0.0
 40
8.0
  1
V1835 P882
 50
357.828275
  7
txt
 72
     4
 11
968177.565545
 21
7257294.365847
 31
0.0
210
0.0
220
0.0
230
1.0
  0
POLYLINE
  8
-21
  6
DASHDOT
 62
     7
  5
634
 66
     1
 10
0.0
 20
0.0
 30
0.0
  0
VERTEX
  8
-21
  6
DASHDOT
 62
     7
  5
635
 10
968262.48
 20
7257287.344
 30
0.0
  0
VERTEX
  8
-21
  6
DASHDOT
 62
     7
  5
636
 10
968115.928
 20
7257291.109
 30
0.0
  0
VERTEX
  8
-21
  6
DASHDOT
 62
     7
  5
637
 10
968116.192
 20
7257301.105
 30
0.0
  0
VERTEX
  8
-21
  6
DASHDOT
 62
     7
  5
638
 10
968262.744
 20
7257297.34
 30
0.0
  0
VERTEX
  8
-21
  6
DASHDOT
 62
     7
  5
639
 10
968262.48
 20
7257287.344
 30
0.0
  0
SEQEND
  8
-21
  6
DASHDOT
 62
     7
  5
63A
  0
POLYLINE
  8
-21
  6
DASHDOT
 62
     7
  5
63B
 66
     1
 10
0.0
 20
0.0
 30
0.0
  0
VERTEX
  8
-21
  6
DASHDOT
 62
     7
  5
63C
 10
967930.89
 20
7257295.864
 30
0.0
  0
VERTEX
  8
-21
  6
DASHDOT
 62
     7
  5
63D
 10
967931.678
 20
7257325.854
 30
0.0
  0
VERTEX
  8
-21
  6
DASHDOT
 62
     7
  5
63E
 10
968096.724
 20
7257321.614
 30
0.0
  0
VERTEX
  8
-21
  6
DASHDOT
 62
     7
  5
63F
 10
968120.503
 20
7258226.682
 30
0.0
  0
VERTEX
  8
-21
  6
DASHDOT
 62
     7
  5
640
 10
968140.497
 20
7258226.155
 30
0.0
  0
VERTEX
  8
-21
  6
DASHDOT
 62
     7
  5
641
 10
968115.928
 20
7257291.109
 30
0.0
  0
VERTEX
  8
-21
  6
DASHDOT
 62
     7
  5
642
 10
967930.89
 20
7257295.864
 30
0.0
  0
SEQEND
  8
-21
  6
DASHDOT
 62
     7
  5
643
  0
TEXT
  8
-22
  6
CONTINUOUS
 62
     3
  5
644
 10
967898.156
 20
7257284.047
 30
0.0
 40
6.0
  1
37.5'
 50
357.828275
  7
txt
 72
     4
 11
967910.025234
 21
7257286.599052
 31
0.0
210
0.0
220
0.0
230
1.0
  0
TEXT
  8
-22
  6
CONTINUOUS
 62
     3
  5
645
 10
967992.372
 20
7257325.978
 30
0.0
 40
6.0
  1
165.1'
 50
357.828275
  7
txt
 72
     4
 11
968004.948726
 21
7257328.503223
 31
0.0
210
0.0
220
0.0
230
1.0
  0
TEXT
  8
-22
  6
CONTINUOUS
 62
     3
  5
646
 10
967988.69
 20
7257287.198
 30
0.0
 40
6.0
  1
185.1'
 50
357.828275
  7
txt
 72
     4
 11
968001.408624
 21
7257289.717842
 31
0.0
210
0.0
220
0.0
230
1.0
  0
TEXT
  8
-13
  6
CONTINUOUS
 62
    14
  5
647
 10
967968.04
 20
7257305.892
 30
0.0
 40
8.0
  1
V962 P697
 50
357.828275
  7
txt
 72
     4
 11
968002.494922
 21
7257308.588279
 31
0.0
210
0.0
220
0.0
230
1.0
  0
TEXT
  8
-22
  6
CONTINUOUS
 62
     3
  5
648
 10
967020.685
 20
7257322.498
 30
0.0
 40
6.0
  1
46.1'
 50
357.9089
  7
txt
 72
     4
 11
967031.463356
 21
7257325.106451
 31
0.0
210
0.0
220
0.0
230
1.0
  0
POLYLINE
  8
-21
  6
DASHDOT
 62
     7
  5
649
 66
     1
 10
0.0
 20
0.0
 30
0.0
  0
VERTEX
  8
-21
  6
DASHDOT
 62
     7
  5
64A
 10
967007.76
 20
7257320.876
 30
0.0
  0
VERTEX
  8
-21
  6
DASHDOT
 62
     7
  5
64B
 10
967086.429
 20
7260484.569
 30
0.0
  0
VERTEX
  8
-21
  6
DASHDOT
 62
     7
  5
64C
 10
967184.756
 20
7262029.743
 30
0.0
  0
VERTEX
  8
-21
  6
DASHDOT
 62
     7
  5
64D
 10
967184.75605
 20
7262029.743038
 30
0.0
 42
-0.092279
  0
VERTEX
  8
-21
  6
DASHDOT
 62
     7
  5
64E
 10
967256.919031
 20
7262061.120815
 30
0.0
  0
VERTEX
  8
-21
  6
DASHDOT
 62
     7
  5
64F
 10
967256.919
 20
7262061.121
 30
0.0
  0
VERTEX
  8
-21
  6
DASHDOT
 62
     7
  5
650
 10
967118.429
 20
7259884.793
 30
0.0
  0
VERTEX
  8
-21
  6
DASHDOT
 62
     7
  5
651
 10
967053.9
 20
7257319.765
 30
0.0
  0
VERTEX
  8
-21
  6
DASHDOT
 62
     7
  5
652
 10
967007.813
 20
7257320.884
 30
0.0
  0
VERTEX
  8
-21
  6
DASHDOT
 62
     7
  5
653
 10
967007.76
 20
7257320.876
 30
0.0
  0
SEQEND
  8
-21
  6
DASHDOT
 62
     7
  5
654
  0
POLYLINE
  8
-21
  6
DASHDOT
 62
     7
  5
655
 66
     1
 10
0.0
 20
0.0
 30
0.0
  0
VERTEX
  8
-21
  6
DASHDOT
 62
     7
  5
656
 10
967929.88
 20
7257297.965
 30
0.0
  0
VERTEX
  8
-21
  6
DASHDOT
 62
     7
  5
657
 10
967007.285
 20
7257315.112
 30
0.0
  0
VERTEX
  8
-21
  6
DASHDOT
 62
     7
  5
658
 10
967008.03
 20
7257345.102
 30
0.0
  0
VERTEX
  8
-21
  6
DASHDOT
 62
     7
  5
659
 10
967930.626
 20
7257327.956
 30
0.0
  0
VERTEX
  8
-21
  6
DASHDOT
 62
     7
  5
65A
 10
967929.88
 20
7257297.965
 30
0.0
  0
SEQEND
  8
-21
  6
DASHDOT
 62
     7
  5
65B
  0
TEXT
  8
-22
  6
CONTINUOUS
 62
     3
  5
65C
 10
967074.786
 20
7257346.061
 30
0.0
 40
6.0
  1
30'UNDERGROUND UTILITY EASEMENT
 50
357.9089
  7
txt
 72
     4
 11
967162.87284
 21
7257345.846703
 31
0.0
210
0.0
220
0.0
230
1.0
  0
TEXT
  8
-22
  6
CONTINUOUS
 62
     3
  5
65D
 10
967383.326
 20
7257338.943
 30
0.0
 40
6.0
  1
913.44'
 50
357.9089
  7
txt
 72
     4
 11
967400.242266
 21
7257341.327339
 31
0.0
210
0.0
220
0.0
230
1.0
  0
TEXT
  8
-22
  6
CONTINUOUS
 62
     3
  5
65E
 10
967381.858
 20
7257300.147
 30
0.0
 40
6.0
  1
913.44'
 50
357.9089
  7
txt
 72
     4
 11
967398.774266
 21
7257302.531339
 31
0.0
210
0.0
220
0.0
230
1.0
  0
TEXT
  8
-13
  6
CONTINUOUS
 62
    14
  5
65F
 10
967367.057
 20
7257317.013
 30
0.0
 40
8.0
  1
V962 P125
 50
357.9089
  7
txt
 72
     4
 11
967400.438807
 21
7257319.796802
 31
0.0
210
0.0
220
0.0
230
1.0
  0
TEXT
  8
-22
  6
CONTINUOUS
 62
     3
  5
660
 10
967902.749
 20
7257748.507
 30
0.0
 40
6.0
  1
1350.22
 50
87.828275
  7
txt
 72
     4
 11
967900.411735
 21
7257766.040163
 31
0.0
210
0.0
220
0.0
230
1.0
  0
TEXT
  8
-22
  6
CONTINUOUS
 62
     3
  5
661
 10
967950.723
 20
7257757.639
 30
0.0
 40
6.0
  1
1585.72'
 50
87.828275
  7
txt
 72
     4
 11
967948.47168
 21
7257777.438534
 31
0.0
210
0.0
220
0.0
230
1.0
  0
TEXT
  8
-13
  6
CONTINUOUS
 62
    14
  5
662
 10
967926.248
 20
7257716.635
 30
0.0
 40
8.0
  1
V1280 P585
 50
87.828275
  7
txt
 72
     4
 11
967923.674728
 21
7257754.333591
 31
0.0
210
0.0
220
0.0
230
1.0
  0
TEXT
  8
-22
  6
CONTINUOUS
 62
     3
  5
663
 10
968107.225
 20
7257813.209
 30
0.0
 40
6.0
  1
905.38'
 50
87.828275
  7
txt
 72
     4
 11
968104.893116
 21
7257830.884061
 31
0.0
210
0.0
220
0.0
230
1.0
  0
TEXT
  8
-22
  6
CONTINUOUS
 62
     3
  5
664
 10
968137.827
 20
7257812.996
 30
0.0
 40
6.0
  1
935.37'
 50
87.828275
  7
txt
 72
     4
 11
968135.496935
 21
7257830.719027
 31
0.0
210
0.0
220
0.0
230
1.0
  0
TEXT
  8
-22
  6
CONTINUOUS
 62
     3
  5
665
 10
968108.304
 20
7257876.389
 30
0.0
 40
6.0
  1
UNDERGROUND UTILITY EASEMENT
 50
87.828275
  7
txt
 72
     4
 11
968108.369257
 21
7257957.276626
 31
0.0
210
0.0
220
0.0
230
1.0
  0
TEXT
  8
-22
  6
CONTINUOUS
 62
     3
  5
666
 10
967104.103
 20
7261907.016
 30
0.0
 40
6.0
  1
70.7'
 50
67.9089
  7
txt
 72
     4
 11
967105.747072
 21
7261919.043685
 31
0.0
210
0.0
220
0.0
230
1.0
  0
POLYLINE
  8
-21
  6
DASHDOT
 62
     7
  5
667
 66
     1
 10
0.0
 20
0.0
 30
0.0
  0
VERTEX
  8
-21
  6
DASHDOT
 62
     7
  5
668
 10
966922.388
 20
7259900.437
 30
0.0
  0
VERTEX
  8
-21
  6
DASHDOT
 62
     7
  5
669
 10
967066.192
 20
7259895.186
 30
0.0
  0
VERTEX
  8
-21
  6
DASHDOT
 62
     7
  5
66A
 10
967117.411
 20
7261954.949
 30
0.0
  0
VERTEX
  8
-21
  6
DASHDOT
 62
     7
  5
66B
 10
967117.410825
 20
7261954.949747
 30
0.0
 42
0.082393
  0
VERTEX
  8
-21
  6
DASHDOT
 62
     7
  5
66C
 10
967093.178615
 20
7261888.87295
 30
0.0
  0
VERTEX
  8
-21
  6
DASHDOT
 62
     7
  5
66D
 10
967093.178
 20
7261888.873
 30
0.0
  0
VERTEX
  8
-21
  6
DASHDOT
 62
     7
  5
66E
 10
966996.602
 20
7261338.786
 30
0.0
  0
VERTEX
  8
-21
  6
DASHDOT
 62
     7
  5
66F
 10
966958.62
 20
7260314.891
 30
0.0
  0
VERTEX
  8
-21
  6
DASHDOT
 62
     7
  5
670
 10
966959.092748
 20
7260314.87358
 30
0.0
 42
-0.026216
  0
VERTEX
  8
-21
  6
DASHDOT
 62
     7
  5
671
 10
966922.387892
 20
7259900.436624
 30
0.0
  0
SEQEND
  8
-21
  6
DASHDOT
 62
     7
  5
672
  0
TEXT
  8
-13
  6
CONTINUOUS
 62
    14
  5
673
 10
966994.302
 20
7260926.839
 30
0.0
 40
8.0
  1
V693 P669
 50
357.9089
  7
txt
 72
     4
 11
967028.533241
 21
7260929.591787
 31
0.0
210
0.0
220
0.0
230
1.0
  0
TEXT
  8
-22
  6
CONTINUOUS
 62
     3
  5
674
 10
967082.137
 20
7260735.443
 30
0.0
 40
6.0
  1
2060.4'
 50
87.9089
  7
txt
 72
     4
 11
967079.784552
 21
7260753.232684
 31
0.0
210
0.0
220
0.0
230
1.0
  0
TEXT
  8
-22
  6
CONTINUOUS
 62
     3
  5
675
 10
967187.826
 20
7260844.429
 30
0.0
 40
6.0
  1
OVERHEAD ELECTRICAL TRANSMISSION LINE EASEMENT
 50
85.9089
  7
txt
 72
     4
 11
967194.166029
 21
7260975.120705
 31
0.0
210
0.0
220
0.0
230
1.0
  0
TEXT
  8
-13
  6
CONTINUOUS
 62
    14
  5
676
 10
967147.407
 20
7260853.682
 30
0.0
 40
8.0
  1
V1619 P399
 50
85.9089
  7
txt
 72
     4
 11
967145.933657
 21
7260889.15049
 31
0.0
210
0.0
220
0.0
230
1.0
  0
TEXT
  8
-22
  6
CONTINUOUS
 62
     3
  5
677
 10
967204.55
 20
7262032.324
 30
0.0
 40
6.0
  1
78.69'
 50
23.9089
  7
txt
 72
     4
 11
967216.570721
 21
7262040.934674
 31
0.0
210
0.0
220
0.0
230
1.0
  0
POLYLINE
  8
-21
  6
DASHDOT
 62
     7
  5
678
 66
     1
 10
0.0
 20
0.0
 30
0.0
 70
     1
  0
VERTEX
  8
-21
  6
DASHDOT
 62
     7
  5
679
 10
968041.935
 20
7262041.479
 30
0.0
  0
VERTEX
  8
-21
  6
DASHDOT
 62
     7
  5
67A
 10
967972.467
 20
7258873.849
 30
0.0
  0
VERTEX
  8
-21
  6
DASHDOT
 62
     7
  5
67B
 10
968304.065
 20
7258865.602
 30
0.0
  0
VERTEX
  8
-21
  6
DASHDOT
 62
     7
  5
67C
 10
968297.602
 20
7258605.683
 30
0.0
  0
VERTEX
  8
-21
  6
DASHDOT
 62
     7
  5
67D
 10
968353.584
 20
7258604.29
 30
0.0
  0
VERTEX
  8
-21
  6
DASHDOT
 62
     7
  5
67E
 10
968361.912
 20
7258939.187
 30
0.0
  0
VERTEX
  8
-21
  6
DASHDOT
 62
     7
  5
67F
 10
968049.308
 20
7258946.96
 30
0.0
  0
VERTEX
  8
-21
  6
DASHDOT
 62
     7
  5
680
 10
968116.912
 20
7262039.614
 30
0.0
  0
VERTEX
  8
-21
  6
DASHDOT
 62
     7
  5
681
 10
968041.962
 20
7262042.351
 30
0.0
  0
VERTEX
  8
-21
  6
DASHDOT
 62
     7
  5
682
 10
968041.935
 20
7262041.479
 30
0.0
  0
SEQEND
  8
-21
  6
DASHDOT
 62
     7
  5
683
  0
POLYLINE
  8
-21
  6
DASHDOT
 62
     7
  5
684
 66
     1
 10
0.0
 20
0.0
 30
0.0
  0
VERTEX
  8
-21
  6
DASHDOT
 62
     7
  5
685
 10
968112.724
 20
7262005.285
 30
0.0
  0
VERTEX
  8
-21
  6
DASHDOT
 62
     7
  5
686
 10
968225.113
 20
7262000.527
 30
0.0
  0
VERTEX
  8
-21
  6
DASHDOT
 62
     7
  5
687
 10
968225.813
 20
7262020.516
 30
0.0
  0
VERTEX
  8
-21
  6
DASHDOT
 62
     7
  5
688
 10
968265.778
 20
7262018.823
 30
0.0
  0
VERTEX
  8
-21
  6
DASHDOT
 62
     7
  5
689
 10
968264.83
 20
7261978.834
 30
0.0
  0
VERTEX
  8
-21
  6
DASHDOT
 62
     7
  5
68A
 10
968112.246
 20
7261985.295
 30
0.0
  0
VERTEX
  8
-21
  6
DASHDOT
 62
     7
  5
68B
 10
968112.724
 20
7262005.285
 30
0.0
  0
SEQEND
  8
-21
  6
DASHDOT
 62
     7
  5
68C
  0
TEXT
  8
-22
  6
CONTINUOUS
 62
     3
  5
68D
 10
968062.075
 20
7262038.314
 30
0.0
 40
6.0
  1
75'
 50
357.9089
  7
txt
 72
     4
 11
968069.431636
 21
7262041.047388
 31
0.0
210
0.0
220
0.0
230
1.0
  0
TEXT
  8
-22
  6
CONTINUOUS
 62
     3
  5
68E
 10
968147.962
 20
7262005.647
 30
0.0
 40
6.0
  1
112.49'
 50
357.9089
  7
txt
 72
     4
 11
968163.675068
 21
7262008.075271
 31
0.0
210
0.0
220
0.0
230
1.0
  0
TEXT
  8
-22
  6
CONTINUOUS
 62
     3
  5
68F
 10
968223.756
 20
7262004.884
 30
0.0
 40
6.0
  1
20'
 50
87.9089
  7
txt
 72
     4
 11
968221.020861
 21
7262012.192668
 31
0.0
210
0.0
220
0.0
230
1.0
  0
TEXT
  8
-22
  6
CONTINUOUS
 62
     3
  5
690
 10
968239.575
 20
7262020.99
 30
0.0
 40
6.0
  1
40'
 50
357.9089
  7
txt
 72
     4
 11
968247.025574
 21
7262023.719958
 31
0.0
210
0.0
220
0.0
230
1.0
  0
TEXT
  8
-22
  6
CONTINUOUS
 62
     3
  5
691
 10
968263.59
 20
7261996.835
 30
0.0
 40
6.0
  1
40'
 50
87.9089
  7
txt
 72
     4
 11
968260.860042
 21
7262004.285574
 31
0.0
210
0.0
220
0.0
230
1.0
  0
TEXT
  8
-22
  6
CONTINUOUS
 62
     3
  5
692
 10
968170.735
 20
7261974.816
 30
0.0
 40
6.0
  1
152.72'
 50
357.9089
  7
txt
 72
     4
 11
968187.533344
 21
7261977.204645
 31
0.0
210
0.0
220
0.0
230
1.0
  0
TEXT
  8
-22
  6
CONTINUOUS
 62
     3
  5
693
 10
968226.615
 20
7261970.989
 30
0.0
 40
6.0
  1
WATER LINE EASEMENT
 50
357.9089
  7
txt
 72
     4
 11
968281.346067
 21
7261971.992615
 31
0.0
210
0.0
220
0.0
230
1.0
  0
TEXT
  8
-13
  6
CONTINUOUS
 62
    14
  5
694
 10
968162.885
 20
7261988.266
 30
0.0
 40
8.0
  1
V4006 P212
 50
357.9089
  7
txt
 72
     4
 11
968200.390059
 21
7261990.899251
 31
0.0
210
0.0
220
0.0
230
1.0
  0
TEXT
  8
-11
  6
CONTINUOUS
 62
     7
  5
695
 10
967829.625
 20
7259311.125
 30
0.0
 40
8.0
  1
372.53'
 50
343.189753
  7
ROMANS
210
0.0
220
0.0
230
1.0
  0
TEXT
  8
-11
  6
CONTINUOUS
 62
     7
  5
696
 10
967792.614
 20
7259251.549
 30
0.0
 40
8.0
  1
424.69'
 50
341.014739
  7
ROMANS
210
0.0
220
0.0
230
1.0
  0
TEXT
  8
-11
  6
CONTINUOUS
 62
     7
  5
697
 10
968194.316
 20
7258948.531
 30
0.0
 40
8.0
  1
312.7'
 50
358.828275
  7
ROMANS
 72
     4
 11
968215.727335
 21
7258952.093904
 31
0.0
210
0.0
220
0.0
230
1.0
  0
TEXT
  8
-11
  6
CONTINUOUS
 62
     7
  5
698
 10
967954.496
 20
7258785.19
 30
0.0
 40
8.0
  1
237.53'
 50
79.185544
  7
ROMANS
210
0.0
220
0.0
230
1.0
  0
POLYLINE
  8
-21
  6
DASHDOT
 62
     7
  5
699
 66
     1
 10
0.0
 20
0.0
 30
0.0
  0
VERTEX
  8
-21
  6
DASHDOT
 62
     7
  5
69A
 10
968014.245
 20
7261110.188
 30
0.0
  0
VERTEX
  8
-21
  6
DASHDOT
 62
     7
  5
69B
 10
968012.968
 20
7261075.211
 30
0.0
  0
VERTEX
  8
-21
  6
DASHDOT
 62
     7
  5
69C
 10
968047.945
 20
7261073.934
 30
0.0
  0
VERTEX
  8
-21
  6
DASHDOT
 62
     7
  5
69D
 10
968047.58
 20
7261063.941
 30
0.0
  0
VERTEX
  8
-21
  6
DASHDOT
 62
     7
  5
69E
 10
968012.603
 20
7261065.218
 30
0.0
  0
VERTEX
  8
-21
  6
DASHDOT
 62
     7
  5
69F
 10
967935.279
 20
7258694.43
 30
0.0
  0
VERTEX
  8
-21
  6
DASHDOT
 62
     7
  5
6A0
 10
967925.606
 20
7258696.963
 30
0.0
  0
VERTEX
  8
-21
  6
DASHDOT
 62
     7
  5
6A1
 10
968004.571
 20
7261112.721
 30
0.0
  0
VERTEX
  8
-21
  6
DASHDOT
 62
     7
  5
6A2
 10
968014.564
 20
7261112.357
 30
0.0
  0
SEQEND
  8
-21
  6
DASHDOT
 62
     7
  5
6A3
  0
TEXT
  8
-13
  6
CONTINUOUS
 62
    14
  5
6A4
 10
967572.947
 20
7259487.253
 30
0.0
 40
8.0
  1
V1711 P269
 50
305.9089
  7
txt
 72
     4
 11
967595.563529
 21
7259462.839847
 31
0.0
210
0.0
220
0.0
230
1.0
  0
POLYLINE
  8
-21
  6
DASHDOT
 62
     7
  5
6A5
 66
     1
 10
0.0
 20
0.0
 30
0.0
  0
VERTEX
  8
-21
  6
DASHDOT
 62
     7
  5
6A6
 10
967953.596979
 20
7259228.992537
 30
0.0
 42
-0.237133
  0
VERTEX
  8
-21
  6
DASHDOT
 62
     7
  5
6A7
 10
967592.379626
 20
7259421.906064
 30
0.0
  0
VERTEX
  8
-21
  6
DASHDOT
 62
     7
  5
6A8
 10
967592.38
 20
7259421.906
 30
0.0
  0
VERTEX
  8
-21
  6
DASHDOT
 62
     7
  5
6A9
 10
967380.381
 20
7259722.265
 30
0.0
  0
VERTEX
  8
-21
  6
DASHDOT
 62
     7
  5
6AA
 10
967380.381543
 20
7259722.264975
 30
0.0
 42
0.237132
  0
VERTEX
  8
-21
  6
DASHDOT
 62
     7
  5
6AB
 10
967063.523944
 20
7259891.482695
 30
0.0
  0
VERTEX
  8
-21
  6
DASHDOT
 62
     7
  5
6AC
 10
967063.523
 20
7259891.483
 30
0.0
  0
VERTEX
  8
-21
  6
DASHDOT
 62
     7
  5
6AD
 10
966919.72
 20
7259896.733
 30
0.0
  0
VERTEX
  8
-21
  6
DASHDOT
 62
     7
  5
6AE
 10
966919.719769
 20
7259896.733176
 30
0.0
 42
0.004566
  0
VERTEX
  8
-21
  6
DASHDOT
 62
     7
  5
6AF
 10
966928.847051
 20
7259968.651998
 30
0.0
  0
VERTEX
  8
-21
  6
DASHDOT
 62
     7
  5
6B0
 10
966928.847045
 20
7259968.651946
 30
0.0
 42
0.438029
  0
VERTEX
  8
-21
  6
DASHDOT
 62
     7
  5
6B1
 10
966943.196694
 20
7259951.909477
 30
0.0
  0
VERTEX
  8
-21
  6
DASHDOT
 62
     7
  5
6B2
 10
966943.196
 20
7259951.909
 30
0.0
  0
VERTEX
  8
-21
  6
DASHDOT
 62
     7
  5
6B3
 10
967064.915
 20
7259947.465
 30
0.0
  0
VERTEX
  8
-21
  6
DASHDOT
 62
     7
  5
6B4
 10
967064.915474
 20
7259947.465403
 30
0.0
 42
-0.237132
  0
VERTEX
  8
-21
  6
DASHDOT
 62
     7
  5
6B5
 10
967426.133202
 20
7259754.557168
 30
0.0
  0
VERTEX
  8
-21
  6
DASHDOT
 62
     7
  5
6B6
 10
967426.133
 20
7259754.557
 30
0.0
  0
VERTEX
  8
-21
  6
DASHDOT
 62
     7
  5
6B7
 10
967638.131
 20
7259454.198
 30
0.0
  0
VERTEX
  8
-21
  6
DASHDOT
 62
     7
  5
6B8
 10
967638.131727
 20
7259454.197631
 30
0.0
 42
0.237133
  0
VERTEX
  8
-21
  6
DASHDOT
 62
     7
  5
6B9
 10
967954.989068
 20
7259284.975232
 30
0.0
  0
VERTEX
  8
-21
  6
DASHDOT
 62
     7
  5
6BA
 10
967954.989059
 20
7259284.975307
 30
0.0
 42
0.414214
  0
VERTEX
  8
-21
  6
DASHDOT
 62
     7
  5
6BB
 10
967970.356864
 20
7259299.598297
 30
0.0
  0
VERTEX
  8
-21
  6
DASHDOT
 62
     7
  5
6BC
 10
967970.356
 20
7259299.599
 30
0.0
  0
VERTEX
  8
-21
  6
DASHDOT
 62
     7
  5
6BD
 10
967968.218
 20
7259213.625
 30
0.0
  0
VERTEX
  8
-21
  6
DASHDOT
 62
     7
  5
6BE
 10
967968.219407
 20
7259213.625038
 30
0.0
 42
0.414195
  0
VERTEX
  8
-21
  6
DASHDOT
 62
     7
  5
6BF
 10
967953.597417
 20
7259228.992806
 30
0.0
  0
SEQEND
  8
-21
  6
DASHDOT
 62
     7
  5
6C0
  0
TEXT
  8
-11
  6
CONTINUOUS
 62
     7
  5
6C1
 10
967247.373
 20
7259826.469
 30
0.0
 40
8.0
  1
372.53'
 50
330.180178
  7
ROMANS
210
0.0
220
0.0
230
1.0
  0
TEXT
  8
-11
  6
CONTINUOUS
 62
     7
  5
6C2
 10
967169.572
 20
7259937.431
 30
0.0
 40
8.0
  1
424.69
 50
343.623867
  7
ROMANS
210
0.0
220
0.0
230
1.0
  0
ARC
  8
-6
  6
CONTINUOUS
 62
     7
  5
6C3
 10
967964.932565
 20
7259684.851772
 30
0.0
 40
456.000151
 50
215.214222
 51
268.575553
210
0.0
220
0.0
230
1.0
  0
LINE
  8
-6
  6
CONTINUOUS
 62
     7
  5
6C4
 10
967592.38
 20
7259421.906
 30
0.0
 11
967380.381
 21
7259722.265
 31
0.0
  0
ARC
  8
-6
  6
CONTINUOUS
 62
     7
  5
6C5
 10
967053.584459
 20
7259491.60679
 30
0.0
 40
399.999415
 50
35.215006
 51
88.576125
210
0.0
220
0.0
230
1.0
  0
LINE
  8
-6
  6
CONTINUOUS
 62
     7
  5
6C6
 10
967063.523
 20
7259891.483
 30
0.0
 11
966920.283
 21
7259896.713
 31
0.0
  0
LINE
  8
-6
  6
CONTINUOUS
 62
     7
  5
6C7
 10
966944.334
 20
7259951.868
 30
0.0
 11
967064.915
 21
7259947.465
 31
0.0
  0
ARC
  8
-6
  6
CONTINUOUS
 62
     7
  5
6C8
 10
967053.584459
 20
7259491.60679
 30
0.0
 40
455.999415
 50
35.215006
 51
88.576125
210
0.0
220
0.0
230
1.0
  0
LINE
  8
-6
  6
CONTINUOUS
 62
     7
  5
6C9
 10
967426.133
 20
7259754.557
 30
0.0
 11
967638.131
 21
7259454.198
 31
0.0
  0
ARC
  8
-6
  6
CONTINUOUS
 62
     7
  5
6CA
 10
967964.932565
 20
7259684.851772
 30
0.0
 40
400.000151
 50
215.214222
 51
268.575553
210
0.0
220
0.0
230
1.0
  0
ARC
  8
-6
  6
CONTINUOUS
 62
     7
  5
6CB
 10
967955.361467
 20
7259299.970704
 30
0.0
 40
15.000021
 50
268.577364
 51
358.577364
210
0.0
220
0.0
230
1.0
  0
ARC
  8
-6
  6
CONTINUOUS
 62
     7
  5
6CC
 10
967953.224031
 20
7259213.997454
 30
0.0
 40
15.0
 50
358.577331
 51
88.573625
210
0.0
220
0.0
230
1.0
  0
ARC
  8
-6
  6
CONTINUOUS
 62
     7
  5
6CD
 10
962991.1168
 20
7260463.46188
 30
0.0
 40
3969.83
 50
339.818753
 51
351.792178
210
0.0
220
0.0
230
1.0
  0
ARC
  8
-6
  6
CONTINUOUS
 62
     7
  5
6CE
 10
962991.1168
 20
7260463.46188
 30
0.0
 40
3969.83
 50
352.840981
 51
357.875575
210
0.0
220
0.0
230
1.0
  0
ARC
  8
-6
  6
CONTINUOUS
 62
     7
  5
6CF
 10
966944.881421
 20
7259966.857969
 30
0.0
 40
15.0
 50
172.840981
 51
267.9089
210
0.0
220
0.0
230
1.0
  0
LINE
  8
-6
  6
CONTINUOUS
 62
     7
  5
6D0
 10
968038.678
 20
7262046.972
 30
0.0
 11
968038.652
 21
7262046.1
 31
0.0
  0
LINE
  8
-6
  6
CONTINUOUS
 62
     7
  5
6D1
 10
968361.455
 20
7258922.11
 30
0.0
 11
968361.954
 21
7258941.103
 31
0.0
  0
LINE
  8
-6
  6
CONTINUOUS
 62
     7
  5
6D2
 10
968361.954
 20
7258941.103
 30
0.0
 11
968049.361
 21
7258949.316
 31
0.0
  0
LINE
  8
-6
  6
CONTINUOUS
 62
     7
  5
6D3
 10
968049.375
 20
7258949.316
 30
0.0
 11
968117.033
 21
7262044.111
 31
0.0
  0
LINE
  8
-6
  6
CONTINUOUS
 62
     7
  5
6D4
 10
968038.673
 20
7262046.972
 30
0.0
 11
967970.352
 21
7259299.429
 31
0.0
  0
LINE
  8
-6
  6
CONTINUOUS
 62
     7
  5
6D5
 10
967971.507
 20
7259209.171
 30
0.0
 11
967972.467
 21
7258873.849
 31
0.0
  0
SOLID
  8
-21
  6
DASHDOT
 62
     7
  5
6D6
 10
967972.546
 20
7258876.051
 30
0.0
 11
967930.897
 21
7257290.877
 31
0.0
 12
967928.861
 22
7258640.746
 32
0.0
 13
967893.396
 23
7257290.992
 33
0.0
  0
LINE
  8
-6
  6
CONTINUOUS
 62
     7
  5
6D7
 10
967955.6
 20
7258231.071
 30
0.0
 11
967930.897
 21
7257290.877
 31
0.0
  0
LINE
  8
-6
  6
CONTINUOUS
 62
     7
  5
6D8
 10
967930.897
 20
7257290.877
 30
0.0
 11
967893.396
 21
7257290.992
 31
0.0
  0
LINE
  8
-6
  6
CONTINUOUS
 62
     7
  5
6D9
 10
967893.396
 20
7257290.992
 30
0.0
 11
967928.861
 21
7258640.746
 31
0.0
  0
LINE
  8
-6
  6
CONTINUOUS
 62
     7
  5
6DA
 10
967928.861
 20
7258640.746
 30
0.0
 11
967972.546
 21
7258876.051
 31
0.0
  0
TEXT
  8
-22
  6
CONTINUOUS
 62
     3
  5
6DB
 10
965338.977
 20
7258433.564
 30
0.0
 40
6.0
  1
30'
 50
42.9089
  7
txt
 72
     4
 11
965342.210973
 21
7258440.666044
 31
0.0
210
0.0
220
0.0
230
1.0
  0
TEXT
  8
-13
  6
CONTINUOUS
 62
    14
  5
6DC
 10
965347.369
 20
7258405.997
 30
0.0
 40
8.0
  1
V4167 P343
 50
357.9089
  7
txt
 72
     4
 11
965385.377723
 21
7258408.611861
 31
0.0
210
0.0
220
0.0
230
1.0
  0
TEXT
  8
-22
  6
CONTINUOUS
 62
     3
  5
6DD
 10
965379.557
 20
7258387.978
 30
0.0
 40
6.0
  1
SEWER LIFT STATION EASEMENT
 50
357.9089
  7
txt
 72
     4
 11
965457.161825
 21
7258388.14643
 31
0.0
210
0.0
220
0.0
230
1.0
  0
TEXT
  8
-22
  6
CONTINUOUS
 62
     3
  5
6DE
 10
965355.959
 20
7258393.992
 30
0.0
 40
6.0
  1
85'
 50
312.9089
  7
txt
 72
     4
 11
965363.077384
 21
7258390.740448
 31
0.0
210
0.0
220
0.0
230
1.0
  0
TEXT
  8
-22
  6
CONTINUOUS
 62
     3
  5
6DF
 10
965391.219
 20
7258366.361
 30
0.0
 40
6.0
  1
30'
 50
42.9089
  7
txt
 72
     4
 11
965394.452973
 21
7258373.463044
 31
0.0
210
0.0
220
0.0
230
1.0
  0
POLYLINE
  8
-21
  6
DASHDOT
 62
     7
  5
6E0
 66
     1
 10
0.0
 20
0.0
 30
0.0
  0
VERTEX
  8
-21
  6
DASHDOT
 62
     7
  5
6E1
 10
965381.753
 20
7258358.061
 30
0.0
  0
VERTEX
  8
-21
  6
DASHDOT
 62
     7
  5
6E2
 10
965329.791
 20
7258425.33
 30
0.0
  0
VERTEX
  8
-21
  6
DASHDOT
 62
     7
  5
6E3
 10
965353.534
 20
7258443.669
 30
0.0
  0
VERTEX
  8
-21
  6
DASHDOT
 62
     7
  5
6E4
 10
965405.494
 20
7258376.4
 30
0.0
  0
VERTEX
  8
-21
  6
DASHDOT
 62
     7
  5
6E5
 10
965381.752
 20
7258358.061
 30
0.0
  0
SEQEND
  8
-21
  6
DASHDOT
 62
     7
  5
6E6
  0
TEXT
  8
-22
  6
CONTINUOUS
 62
     3
  5
6E7
 10
967979.433
 20
7260448.186
 30
0.0
 40
6.0
  1
2422.4'
 50
87.9089
  7
txt
 72
     4
 11
967977.092666
 21
7260466.307463
 31
0.0
210
0.0
220
0.0
230
1.0
  0
TEXT
  8
-22
  6
CONTINUOUS
 62
     3
  5
6E8
 10
967997.891
 20
7260446.792
 30
0.0
 40
6.0
  1
2377.4'
 50
87.9089
  7
txt
 72
     4
 11
967995.547163
 21
7260464.817527
 31
0.0
210
0.0
220
0.0
230
1.0
  0
TEXT
  8
-13
  6
CONTINUOUS
 62
    14
  5
6E9
 10
967995.732
 20
7260621.15
 30
0.0
 40
8.0
  1
V857 P260
 50
87.9089
  7
txt
 72
     4
 11
967993.007966
 21
7260656.168716
 31
0.0
210
0.0
220
0.0
230
1.0
  0
TEXT
  8
-22
  6
CONTINUOUS
 62
     3
  5
6EA
 10
968011.102
 20
7260627.216
 30
0.0
 40
6.0
  1
3173.64'
 50
87.9089
  7
txt
 72
     4
 11
968008.822821
 21
7260647.012347
 31
0.0
210
0.0
220
0.0
230
1.0
  0
TEXT
  8
-22
  6
CONTINUOUS
 62
     3
  5
6EB
 10
968076.515
 20
7260622.14
 30
0.0
 40
6.0
  1
3098.64'
 50
87.9089
  7
txt
 72
     4
 11
968074.267712
 21
7260642.809765
 31
0.0
210
0.0
220
0.0
230
1.0
  0
TEXT
  8
-13
  6
CONTINUOUS
 62
    14
  5
6EC
 10
968044.36
 20
7260618.332
 30
0.0
 40
8.0
  1
V866 P471
 50
87.9089
  7
txt
 72
     4
 11
968041.577365
 21
7260651.745785
 31
0.0
210
0.0
220
0.0
230
1.0
  0
POLYLINE
  8
-21
  6
DASHDOT
 62
     7
  5
6ED
 66
     1
 10
0.0
 20
0.0
 30
0.0
  0
VERTEX
  8
-21
  6
DASHDOT
 62
     7
  5
6EE
 10
966381.123
 20
7262097.683
 30
0.0
  0
VERTEX
  8
-21
  6
DASHDOT
 62
     7
  5
6EF
 10
966371.13
 20
7262098.048
 30
0.0
  0
VERTEX
  8
-21
  6
DASHDOT
 62
     7
  5
6F0
 10
966335.773
 20
7261129.693
 30
0.0
  0
VERTEX
  8
-21
  6
DASHDOT
 62
     7
  5
6F1
 10
966302.794
 20
7261130.897
 30
0.0
  0
VERTEX
  8
-21
  6
DASHDOT
 62
     7
  5
6F2
 10
966302.429
 20
7261120.903
 30
0.0
  0
VERTEX
  8
-21
  6
DASHDOT
 62
     7
  5
6F3
 10
966335.407
 20
7261119.699
 30
0.0
  0
VERTEX
  8
-21
  6
DASHDOT
 62
     7
  5
6F4
 10
966333.911
 20
7261078.727
 30
0.0
  0
VERTEX
  8
-21
  6
DASHDOT
 62
     7
  5
6F5
 10
966343.905
 20
7261078.362
 30
0.0
  0
VERTEX
  8
-21
  6
DASHDOT
 62
     7
  5
6F6
 10
966345.401
 20
7261119.335
 30
0.0
  0
VERTEX
  8
-21
  6
DASHDOT
 62
     7
  5
6F7
 10
966701.951
 20
7261106.316
 30
0.0
  0
VERTEX
  8
-21
  6
DASHDOT
 62
     7
  5
6F8
 10
966702.323
 20
7261116.309
 30
0.0
  0
VERTEX
  8
-21
  6
DASHDOT
 62
     7
  5
6F9
 10
966345.766
 20
7261129.328
 30
0.0
  0
VERTEX
  8
-21
  6
DASHDOT
 62
     7
  5
6FA
 10
966381.123
 20
7262097.683
 30
0.0
  0
SEQEND
  8
-21
  6
DASHDOT
 62
     7
  5
6FB
  0
TEXT
  8
-13
  6
CONTINUOUS
 62
    14
  5
6FC
 10
966391.221
 20
7261103.636
 30
0.0
 40
8.0
  1
V757 P293
 50
357.9089
  7
txt
 72
     4
 11
966426.302674
 21
7261106.357736
 31
0.0
210
0.0
220
0.0
230
1.0
  0
TEXT
  8
-13
  6
CONTINUOUS
 62
    14
  5
6FD
 10
966610.215
 20
7261095.64
 30
0.0
 40
8.0
  1
V757 P293
 50
357.9089
  7
txt
 72
     4
 11
966645.296674
 21
7261098.361736
 31
0.0
210
0.0
220
0.0
230
1.0
  0
TEXT
  8
-22
  6
CONTINUOUS
 62
     3
  5
6FE
 10
966558.523
 20
7261125.742
 30
0.0
 40
6.0
  1
10' POWER LINE EASEMENT
 50
357.9089
  7
txt
 72
     4
 11
966620.713097
 21
7261126.473265
 31
0.0
210
0.0
220
0.0
230
1.0
  0
POLYLINE
  8
-21
  6
DASHDOT
 62
     7
  5
6FF
 66
     1
 10
0.0
 20
0.0
 30
0.0
 70
     1
  0
VERTEX
  8
-21
  6
DASHDOT
 62
     7
  5
700
 10
966365.426
 20
7262098.287
 30
0.0
  0
VERTEX
  8
-21
  6
DASHDOT
 62
     7
  5
701
 10
966536.236
 20
7261837.682
 30
0.0
  0
VERTEX
  8
-21
  6
DASHDOT
 62
     7
  5
702
 10
966505.222
 20
7261001.663
 30
0.0
  0
VERTEX
  8
-21
  6
DASHDOT
 62
     7
  5
703
 10
966495.229
 20
7261002.034
 30
0.0
  0
VERTEX
  8
-21
  6
DASHDOT
 62
     7
  5
704
 10
966526.124
 20
7261834.867
 30
0.0
  0
VERTEX
  8
-21
  6
DASHDOT
 62
     7
  5
705
 10
966357.062
 20
7262092.805
 30
0.0
  0
VERTEX
  8
-21
  6
DASHDOT
 62
     7
  5
706
 10
966365.426
 20
7262098.287
 30
0.0
  0
SEQEND
  8
-21
  6
DASHDOT
 62
     7
  5
707
  0
TEXT
  8
-22
  6
CONTINUOUS
 62
     3
  5
708
 10
966340.418
 20
7261389.913
 30
0.0
 40
6.0
  1
10' POWER LINE EASEMENT
 50
87.9089
  7
txt
 72
     4
 11
966339.686735
 21
7261452.103097
 31
0.0
210
0.0
220
0.0
230
1.0
  0
TEXT
  8
-22
  6
CONTINUOUS
 62
     3
  5
709
 10
966505.831
 20
7261318.839
 30
0.0
 40
6.0
  1
10' OVERHEAD ELECTRICAL TRANSMISSION LINE EASEMENT
 50
87.9089
  7
txt
 72
     4
 11
966507.875012
 21
7261457.037447
 31
0.0
210
0.0
220
0.0
230
1.0
  0
TEXT
  8
-13
  6
CONTINUOUS
 62
    14
  5
70A
 10
966370.623
 20
7261447.413
 30
0.0
 40
8.0
  1
V757 P293
 50
87.9089
  7
txt
 72
     4
 11
966367.901264
 21
7261482.494674
 31
0.0
210
0.0
220
0.0
230
1.0
  0
TEXT
  8
-13
  6
CONTINUOUS
 62
    14
  5
70B
 10
966531.631
 20
7261450.781
 30
0.0
 40
8.0
  1
V1658 P111
 50
87.9089
  7
txt
 72
     4
 11
966528.844935
 21
7261484.100848
 31
0.0
210
0.0
220
0.0
230
1.0
  0
TEXT
  8
-13
  6
CONTINUOUS
 62
    14
  5
70C
 10
963955.502
 20
7261984.971
 30
0.0
 40
8.0
  1
SEWER LINE EASEMENT V.1674 P.856
 50
281.475581
  7
ROMANS
210
0.0
220
0.0
230
1.0
  0
TEXT
  8
-19
  6
CONTINUOUS
 62
     1
  5
70D
 10
967454.039
 20
7259645.078
 30
0.0
 40
24.0
  1
58TH ST
 50
304.9089
  7
ROMANC
 72
     4
 11
967513.949088
 21
7259580.196328
 31
0.0
210
0.0
220
0.0
230
1.0
  0
TEXT
  8
-22
  6
CONTINUOUS
 62
     3
  5
70E
 10
966991.628
 20
7256928.665
 30
0.0
 40
6.0
  1
10'USE AND UUE
 50
87.9089
  7
txt
 72
     4
 11
966990.001271
 21
7256966.330439
 31
0.0
210
0.0
220
0.0
230
1.0
  0
TEXT
  8
-22
  6
CONTINUOUS
 62
     3
  5
70F
 10
966995.702
 20
7257119.13
 30
0.0
 40
6.0
  1
433.33'
 50
87.9089
  7
txt
 72
     4
 11
966993.356485
 21
7257137.109557
 31
0.0
210
0.0
220
0.0
230
1.0
  0
TEXT
  8
-22
  6
CONTINUOUS
 62
     3
  5
710
 10
967019.662
 20
7256934.232
 30
0.0
 40
6.0
  1
10'USE AND UUE
 50
87.9089
  7
txt
 72
     4
 11
967018.035271
 21
7256971.897439
 31
0.0
210
0.0
220
0.0
230
1.0
  0
TEXT
  8
-13
  6
CONTINUOUS
 62
    14
  5
711
 10
967006.846
 20
7257111.321
 30
0.0
 40
8.0
  1
V962 P74
 50
87.9089
  7
txt
 72
     4
 11
967003.976012
 21
7257142.342379
 31
0.0
210
0.0
220
0.0
230
1.0
  0
TEXT
  8
-13
  6
CONTINUOUS
 62
    14
  5
712
 10
967011.721
 20
7256925.213
 30
0.0
 40
8.0
  1
V1791 P834
 50
87.9089
  7
txt
 72
     4
 11
967008.994667
 21
7256960.168758
 31
0.0
210
0.0
220
0.0
230
1.0
  0
POLYLINE
  8
-21
  6
DASHDOT
 62
     7
  5
713
 66
     1
 10
0.0
 20
0.0
 30
0.0
  0
VERTEX
  8
-21
  6
DASHDOT
 62
     7
  5
714
 10
967002.249
 20
7257315.304
 30
0.0
  0
VERTEX
  8
-21
  6
DASHDOT
 62
     7
  5
715
 10
966991.477
 20
7256882.108
 30
0.0
  0
VERTEX
  8
-21
  6
DASHDOT
 62
     7
  5
716
 10
967001.474
 20
7256881.866
 30
0.0
  0
VERTEX
  8
-21
  6
DASHDOT
 62
     7
  5
717
 10
967012.245
 20
7257315.061
 30
0.0
  0
VERTEX
  8
-21
  6
DASHDOT
 62
     7
  5
718
 10
967002.249
 20
7257315.304
 30
0.0
  0
SEQEND
  8
-21
  6
DASHDOT
 62
     7
  5
719
  0
POLYLINE
  8
-21
  6
DASHDOT
 62
     7
  5
71A
 66
     1
 10
0.0
 20
0.0
 30
0.0
  0
VERTEX
  8
-21
  6
DASHDOT
 62
     7
  5
71B
 10
967001.474
 20
7256881.866
 30
0.0
  0
VERTEX
  8
-21
  6
DASHDOT
 62
     7
  5
71C
 10
967012.244
 20
7257315.032
 30
0.0
  0
VERTEX
  8
-21
  6
DASHDOT
 62
     7
  5
71D
 10
967022.242
 20
7257314.789
 30
0.0
  0
VERTEX
  8
-21
  6
DASHDOT
 62
     7
  5
71E
 10
967011.47
 20
7256881.622
 30
0.0
  0
SEQEND
  8
-21
  6
DASHDOT
 62
     7
  5
71F
  0
TEXT
  8
-11
  6
CONTINUOUS
 62
     7
  5
720
 10
966480.12
 20
7259288.897
 30
0.0
 40
8.0
  1
1122.8'
 50
71.118583
  7
ROMANS
210
0.0
220
0.0
230
1.0
  0
TEXT
  8
-11
  6
CONTINUOUS
 62
     7
  5
721
 10
966943.934
 20
7259964.427
 30
0.0
 40
8.0
  1
412.19'
 50
82.913917
  7
ROMANS
210
0.0
220
0.0
230
1.0
  0
TEXT
  8
-11
  6
CONTINUOUS
 62
     7
  5
722
 10
966639.501
 20
7259975.093
 30
0.0
 40
8.0
  1
413'
 50
82.605553
  7
ROMANS
210
0.0
220
0.0
230
1.0
  0
POLYLINE
  8
-58
  6
DIVIDE
 62
   216
  5
724
 66
     1
 10
0.0
 20
0.0
 30
0.0
  0
VERTEX
  8
-58
  6
DIVIDE
 62
   216
  5
725
 10
969145.184
 20
7259470.735
 30
0.0
  0
VERTEX
  8
-58
  6
DIVIDE
 62
   216
  5
726
 10
968304.744
 20
7259501.422
 30
0.0
  0
VERTEX
  8
-58
  6
DIVIDE
 62
   216
  5
727
 10
968397.276
 20
7262035.644
 30
0.0
  0
SEQEND
  8
-58
  6
DIVIDE
 62
   216
  5
728
  0
TEXT
  8
-11
  6
CONTINUOUS
 62
     7
  5
729
 10
967939.448
 20
7257304.685
 30
0.0
 40
6.0
  1
30'
 50
87.828275
  7
txt
 72
     4
 11
967936.723148
 21
7257311.99751
 31
0.0
210
0.0
220
0.0
230
1.0
  0
TEXT
  8
-11
  6
CONTINUOUS
 62
     7
  5
72A
 10
968119.391
 20
7261989.375
 30
0.0
 40
6.0
  1
20'
 50
87.9089
  7
txt
 72
     4
 11
968116.655861
 21
7261996.683668
 31
0.0
210
0.0
220
0.0
230
1.0
  0
TEXT
  8
-13
  6
CONTINUOUS
 62
    14
  5
72B
 10
968113.1
 20
7258639.679
 30
0.0
 40
8.0
  1
V7264 P308
 50
358.495178
  7
txt
 72
     1
 11
968152.329466
 21
7258638.648436
 31
0.0
210
0.0
220
0.0
230
1.0
  0
TEXT
  8
-22
  6
CONTINUOUS
 62
     3
  5
72C
 10
968142.062
 20
7258649.571
 30
0.0
 40
6.0
  1
QCD
 50
359.568275
  7
txt
 72
     4
 11
968150.516365
 21
7258652.50738
 31
0.0
210
0.0
220
0.0
230
1.0
  0
LINE
  8
-27
  6
CONTINUOUS
 62
    32
  5
72E
 10
965866.536
 20
7257617.521
 30
0.0
 11
966446.515
 21
7256872.478
 31
0.0
  0
LINE
  8
-27
  6
CONTINUOUS
 62
    32
  5
72F
 10
963941.996
 20
7259841.539
 30
0.0
 11
964115.818
 21
7259753.682
 31
0.0
  0
ARC
  8
-27
  6
CONTINUOUS
 62
    32
  5
730
 10
963656.980164
 20
7259300.797078
 30
0.0
 40
611.257691
 50
62.206978
 51
67.337314
210
0.0
220
0.0
230
1.0
  0
LINE
  8
-27
  6
CONTINUOUS
 62
    32
  5
731
 10
964308.193
 20
7259594.435
 30
0.0
 11
965805.012
 21
7257676.341
 31
0.0
  0
ARC
  8
-27
  6
CONTINUOUS
 62
    32
  5
732
 10
963822.5318
 20
7259209.430492
 30
0.0
 40
619.753199
 50
38.405361
 51
60.396553
210
0.0
220
0.0
230
1.0
  0
LINE
  8
-27
  6
CONTINUOUS
 62
    32
  5
733
 10
964308.193
 20
7259594.435
 30
0.0
 11
964152.403
 21
7259794.744
 31
0.0
  0
ARC
  8
-27
  6
CONTINUOUS
 62
    32
  5
734
 10
964731.925314
 20
7260253.97521
 30
0.0
 40
739.418146
 50
212.033214
 51
218.394417
210
0.0
220
0.0
230
1.0
  0
ARC
  8
-27
  6
CONTINUOUS
 62
    32
  5
735
 10
962328.957949
 20
7258787.694174
 30
0.0
 40
2075.64606
 50
31.162733
 51
35.282756
210
0.0
220
0.0
230
1.0
  0
ARC
  8
-27
  6
CONTINUOUS
 62
    32
  5
736
 10
966142.832891
 20
7257892.505184
 30
0.0
 40
401.061774
 50
212.614308
 51
224.799983
210
0.0
220
0.0
230
1.0
  0
ARC
  8
-27
  6
CONTINUOUS
 62
    32
  5
737
 10
964980.137484
 20
7256714.263435
 30
0.0
 40
1254.294434
 50
38.942917
 51
45.566119
210
0.0
220
0.0
230
1.0
  0
ARC
  8
-27
  6
CONTINUOUS
 62
    32
  5
738
 10
962142.143438
 20
7254882.462065
 30
0.0
 40
4620.784725
 50
36.292219
 51
39.759556
210
0.0
220
0.0
230
1.0
  0
LINE
  8
-27
  6
CONTINUOUS
 62
    32
  5
739
 10
965694.303
 20
7257837.764
 30
0.0
 11
965444.384
 21
7258162.177
 31
0.0
  0
ARC
  8
-27
  6
CONTINUOUS
 62
    32
  5
73A
 10
965150.616041
 20
7257860.35443
 30
0.0
 40
402.020678
 50
35.271769
 51
87.172181
210
0.0
220
0.0
230
1.0
  0
ARC
  8
-27
  6
CONTINUOUS
 62
    32
  5
73B
 10
965062.730959
 20
7257877.121343
 30
0.0
 40
386.875958
 50
95.873853
 51
143.199017
210
0.0
220
0.0
230
1.0
  0
LINE
  8
-27
  6
CONTINUOUS
 62
    32
  5
73C
 10
965023.138
 20
7258261.966
 30
0.0
 11
965170.45
 21
7258261.885
 31
0.0
  0
ARC
  8
-27
  6
CONTINUOUS
 62
    32
  5
73D
 10
964394.672048
 20
7258304.232683
 30
0.0
 40
408.079392
 50
270.547064
 51
331.397775
210
0.0
220
0.0
230
1.0
  0
LINE
  8
-27
  6
CONTINUOUS
 62
    32
  5
73E
 10
964398.568
 20
7257896.172
 30
0.0
 11
963861.699
 21
7257906.925
 31
0.0
  0
LINE
  8
-27
  6
CONTINUOUS
 62
    32
  5
73F
 10
963897.72
 20
7260148.953
 30
0.0
 11
965057.597
 21
7258660.017
 31
0.0
  0
ARC
  8
-27
  6
CONTINUOUS
 62
    32
  5
740
 10
964206.583454
 20
7260420.440655
 30
0.0
 40
412.352181
 50
221.220375
 51
267.600872
210
0.0
220
0.0
230
1.0
  0
ARC
  8
-27
  6
CONTINUOUS
 62
    32
  5
741
 10
964304.792826
 20
7259590.584018
 30
0.0
 40
405.219055
 50
75.485314
 51
89.188475
210
0.0
220
0.0
230
1.0
  0
LINE
  8
-27
  6
CONTINUOUS
 62
    32
  5
742
 10
964202.987
 20
7259999.082
 30
0.0
 11
964771.802
 21
7259981.38
 31
0.0
  0
LINE
  8
-27
  6
CONTINUOUS
 62
    32
  5
743
 10
964531.128
 20
7259963.554
 30
0.0
 11
964845.548
 21
7259952.011
 31
0.0
  0
ARC
  8
-27
  6
CONTINUOUS
 62
    32
  5
744
 10
964911.882071
 20
7259655.665664
 30
0.0
 40
319.691208
 50
86.631367
 51
105.131803
210
0.0
220
0.0
230
1.0
  0
LINE
  8
-27
  6
CONTINUOUS
 62
    32
  5
745
 10
964930.667
 20
7259974.804
 30
0.0
 11
965313.993
 21
7259961.578
 31
0.0
  0
ARC
  8
-27
  6
CONTINUOUS
 62
    32
  5
746
 10
964877.232955
 20
7260704.071853
 30
0.0
 40
752.727427
 50
267.587544
 51
275.288739
210
0.0
220
0.0
230
1.0
  0
ARC
  8
-27
  6
CONTINUOUS
 62
    32
  5
747
 10
965001.099577
 20
7259649.185647
 30
0.0
 40
310.185808
 50
86.292067
 51
100.116469
210
0.0
220
0.0
230
1.0
  0
LINE
  8
-27
  6
CONTINUOUS
 62
    32
  5
748
 10
963912.716
 20
7260263.727
 30
0.0
 11
964015.951
 21
7260131.842
 31
0.0
  0
ARC
  8
-27
  6
CONTINUOUS
 62
    32
  5
749
 10
964308.94932
 20
7260380.738831
 30
0.0
 40
384.444734
 50
220.347394
 51
268.5914
210
0.0
220
0.0
230
1.0
  0
ARC
  8
-27
  6
CONTINUOUS
 62
    32
  5
74A
 10
964524.579851
 20
7260333.915977
 30
0.0
 40
370.420252
 50
251.38715
 51
271.012864
210
0.0
220
0.0
230
1.0
  0
POLYLINE
  8
-27
  6
CONTINUOUS
 62
    32
  5
74B
 66
     1
 10
0.0
 20
0.0
 30
0.0
210
0.0
220
0.0
230
1.0
  0
VERTEX
  8
-27
  6
CONTINUOUS
 62
    32
  5
74C
 10
965444.383759
 20
7258162.176577
 30
0.0
 42
0.001196
  0
VERTEX
  8
-27
  6
CONTINUOUS
 62
    32
  5
74D
 10
965251.583536
 20
7258411.562891
 30
0.0
 42
0.001196
  0
VERTEX
  8
-27
  6
CONTINUOUS
 62
    32
  5
74E
 10
965057.596886
 20
7258660.017571
 30
0.0
 42
0.001196
  0
SEQEND
  8
-27
  6
CONTINUOUS
 62
    32
  5
74F
  0
LINE
  8
-6
  6
CONTINUOUS
 62
     7
  5
750
 10
963836.467
 20
7256985.379
 30
0.0
 11
964553.246
 21
7256970.868
 31
0.0
  0
LINE
  8
-6
  6
CONTINUOUS
 62
     7
  5
751
 10
969198.864
 20
7261998.982
 30
0.0
 11
968117.033
 21
7262044.111
 31
0.0
  0
LINE
  8
-6
  6
CONTINUOUS
 62
     7
  5
752
 10
968038.673
 20
7262046.972
 30
0.0
 11
967313.802
 21
7262073.439
 31
0.0
  0
TEXT
  8
-28
  6
CONTINUOUS
 62
    32
  5
754
 10
964491.244
 20
7259398.615
 30
0.0
 40
24.0
  1
PANHANDLE & SANTA FE RAILROAD
 50
307.968292
  7
ROMANC
210
0.0
220
0.0
230
1.0
  0
ARC
  8
-27
  6
CONTINUOUS
 62
    32
  5
755
 10
964740.644759
 20
7260417.721495
 30
0.0
 40
461.868158
 50
270.030658
 51
280.956581
210
0.0
220
0.0
230
1.0
  0
LINE
  8
-27
  6
CONTINUOUS
 62
    32
  5
756
 10
965021.159
 20
7259958.722
 30
0.0
 11
965312.913
 21
7259948.797
 31
0.0
  0
ENDSEC
  0
EOF
