  0
SECTION
  2
HEADER
  9
$ACADVER
  1
AC1009
  9
$INSBASE
 10
0.0
 20
0.0
 30
0.0
  9
$EXTMIN
 10
958210.325
 20
7283409.481
 30
0.0
  9
$EXTMAX
 10
963722.179
 20
7288863.685
 30
0.0
  9
$LIMMIN
 10
0.0
 20
0.0
  9
$LIMMAX
 10
12.0
 20
9.0
  9
$ORTHOMODE
 70
     0
  9
$REGENMODE
 70
     1
  9
$FILLMODE
 70
     1
  9
$QTEXTMODE
 70
     0
  9
$MIRRTEXT
 70
     1
  9
$DRAGMODE
 70
     2
  9
$LTSCALE
 40
1.0
  9
$OSMODE
 70
     0
  9
$ATTMODE
 70
     1
  9
$TEXTSIZE
 40
0.2
  9
$TRACEWID
 40
0.05
  9
$TEXTSTYLE
  7
STANDARD
  9
$CLAYER
  8
0
  9
$CELTYPE
  6
CONTINUOUS
  9
$CECOLOR
 62
   256
  9
$DIMSCALE
 40
1.0
  9
$DIMASZ
 40
0.18
  9
$DIMEXO
 40
0.0625
  9
$DIMDLI
 40
0.38
  9
$DIMRND
 40
0.0
  9
$DIMDLE
 40
0.0
  9
$DIMEXE
 40
0.18
  9
$DIMTP
 40
0.0
  9
$DIMTM
 40
0.0
  9
$DIMTXT
 40
0.18
  9
$DIMCEN
 40
0.09
  9
$DIMTSZ
 40
0.0
  9
$DIMTOL
 70
     0
  9
$DIMLIM
 70
     0
  9
$DIMTIH
 70
     1
  9
$DIMTOH
 70
     1
  9
$DIMSE1
 70
     0
  9
$DIMSE2
 70
     0
  9
$DIMTAD
 70
     0
  9
$DIMZIN
 70
     0
  9
$DIMBLK
  1

  9
$DIMASO
 70
     1
  9
$DIMSHO
 70
     1
  9
$DIMPOST
  1

  9
$DIMAPOST
  1

  9
$DIMALT
 70
     0
  9
$DIMALTD
 70
     2
  9
$DIMALTF
 40
25.4
  9
$DIMLFAC
 40
1.0
  9
$DIMTOFL
 70
     0
  9
$DIMTVP
 40
0.0
  9
$DIMTIX
 70
     0
  9
$DIMSOXD
 70
     0
  9
$DIMSAH
 70
     0
  9
$DIMBLK1
  1

  9
$DIMBLK2
  1

  9
$DIMSTYLE
  2
STANDARD
  9
$DIMCLRD
 70
     0
  9
$DIMCLRE
 70
     0
  9
$DIMCLRT
 70
     0
  9
$DIMTFAC
 40
1.0
  9
$DIMGAP
 40
0.09
  9
$LUNITS
 70
     2
  9
$LUPREC
 70
     4
  9
$AXISMODE
 70
     0
  9
$AXISUNIT
 10
0.0
 20
0.0
  9
$SKETCHINC
 40
0.1
  9
$FILLETRAD
 40
0.0
  9
$AUNITS
 70
     0
  9
$AUPREC
 70
     0
  9
$MENU
  1
acad
  9
$ELEVATION
 40
0.0
  9
$PELEVATION
 40
0.0
  9
$THICKNESS
 40
0.0
  9
$LIMCHECK
 70
     0
  9
$BLIPMODE
 70
     1
  9
$CHAMFERA
 40
0.0
  9
$CHAMFERB
 40
0.0
  9
$SKPOLY
 70
     0
  9
$TDCREATE
 40
2453013.900416667
  9
$TDUPDATE
 40
2453013.900416667
  9
$TDINDWG
 40
0.0000000000
  9
$TDUSRTIMER
 40
0.0000000000
  9
$USRTIMER
 70
     1
  9
$ANGBASE
 50
0.0
  9
$ANGDIR
 70
     0
  9
$PDMODE
 70
     0
  9
$PDSIZE
 40
0.0
  9
$PLINEWID
 40
0.0
  9
$COORDS
 70
     0
  9
$SPLFRAME
 70
     0
  9
$SPLINETYPE
 70
     6
  9
$SPLINESEGS
 70
    10
  9
$ATTDIA
 70
     0
  9
$ATTREQ
 70
     1
  9
$HANDLING
 70
     1
  9
$HANDSEED
  5
5AC
  9
$SURFTAB1
 70
     6
  9
$SURFTAB2
 70
     6
  9
$SURFTYPE
 70
     6
  9
$SURFU
 70
     6
  9
$SURFV
 70
     6
  9
$UCSNAME
  2

  9
$UCSORG
 10
0.0
 20
0.0
 30
0.0
  9
$UCSXDIR
 10
1.0
 20
0.0
 30
0.0
  9
$UCSYDIR
 10
0.0
 20
1.0
 30
0.0
  9
$PUCSNAME
  2

  9
$PUCSORG
 10
0.0
 20
0.0
 30
0.0
  9
$PUCSXDIR
 10
1.0
 20
0.0
 30
0.0
  9
$PUCSYDIR
 10
0.0
 20
1.0
 30
0.0
  9
$USERI1
 70
     0
  9
$USERI2
 70
     0
  9
$USERI3
 70
     0
  9
$USERI4
 70
     0
  9
$USERI5
 70
     0
  9
$USERR1
 40
0.0
  9
$USERR2
 40
0.0
  9
$USERR3
 40
0.0
  9
$USERR4
 40
0.0
  9
$USERR5
 40
0.0
  9
$WORLDVIEW
 70
     1
  9
$SHADEDGE
 70
     3
  9
$SHADEDIF
 70
    70
  9
$TILEMODE
 70
     1
  9
$MAXACTVP
 70
    16
  9
$PINSBASE
 10
0.0
 20
0.0
 30
0.0
  9
$PLIMCHECK
 70
     0
  9
$PEXTMIN
 10
-1.000000E+20
 20
-1.000000E+20
 30
-1.000000E+20
  9
$PEXTMAX
 10
-1.000000E+20
 20
-1.000000E+20
 30
-1.000000E+20
  9
$PLIMMIN
 10
0.0
 20
0.0
  9
$PLIMMAX
 10
12.0
 20
9.0
  9
$UNITMODE
 70
     0
  9
$VISRETAIN
 70
     0
  9
$PLINEGEN
 70
     1
  9
$PSLTSCALE
 70
     0
  9
$TREEDEPTH
 70
  3020
  9
$DWGCODEPAGE
  3
ansi_1252
  0
ENDSEC
  0
SECTION
  2
TABLES
  0
TABLE
  2
VPORT
 70
     1
  0
VPORT
  2
*ACTIVE
 70
     0
 10
0.0
 20
0.0
 11
1.0
 21
1.0
 12
0.0
 22
0.0
 13
0.0
 23
0.0
 14
0.0
 24
0.0
 15
0.0
 25
0.0
 16
0.0
 26
0.0
 36
1.0
 17
958802.612868
 27
7286259.279563
 37
0.0
 40
72.313
 41
1.258571
 42
50.0
 43
0.004
 44
0.0
 50
1.720973
 51
0.0
 71
     0
 72
   100
 73
     1
 74
     0
 75
     0
 76
     0
 77
     0
 78
     0
  0
ENDTAB
  0
TABLE
  2
LTYPE
 70
     7
  0
LTYPE
  2
CONTINUOUS
 70
     0
  3
Solid line
 72
    65
 73
     0
 40
0.0
  0
LTYPE
  2
DOT
 70
    64
  3
. . . . . . . . . . . . . . . . . . . . . . . . . . . . . . . . .
 72
    65
 73
     2
 40
0.25
 49
0.0
 49
-0.25
  0
LTYPE
  2
HIDDEN
 70
    64
  3
__ __ __ __ __ __ __ __ __ __ __ __ __ __ __ __ __ __ __ __ __ 
 72
    65
 73
     2
 40
0.375
 49
0.25
 49
-0.125
  0
LTYPE
  2
DASHED
 70
    64
  3
__ __ __ __ __ __ __ __ __ __ __ __ __ __ __ __ __ __ __ __ __
 72
    65
 73
     2
 40
0.75
 49
0.5
 49
-0.25
  0
LTYPE
  2
DASHDOT
 70
    64
  3
__ . __ . __ . __ . __ . __ . __ . __ . __ . __ . __ . __ . _
 72
    65
 73
     4
 40
1.0
 49
0.5
 49
-0.25
 49
0.0
 49
-0.25
  0
LTYPE
  2
DIVIDE
 70
    64
  3
____ . . ____ . . ____ . . ____ . . ____ . . ____ . . ____ . .
 72
    65
 73
     6
 40
1.25
 49
0.5
 49
-0.25
 49
0.0
 49
-0.25
 49
0.0
 49
-0.25
  0
LTYPE
  2
CENTER
 70
    64
  3
____ _ ____ _ ____ _ ____ _ ____ _ ____ _ ____ _ ____ _ ____ _
 72
    65
 73
     4
 40
2.0
 49
1.25
 49
-0.25
 49
0.25
 49
-0.25
  0
ENDTAB
  0
TABLE
  2
LAYER
 70
    17
  0
LAYER
  2
0
 70
     0
 62
     7
  6
CONTINUOUS
  0
LAYER
  2
CONSTRUCTION_CLASS
 70
     1
 62
     7
  6
CONTINUOUS
  0
LAYER
  2
PATTERN_CLASS
 70
     0
 62
     7
  6
CONTINUOUS
  0
LAYER
  2
6
 70
    64
 62
     7
  6
CONTINUOUS
  0
LAYER
  2
27
 70
    64
 62
     7
  6
CONTINUOUS
  0
LAYER
  2
7
 70
    64
 62
     7
  6
CONTINUOUS
  0
LAYER
  2
14
 70
    64
 62
     7
  6
CONTINUOUS
  0
LAYER
  2
15
 70
    64
 62
     7
  6
CONTINUOUS
  0
LAYER
  2
19
 70
    64
 62
     7
  6
CONTINUOUS
  0
LAYER
  2
11
 70
    64
 62
     7
  6
CONTINUOUS
  0
LAYER
  2
21
 70
    64
 62
     7
  6
CONTINUOUS
  0
LAYER
  2
22
 70
    64
 62
     7
  6
CONTINUOUS
  0
LAYER
  2
1
 70
    64
 62
     7
  6
CONTINUOUS
  0
LAYER
  2
10
 70
    64
 62
     7
  6
CONTINUOUS
  0
LAYER
  2
25
 70
    64
 62
     7
  6
CONTINUOUS
  0
LAYER
  2
13
 70
    64
 62
     7
  6
CONTINUOUS
  0
LAYER
  2
28
 70
    64
 62
     7
  6
CONTINUOUS
  0
ENDTAB
  0
TABLE
  2
STYLE
 70
     5
  0
STYLE
  2
STANDARD
 70
     0
 40
0.0
 41
1.0
 50
0.0
 71
     0
 42
0.0
  3
txt
  4

  0
STYLE
  2
ROMANC
 70
     0
 40
0.2
 41
1.0
 50
0.0
 71
     0
 42
0.2
  3
ROMANC
  4

  0
STYLE
  2
ROMANS
 70
     0
 40
0.2
 41
1.0
 50
0.0
 71
     0
 42
0.2
  3
ROMANS
  4

  0
STYLE
  2
MONOTXT
 70
     0
 40
0.2
 41
1.0
 50
0.0
 71
     0
 42
0.2
  3
MONOTXT
  4

  0
STYLE
  2
txt
 70
     0
 40
0.2
 41
1.0
 50
0.0
 71
     0
 42
0.2
  3
TXT
  4

  0
ENDTAB
  0
TABLE
  2
VIEW
 70
     0
  0
ENDTAB
  0
TABLE
  2
UCS
 70
     0
  0
ENDTAB
  0
TABLE
  2
APPID
 70
     1
  0
APPID
  2
ACAD
 70
     0
  0
ENDTAB
  0
TABLE
  2
DIMSTYLE
 70
     1
  0
DIMSTYLE
  2
STANDARD
 70
     0
  3

  4

  5

  6

  7

 40
1.0
 41
0.18
 42
0.0625
 43
0.38
 44
0.18
 45
0.0
 46
0.0
 47
0.0
 48
0.0
140
0.18
141
0.09
142
0.0
143
25.4
144
1.0
145
0.0
146
1.0
147
0.09
 71
     0
 72
     0
 73
     1
 74
     1
 75
     0
 76
     0
 77
     0
 78
     0
170
     0
171
     2
172
     0
173
     0
174
     0
175
     0
176
     0
177
     0
178
     0
  0
ENDTAB
  0
ENDSEC
  0
SECTION
  2
BLOCKS
  0
ENDSEC
  0
SECTION
  2
ENTITIES
  0
LINE
  8
6
  6
CONTINUOUS
 62
     7
  5
29
 10
963685.075
 20
7288658.567
 30
0.0
 11
963678.315
 21
7288381.464
 31
0.0
  0
LINE
  8
27
  6
CONTINUOUS
 62
    32
  5
2B
 10
963642.151
 20
7288320.626
 30
0.0
 11
958383.745
 21
7286021.571
 31
0.0
  0
LINE
  8
6
  6
CONTINUOUS
 62
     7
  5
2C
 10
963685.075
 20
7288658.567
 30
0.0
 11
963302.689
 21
7288667.895
 31
0.0
  0
LINE
  8
6
  6
CONTINUOUS
 62
     7
  5
2D
 10
963582.164
 20
7283835.162
 30
0.0
 11
963174.549
 21
7284282.234
 31
0.0
  0
ARC
  8
6
  6
CONTINUOUS
 62
     7
  5
2E
 10
959054.039532
 20
7280519.945288
 30
0.0
 40
5579.65
 50
42.394833
 51
68.627728
210
0.0
220
0.0
230
1.0
  0
LINE
  8
6
  6
CONTINUOUS
 62
     7
  5
2F
 10
961089.158
 20
7285715.217
 30
0.0
 11
960425.538
 21
7285970.144
 31
0.0
  0
LINE
  8
6
  6
CONTINUOUS
 62
     7
  5
30
 10
960542.269
 20
7286250.043
 30
0.0
 11
960058.21
 21
7286522.68
 31
0.0
  0
LINE
  8
6
  6
CONTINUOUS
 62
     7
  5
31
 10
960042.708
 20
7286558.799
 30
0.0
 11
960058.21
 21
7286522.68
 31
0.0
  0
LINE
  8
6
  6
CONTINUOUS
 62
     7
  5
32
 10
959250.597
 20
7286250.71
 30
0.0
 11
960425.538
 21
7285970.144
 31
0.0
  0
LINE
  8
6
  6
CONTINUOUS
 62
     7
  5
33
 10
959082.544
 20
7286384.009
 30
0.0
 11
958938.907
 21
7286479.793
 31
0.0
  0
POLYLINE
  8
7
  6
CONTINUOUS
 62
     7
  5
35
 66
     1
 10
0.0
 20
0.0
 30
0.0
  0
VERTEX
  8
7
  6
CONTINUOUS
 62
     7
  5
36
 10
958928.91
 20
7286320.281
 30
0.0
  0
VERTEX
  8
7
  6
CONTINUOUS
 62
     7
  5
37
 10
958853.686
 20
7286369.69
 30
0.0
  0
VERTEX
  8
7
  6
CONTINUOUS
 62
     7
  5
38
 10
958479.829
 20
7286432.215
 30
0.0
  0
SEQEND
  8
7
  6
CONTINUOUS
 62
     7
  5
39
  0
ARC
  8
6
  6
CONTINUOUS
 62
     7
  5
3A
 10
964109.105223
 20
7285756.808286
 30
0.0
 40
5669.650404
 50
173.158292
 51
176.559333
210
0.0
220
0.0
230
1.0
  0
ARC
  8
6
  6
CONTINUOUS
 62
     7
  5
3B
 10
964109.104822
 20
7285756.808336
 30
0.0
 40
5669.65
 50
172.046664
 51
173.158292
210
0.0
220
0.0
230
1.0
  0
ARC
  8
6
  6
CONTINUOUS
 62
     7
  5
3C
 10
958568.269067
 20
7286530.920858
 30
0.0
 40
75.0
 50
72.504797
 51
172.046664
210
0.0
220
0.0
230
1.0
  0
ARC
  8
6
  6
CONTINUOUS
 62
     7
  5
3D
 10
956931.562951
 20
7281338.360002
 30
0.0
 40
5519.4
 50
68.673094
 51
72.505039
210
0.0
220
0.0
230
1.0
  0
POLYLINE
  8
7
  6
CONTINUOUS
 62
     7
  5
3E
 66
     1
 10
0.0
 20
0.0
 30
0.0
  0
VERTEX
  8
7
  6
CONTINUOUS
 62
     7
  5
3F
 10
958497.451
 20
7287705.659
 30
0.0
  0
VERTEX
  8
7
  6
CONTINUOUS
 62
     7
  5
40
 10
959377.55
 20
7287446.119
 30
0.0
  0
VERTEX
  8
7
  6
CONTINUOUS
 62
     7
  5
41
 10
959362.893
 20
7286845.298
 30
0.0
  0
SEQEND
  8
7
  6
CONTINUOUS
 62
     7
  5
42
  0
LINE
  8
6
  6
CONTINUOUS
 62
     7
  5
43
 10
959763.824
 20
7286727.064
 30
0.0
 11
958632.011
 21
7287060.834
 31
0.0
  0
ARC
  8
6
  6
CONTINUOUS
 62
     7
  5
44
 10
958653.225605
 20
7287132.771066
 30
0.0
 40
75.0
 50
190.482822
 51
253.569294
210
0.0
220
0.0
230
1.0
  0
ARC
  8
6
  6
CONTINUOUS
 62
     7
  5
45
 10
957814.708684
 20
7286977.619403
 30
0.0
 40
777.75
 50
10.482939
 51
17.983878
210
0.0
220
0.0
230
1.0
  0
POLYLINE
  8
6
  6
CONTINUOUS
 62
     7
  5
46
 66
     1
 10
0.0
 20
0.0
 30
0.0
  0
VERTEX
  8
6
  6
CONTINUOUS
 62
     7
  5
47
 10
958497.451
 20
7287705.659
 30
0.0
  0
VERTEX
  8
6
  6
CONTINUOUS
 62
     7
  5
48
 10
958493.282
 20
7287534.7
 30
0.0
  0
VERTEX
  8
6
  6
CONTINUOUS
 62
     7
  5
49
 10
958503.279
 20
7287534.457
 30
0.0
  0
SEQEND
  8
6
  6
CONTINUOUS
 62
     7
  5
4A
  0
ARC
  8
6
  6
CONTINUOUS
 62
     7
  5
4B
 10
959016.815521
 20
7287521.928862
 30
0.0
 40
513.69
 50
178.6026
 51
194.055028
210
0.0
220
0.0
230
1.0
  0
LINE
  8
6
  6
CONTINUOUS
 62
     7
  5
4C
 10
958518.504
 20
7287397.177
 30
0.0
 11
958554.46
 21
7287217.749
 31
0.0
  0
LINE
  8
6
  6
CONTINUOUS
 62
     7
  5
4D
 10
959773.086
 20
7286705.479
 30
0.0
 11
959763.824
 21
7286727.064
 31
0.0
  0
POLYLINE
  8
6
  6
CONTINUOUS
 62
     7
  5
4E
 66
     1
 10
0.0
 20
0.0
 30
0.0
  0
VERTEX
  8
6
  6
CONTINUOUS
 62
     7
  5
4F
 10
958423.418
 20
7283528.059
 30
0.0
  0
VERTEX
  8
6
  6
CONTINUOUS
 62
     7
  5
50
 10
958424.15
 20
7283558.051
 30
0.0
  0
VERTEX
  8
6
  6
CONTINUOUS
 62
     7
  5
51
 10
958399.157
 20
7283558.66
 30
0.0
  0
SEQEND
  8
6
  6
CONTINUOUS
 62
     7
  5
52
  0
ARC
  8
6
  6
CONTINUOUS
 62
     7
  5
53
 10
958399.522359
 20
7283573.655216
 30
0.0
 40
15.0
 50
178.6026
 51
268.6026
210
0.0
220
0.0
230
1.0
  0
LINE
  8
6
  6
CONTINUOUS
 62
     7
  5
54
 10
958384.528
 20
7283574.022
 30
0.0
 11
958403.984
 21
7284390.873
 31
0.0
  0
ARC
  8
6
  6
CONTINUOUS
 62
     7
  5
55
 10
958418.979415
 20
7284390.507889
 30
0.0
 40
15.0
 50
88.6026
 51
178.6026
210
0.0
220
0.0
230
1.0
  0
POLYLINE
  8
6
  6
CONTINUOUS
 62
     7
  5
56
 66
     1
 10
0.0
 20
0.0
 30
0.0
  0
VERTEX
  8
6
  6
CONTINUOUS
 62
     7
  5
57
 10
958419.345
 20
7284405.504
 30
0.0
  0
VERTEX
  8
6
  6
CONTINUOUS
 62
     7
  5
58
 10
958444.338
 20
7284404.893
 30
0.0
  0
VERTEX
  8
6
  6
CONTINUOUS
 62
     7
  5
59
 10
958445.801
 20
7284464.876
 30
0.0
  0
VERTEX
  8
6
  6
CONTINUOUS
 62
     7
  5
5A
 10
958420.809
 20
7284465.486
 30
0.0
  0
SEQEND
  8
6
  6
CONTINUOUS
 62
     7
  5
5B
  0
ARC
  8
6
  6
CONTINUOUS
 62
     7
  5
5C
 10
958421.174228
 20
7284480.481123
 30
0.0
 40
15.0
 50
178.6026
 51
268.6026
210
0.0
220
0.0
230
1.0
  0
LINE
  8
6
  6
CONTINUOUS
 62
     7
  5
5D
 10
958406.179
 20
7284480.847
 30
0.0
 11
958441.085
 21
7285813.396
 31
0.0
  0
LINE
  8
6
  6
CONTINUOUS
 62
     7
  5
5E
 10
958441.085
 20
7285813.396
 30
0.0
 11
958450.78
 21
7285887.767
 31
0.0
  0
LINE
  8
6
  6
CONTINUOUS
 62
     7
  5
5F
 10
961297.81
 20
7287235.254
 30
0.0
 11
960184.283
 21
7286757.439
 31
0.0
  0
LINE
  8
6
  6
CONTINUOUS
 62
     7
  5
60
 10
960175.769
 20
7286779.12
 30
0.0
 11
958444.5
 21
7285995.945
 31
0.0
  0
LINE
  8
6
  6
CONTINUOUS
 62
     7
  5
61
 10
961300.639
 20
7287224.715
 30
0.0
 11
961290.77
 21
7287247.714
 31
0.0
  0
LINE
  8
6
  6
CONTINUOUS
 62
     7
  5
62
 10
960184.283
 20
7286757.439
 30
0.0
 11
960174.446
 21
7286780.364
 31
0.0
  0
LINE
  8
7
  6
CONTINUOUS
 62
     7
  5
63
 10
960128.764
 20
7286858.356
 30
0.0
 11
960119.735
 21
7286879.398
 31
0.0
  0
LINE
  8
6
  6
CONTINUOUS
 62
     7
  5
64
 10
960728.483
 20
7286864.553
 30
0.0
 11
961053.478
 21
7286134.119
 31
0.0
  0
LINE
  8
6
  6
CONTINUOUS
 62
     7
  5
65
 10
961053.478
 20
7286134.119
 30
0.0
 11
960989.842
 21
7286078.11
 31
0.0
  0
LINE
  8
6
  6
CONTINUOUS
 62
     7
  5
66
 10
960776.979
 20
7286874.375
 30
0.0
 11
961107.986
 21
7286130.43
 31
0.0
  0
LINE
  8
6
  6
CONTINUOUS
 62
     7
  5
67
 10
961107.986
 20
7286130.43
 30
0.0
 11
961105.395
 21
7286024.268
 31
0.0
  0
ARC
  8
6
  6
CONTINUOUS
 62
     7
  5
68
 10
959066.019532
 20
7280509.257288
 30
0.0
 40
5879.65
 50
60.869711
 51
68.627728
210
0.0
220
0.0
230
1.0
  0
POLYLINE
  8
7
  6
CONTINUOUS
 62
     7
  5
69
 66
     1
 10
0.0
 20
0.0
 30
0.0
  0
VERTEX
  8
7
  6
CONTINUOUS
 62
     7
  5
6A
 10
962327.72
 20
7286378.899
 30
0.0
  0
VERTEX
  8
7
  6
CONTINUOUS
 62
     7
  5
6B
 10
962271.691
 20
7286404.254
 30
0.0
  0
VERTEX
  8
7
  6
CONTINUOUS
 62
     7
  5
6C
 10
962125.336
 20
7286080.827
 30
0.0
  0
VERTEX
  8
7
  6
CONTINUOUS
 62
     7
  5
6D
 10
961613.787
 20
7286093.306
 30
0.0
  0
VERTEX
  8
7
  6
CONTINUOUS
 62
     7
  5
6E
 10
961749.547
 20
7286393.318
 30
0.0
  0
VERTEX
  8
7
  6
CONTINUOUS
 62
     7
  5
6F
 10
961405.597
 20
7287166.356
 30
0.0
  0
SEQEND
  8
7
  6
CONTINUOUS
 62
     7
  5
70
  0
LINE
  8
7
  6
CONTINUOUS
 62
     7
  5
71
 10
961613.787
 20
7286093.306
 30
0.0
 11
961507.355
 21
7285858.104
 31
0.0
  0
LINE
  8
7
  6
CONTINUOUS
 62
     7
  5
72
 10
962125.336
 20
7286080.827
 30
0.0
 11
961928.217
 21
7285645.221
 31
0.0
  0
ARC
  8
6
  6
CONTINUOUS
 62
     7
  5
73
 10
961825.680438
 20
7286690.372195
 30
0.0
 40
585.8
 50
335.652925
 51
358.808908
210
0.0
220
0.0
230
1.0
  0
LINE
  8
6
  6
CONTINUOUS
 62
     7
  5
74
 10
962411.354
 20
7286678.195
 30
0.0
 11
962429.271
 21
7287412.677
 31
0.0
  0
ARC
  8
6
  6
CONTINUOUS
 62
     7
  5
75
 10
963050.886313
 20
7287397.513065
 30
0.0
 40
621.8
 50
156.591617
 51
178.6026
210
0.0
220
0.0
230
1.0
  0
LINE
  8
6
  6
CONTINUOUS
 62
     7
  5
76
 10
962447.344
 20
7286677.318
 30
0.0
 11
962465.261
 21
7287411.799
 31
0.0
  0
ARC
  8
6
  6
CONTINUOUS
 62
     7
  5
77
 10
963050.886313
 20
7287397.513065
 30
0.0
 40
585.8
 50
152.730017
 51
178.6026
210
0.0
220
0.0
230
1.0
  0
ARC
  8
6
  6
CONTINUOUS
 62
     7
  5
78
 10
961825.680438
 20
7286690.372195
 30
0.0
 40
621.8
 50
335.652925
 51
358.808908
210
0.0
220
0.0
230
1.0
  0
LINE
  8
6
  6
CONTINUOUS
 62
     7
  5
79
 10
962360.52
 20
7286364.056
 30
0.0
 11
962392.182
 21
7286434.028
 31
0.0
  0
ARC
  8
6
  6
CONTINUOUS
 62
     7
  5
7A
 10
959066.019681
 20
7280509.257555
 30
0.0
 40
5879.65
 50
55.611283
 51
60.869717
210
0.0
220
0.0
230
1.0
  0
LINE
  8
6
  6
CONTINUOUS
 62
     7
  5
7B
 10
962911.623
 20
7286290.294
 30
0.0
 11
962644.885
 21
7285700.837
 31
0.0
  0
ARC
  8
6
  6
CONTINUOUS
 62
     7
  5
7C
 10
961506.758503
 20
7286215.854597
 30
0.0
 40
1249.23
 50
325.527
 51
335.652589
210
0.0
220
0.0
230
1.0
  0
LINE
  8
6
  6
CONTINUOUS
 62
     7
  5
7D
 10
962536.615
 20
7285508.768
 30
0.0
 11
962442.436
 21
7285371.653
 31
0.0
  0
ARC
  8
6
  6
CONTINUOUS
 62
     7
  5
7E
 10
962409.464599
 20
7285394.299233
 30
0.0
 40
40.0
 50
235.611283
 51
325.516469
210
0.0
220
0.0
230
1.0
  0
ARC
  8
6
  6
CONTINUOUS
 62
     7
  5
7F
 10
963323.243259
 20
7286719.521511
 30
0.0
 40
355.0
 50
139.400008
 51
178.6026
210
0.0
220
0.0
230
1.0
  0
LINE
  8
6
  6
CONTINUOUS
 62
     7
  5
80
 10
962963.227
 20
7286518.241
 30
0.0
 11
962968.349
 21
7286728.179
 31
0.0
  0
ARC
  8
6
  6
CONTINUOUS
 62
     7
  5
81
 10
962381.756997
 20
7286530.064461
 30
0.0
 40
581.59
 50
335.652617
 51
358.808631
210
0.0
220
0.0
230
1.0
  0
LINE
  8
6
  6
CONTINUOUS
 62
     7
  5
82
 10
961554.91
 20
7287248.43
 30
0.0
 11
961292.806
 21
7287104.358
 31
0.0
  0
LINE
  8
6
  6
CONTINUOUS
 62
     7
  5
83
 10
961292.806
 20
7287104.358
 30
0.0
 11
960776.979
 21
7286874.375
 31
0.0
  0
LINE
  8
6
  6
CONTINUOUS
 62
     7
  5
84
 10
960728.483
 20
7286864.553
 30
0.0
 11
960042.708
 21
7286558.799
 31
0.0
  0
LINE
  8
6
  6
CONTINUOUS
 62
     7
  5
85
 10
962640.555
 20
7287827.014
 30
0.0
 11
961290.77
 21
7287247.714
 31
0.0
  0
LINE
  8
27
  6
CONTINUOUS
 62
    32
  5
86
 10
962429.349
 20
7286677.756
 30
0.0
 11
962447.266
 21
7287412.238
 31
0.0
  0
ARC
  8
27
  6
CONTINUOUS
 62
    32
  5
87
 10
961825.680438
 20
7286690.372195
 30
0.0
 40
603.8
 50
335.652925
 51
358.808908
210
0.0
220
0.0
230
1.0
  0
LINE
  8
27
  6
CONTINUOUS
 62
    32
  5
88
 10
962344.12
 20
7286371.478
 30
0.0
 11
962375.782
 21
7286441.449
 31
0.0
  0
ARC
  8
27
  6
CONTINUOUS
 62
    32
  5
89
 10
963050.886428
 20
7287397.513242
 30
0.0
 40
603.8
 50
118.588614
 51
178.6026
210
0.0
220
0.0
230
1.0
  0
LINE
  8
6
  6
CONTINUOUS
 62
     7
  5
8A
 10
961554.91
 20
7287248.43
 30
0.0
 11
962480.262
 21
7287644.543
 31
0.0
  0
LINE
  8
6
  6
CONTINUOUS
 62
     7
  5
8B
 10
962530.194
 20
7287665.917
 30
0.0
 11
963672.2
 21
7288154.772
 31
0.0
  0
LINE
  8
7
  6
CONTINUOUS
 62
     7
  5
8C
 10
962447.344
 20
7286677.318
 30
0.0
 11
962966.799
 21
7286664.645
 31
0.0
  0
LINE
  8
7
  6
CONTINUOUS
 62
     7
  5
8D
 10
962966.586
 20
7287322.297
 30
0.0
 11
962979.662
 21
7287858.319
 31
0.0
  0
LINE
  8
7
  6
CONTINUOUS
 62
     7
  5
8E
 10
962457.541
 20
7287095.337
 30
0.0
 11
962966.586
 21
7287322.297
 31
0.0
  0
LINE
  8
6
  6
CONTINUOUS
 62
     7
  5
8F
 10
958521.497
 20
7288724.509
 30
0.0
 11
958522.96
 21
7288784.491
 31
0.0
  0
LINE
  8
6
  6
CONTINUOUS
 62
     7
  5
90
 10
958522.96
 20
7288784.491
 30
0.0
 11
958497.451
 21
7287705.659
 31
0.0
  0
LINE
  8
7
  6
CONTINUOUS
 62
     7
  5
91
 10
959984.081
 20
7286796.273
 30
0.0
 11
959440.916
 21
7288702.082
 31
0.0
  0
LINE
  8
6
  6
CONTINUOUS
 62
     7
  5
92
 10
958521.497
 20
7288724.509
 30
0.0
 11
958522.96
 21
7288784.491
 31
0.0
  0
LINE
  8
6
  6
CONTINUOUS
 62
     7
  5
93
 10
958522.96
 20
7288784.491
 30
0.0
 11
963302.689
 21
7288667.895
 31
0.0
  0
LINE
  8
7
  6
CONTINUOUS
 62
     7
  5
94
 10
963302.689
 20
7288667.895
 30
0.0
 11
963291.654
 21
7288215.547
 31
0.0
  0
LINE
  8
6
  6
CONTINUOUS
 62
     7
  5
95
 10
963643.386
 20
7288366.476
 30
0.0
 11
961240.546
 21
7287335.421
 31
0.0
  0
LINE
  8
7
  6
CONTINUOUS
 62
     7
  5
96
 10
961231.517
 20
7287356.463
 30
0.0
 11
960119.735
 21
7286879.398
 31
0.0
  0
LINE
  8
7
  6
CONTINUOUS
 62
     7
  5
97
 10
961231.517
 20
7287356.463
 30
0.0
 11
961240.546
 21
7287335.421
 31
0.0
  0
LINE
  8
6
  6
CONTINUOUS
 62
     7
  5
98
 10
961240.546
 20
7287335.421
 30
0.0
 11
959984.081
 21
7286796.273
 31
0.0
  0
LINE
  8
6
  6
CONTINUOUS
 62
     7
  5
99
 10
962640.555
 20
7287827.014
 30
0.0
 11
963640.412
 21
7288256.13
 31
0.0
  0
ARC
  8
7
  6
CONTINUOUS
 62
     7
  5
9A
 10
963972.670534
 20
7287797.486639
 30
0.0
 40
621.8
 50
157.251675
 51
178.6026
210
0.0
220
0.0
230
1.0
  0
LINE
  8
7
  6
CONTINUOUS
 62
     7
  5
9B
 10
963351.056
 20
7287812.65
 30
0.0
 11
963343.189
 21
7287490.207
 31
0.0
  0
POLYLINE
  8
7
  6
CONTINUOUS
 62
     7
  5
9C
 66
     1
 10
0.0
 20
0.0
 30
0.0
  0
VERTEX
  8
7
  6
CONTINUOUS
 62
     7
  5
9D
 10
963343.189
 20
7287490.207
 30
0.0
  0
VERTEX
  8
7
  6
CONTINUOUS
 62
     7
  5
9E
 10
962966.586
 20
7287322.297
 30
0.0
  0
VERTEX
  8
7
  6
CONTINUOUS
 62
     7
  5
9F
 10
962962.196
 20
7287142.35
 30
0.0
  0
VERTEX
  8
7
  6
CONTINUOUS
 62
     7
  5
A0
 10
963053.295
 20
7286951.667
 30
0.0
  0
SEQEND
  8
7
  6
CONTINUOUS
 62
     7
  5
A1
  0
LINE
  8
6
  6
CONTINUOUS
 62
     7
  5
A2
 10
963053.295
 20
7286951.667
 30
0.0
 11
963110.647
 21
7286901.738
 31
0.0
  0
ARC
  8
6
  6
CONTINUOUS
 62
     7
  5
A3
 10
963323.243259
 20
7286719.521511
 30
0.0
 40
280.0
 50
139.400008
 51
178.6026
210
0.0
220
0.0
230
1.0
  0
LINE
  8
6
  6
CONTINUOUS
 62
     7
  5
A4
 10
963043.327
 20
7286726.35
 30
0.0
 11
963038.205
 21
7286516.413
 31
0.0
  0
ARC
  8
6
  6
CONTINUOUS
 62
     7
  5
A5
 10
962381.756997
 20
7286530.064461
 30
0.0
 40
656.59
 50
335.652617
 51
358.808631
210
0.0
220
0.0
230
1.0
  0
LINE
  8
6
  6
CONTINUOUS
 62
     7
  5
A6
 10
962979.952
 20
7286259.373
 30
0.0
 11
962713.214
 21
7285669.916
 31
0.0
  0
ARC
  8
6
  6
CONTINUOUS
 62
     7
  5
A7
 10
961506.758503
 20
7286215.854597
 30
0.0
 40
1324.23
 50
325.527
 51
335.652589
210
0.0
220
0.0
230
1.0
  0
LINE
  8
6
  6
CONTINUOUS
 62
     7
  5
A8
 10
962598.436
 20
7285466.304
 30
0.0
 11
962482.192
 21
7285297.064
 31
0.0
  0
ARC
  8
6
  6
CONTINUOUS
 62
     7
  5
A9
 10
959052.716532
 20
7280521.189288
 30
0.0
 40
5879.65
 50
42.394833
 51
54.318506
210
0.0
220
0.0
230
1.0
  0
LINE
  8
6
  6
CONTINUOUS
 62
     7
  5
AA
 10
963394.933
 20
7284485.46
 30
0.0
 11
963590.051
 21
7284271.74
 31
0.0
  0
LINE
  8
6
  6
CONTINUOUS
 62
     7
  5
AB
 10
958497.451
 20
7287705.659
 30
0.0
 11
958521.497
 21
7288724.509
 31
0.0
  0
LINE
  8
7
  6
CONTINUOUS
 62
     7
  5
AC
 10
958521.497
 20
7288724.509
 30
0.0
 11
959440.916
 21
7288702.082
 31
0.0
  0
LINE
  8
14
  6
CONTINUOUS
 62
     7
  5
AE
 10
958497.451
 20
7287705.659
 30
0.0
 11
959377.55
 21
7287446.119
 31
0.0
  0
LINE
  8
14
  6
CONTINUOUS
 62
     7
  5
AF
 10
959377.55
 20
7287446.119
 30
0.0
 11
959362.893
 21
7286845.298
 31
0.0
  0
LINE
  8
14
  6
CONTINUOUS
 62
     7
  5
B0
 10
961405.597
 20
7287166.356
 30
0.0
 11
961749.547
 21
7286393.318
 31
0.0
  0
LINE
  8
14
  6
CONTINUOUS
 62
     7
  5
B1
 10
961749.547
 20
7286393.318
 30
0.0
 11
961613.787
 21
7286093.306
 31
0.0
  0
LINE
  8
14
  6
CONTINUOUS
 62
     7
  5
B2
 10
961613.787
 20
7286093.306
 30
0.0
 11
961507.355
 21
7285858.104
 31
0.0
  0
LINE
  8
14
  6
CONTINUOUS
 62
     7
  5
B3
 10
963302.689
 20
7288667.895
 30
0.0
 11
963291.654
 21
7288215.547
 31
0.0
  0
LINE
  8
7
  6
CONTINUOUS
 62
     7
  5
B4
 10
962845.66
 20
7286144.524
 30
0.0
 11
962327.72
 21
7286378.899
 31
0.0
  0
LINE
  8
6
  6
CONTINUOUS
 62
     7
  5
B5
 10
962327.72
 20
7286378.899
 30
0.0
 11
962359.382
 21
7286448.868
 31
0.0
  0
LINE
  8
6
  6
CONTINUOUS
 62
     7
  5
B6
 10
961208.717
 20
7285984.578
 30
0.0
 11
961105.395
 21
7286024.268
 31
0.0
  0
LINE
  8
6
  6
CONTINUOUS
 62
     7
  5
B7
 10
960989.842
 20
7286078.11
 30
0.0
 11
960542.269
 21
7286250.043
 31
0.0
  0
TEXT
  8
15
  6
CONTINUOUS
 62
    30
  5
BA
 10
958608.834
 20
7287213.159
 30
0.0
 40
50.0
  1
LITTON
 50
28.6026
  7
ROMANC
 72
     4
 11
958723.367633
 21
7287304.086567
 31
0.0
210
0.0
220
0.0
230
1.0
  0
TEXT
  8
15
  6
CONTINUOUS
 62
    30
  5
BB
 10
960199.202
 20
7286525.923
 30
0.0
 40
50.0
  1
ALLAN
 50
28.6026
  7
ROMANC
 72
     4
 11
960304.402904
 21
7286611.761649
 31
0.0
210
0.0
220
0.0
230
1.0
  0
TEXT
  8
15
  6
CONTINUOUS
 62
    30
  5
BC
 10
960293.014
 20
7286426.694
 30
0.0
 40
50.0
  1
INDUSTRIAL
 50
28.6026
  7
ROMANC
 72
     4
 11
960500.86789
 21
7286568.506917
 31
0.0
210
0.0
220
0.0
230
1.0
  0
TEXT
  8
15
  6
CONTINUOUS
 62
    30
  5
BD
 10
960473.873
 20
7286384.773
 30
0.0
 40
50.0
  1
PARK
 50
28.6026
  7
ROMANC
 72
     4
 11
960557.473424
 21
7286458.833413
 31
0.0
210
0.0
220
0.0
230
1.0
  0
TEXT
  8
15
  6
CONTINUOUS
 62
    30
  5
BE
 10
963149.941
 20
7288393.444
 30
0.0
 40
30.0
  1
NORTH EAST
 50
28.6026
  7
ROMANC
 72
     4
 11
963287.718451
 21
7288485.655852
 31
0.0
210
0.0
220
0.0
230
1.0
  0
TEXT
  8
15
  6
CONTINUOUS
 62
    30
  5
BF
 10
963242.662
 20
7288291.569
 30
0.0
 40
30.0
  1
INDUSTRIAL
 50
28.6026
  7
ROMANC
 72
     4
 11
963367.37451
 21
7288376.656846
 31
0.0
210
0.0
220
0.0
230
1.0
  0
TEXT
  8
15
  6
CONTINUOUS
 62
    30
  5
C0
 10
958485.353
 20
7286328.96
 30
0.0
 40
19.999
  1
LUBBOCK
 50
28.6026
  7
ROMANC
 72
     4
 11
958547.408385
 21
7286374.187372
 31
0.0
210
0.0
220
0.0
230
1.0
  0
TEXT
  8
15
  6
CONTINUOUS
 62
    30
  5
C1
 10
958499.54
 20
7286268.543
 30
0.0
 40
19.999
  1
INDUSTRIAL
 50
28.6026
  7
ROMANC
 72
     4
 11
958582.676991
 21
7286325.265677
 31
0.0
210
0.0
220
0.0
230
1.0
  0
TEXT
  8
15
  6
CONTINUOUS
 62
    30
  5
C2
 10
958596.992
 20
7286232.362
 30
0.0
 40
19.999
  1
PARK
 50
28.6026
  7
ROMANC
 72
     4
 11
958630.430238
 21
7286261.985112
 31
0.0
210
0.0
220
0.0
230
1.0
  0
TEXT
  8
19
  6
CONTINUOUS
 62
     1
  5
C4
 10
960474.143
 20
7286786.832
 30
0.0
 40
24.0
  1
 
 50
24.029786
  7
ROMANC
 72
     4
 11
960476.563133
 21
7286801.049699
 31
0.0
210
0.0
220
0.0
230
1.0
  0
TEXT
  8
19
  6
CONTINUOUS
 62
     1
  5
C5
 10
960496.062
 20
7286796.605
 30
0.0
 40
24.0
  1
 
 50
24.029786
  7
ROMANC
 72
     4
 11
960498.482133
 21
7286810.822699
 31
0.0
210
0.0
220
0.0
230
1.0
  0
TEXT
  8
19
  6
CONTINUOUS
 62
     1
  5
C6
 10
960517.983
 20
7286806.378
 30
0.0
 40
24.0
  1
 
 50
24.029786
  7
ROMANC
 72
     4
 11
960520.403133
 21
7286820.595699
 31
0.0
210
0.0
220
0.0
230
1.0
  0
TEXT
  8
19
  6
CONTINUOUS
 62
     1
  5
C7
 10
960539.903
 20
7286816.151
 30
0.0
 40
24.0
  1
 
 50
24.029786
  7
ROMANC
 72
     4
 11
960542.323133
 21
7286830.368699
 31
0.0
210
0.0
220
0.0
230
1.0
  0
TEXT
  8
19
  6
CONTINUOUS
 62
     1
  5
C8
 10
961058.16
 20
7287038.108
 30
0.0
 40
24.0
  1
 
 50
24.029786
  7
ROMANC
 72
     4
 11
961060.580133
 21
7287052.325699
 31
0.0
210
0.0
220
0.0
230
1.0
  0
TEXT
  8
19
  6
CONTINUOUS
 62
     1
  5
C9
 10
961080.081
 20
7287047.88
 30
0.0
 40
24.0
  1
 
 50
24.029786
  7
ROMANC
 72
     4
 11
961082.501133
 21
7287062.097699
 31
0.0
210
0.0
220
0.0
230
1.0
  0
TEXT
  8
19
  6
CONTINUOUS
 62
     1
  5
CA
 10
961102.001
 20
7287057.653
 30
0.0
 40
24.0
  1
 
 50
24.029786
  7
ROMANC
 72
     4
 11
961104.421133
 21
7287071.870699
 31
0.0
210
0.0
220
0.0
230
1.0
  0
TEXT
  8
19
  6
CONTINUOUS
 62
     1
  5
CB
 10
962747.602
 20
7285794.246
 30
0.0
 40
24.0
  1
 
 50
65.652617
  7
ROMANC
 72
     4
 11
962739.967392
 21
7285806.481716
 31
0.0
210
0.0
220
0.0
230
1.0
  0
TEXT
  8
19
  6
CONTINUOUS
 62
     1
  5
CC
 10
962757.496
 20
7285816.112
 30
0.0
 40
24.0
  1
 
 50
65.652617
  7
ROMANC
 72
     4
 11
962749.861392
 21
7285828.347716
 31
0.0
210
0.0
220
0.0
230
1.0
  0
TEXT
  8
19
  6
CONTINUOUS
 62
     1
  5
CD
 10
962767.39
 20
7285837.978
 30
0.0
 40
24.0
  1
 
 50
65.652617
  7
ROMANC
 72
     4
 11
962759.755392
 21
7285850.213716
 31
0.0
210
0.0
220
0.0
230
1.0
  0
TEXT
  8
19
  6
CONTINUOUS
 62
     1
  5
CE
 10
962826.757
 20
7285969.17
 30
0.0
 40
24.0
  1
 
 50
65.652617
  7
ROMANC
 72
     4
 11
962819.122392
 21
7285981.405716
 31
0.0
210
0.0
220
0.0
230
1.0
  0
TEXT
  8
19
  6
CONTINUOUS
 62
     1
  5
CF
 10
962836.651
 20
7285991.037
 30
0.0
 40
24.0
  1
 
 50
65.652617
  7
ROMANC
 72
     4
 11
962829.016392
 21
7286003.272716
 31
0.0
210
0.0
220
0.0
230
1.0
  0
TEXT
  8
19
  6
CONTINUOUS
 62
     1
  5
D0
 10
959040.57
 20
7286681.97
 30
0.0
 40
24.0
  1
 
 50
343.569297
  7
ROMANC
 72
     4
 11
959051.637566
 21
7286691.217107
 31
0.0
210
0.0
220
0.0
230
1.0
  0
TEXT
  8
19
  6
CONTINUOUS
 62
     1
  5
D1
 10
959063.589
 20
7286675.182
 30
0.0
 40
24.0
  1
 
 50
343.569297
  7
ROMANC
 72
     4
 11
959074.656566
 21
7286684.429107
 31
0.0
210
0.0
220
0.0
230
1.0
  0
TEXT
  8
19
  6
CONTINUOUS
 62
     1
  5
D2
 10
960019.176
 20
7285681.255
 30
0.0
 40
24.0
  1
 
 50
331.035922
  7
ROMANC
 72
     4
 11
960031.986522
 21
7285687.879993
 31
0.0
210
0.0
220
0.0
230
1.0
  0
TEXT
  8
19
  6
CONTINUOUS
 62
     1
  5
D3
 10
960286.15
 20
7286172.873
 30
0.0
 40
24.0
  1
 
 50
331.035922
  7
ROMANC
 72
     4
 11
960298.960522
 21
7286179.497993
 31
0.0
210
0.0
220
0.0
230
1.0
  0
TEXT
  8
19
  6
CONTINUOUS
 62
     1
  5
D4
 10
961586.328
 20
7285669.13
 30
0.0
 40
24.0
  1
 
 50
337.599669
  7
ROMANC
 72
     4
 11
961598.297259
 21
7285677.17592
 31
0.0
210
0.0
220
0.0
230
1.0
  0
TEXT
  8
19
  6
CONTINUOUS
 62
     1
  5
D5
 10
961608.117
 20
7285660.149
 30
0.0
 40
24.0
  1
 
 50
336.564292
  7
ROMANC
 72
     4
 11
961620.229693
 21
7285667.977325
 31
0.0
210
0.0
220
0.0
230
1.0
  0
TEXT
  8
19
  6
CONTINUOUS
 62
     1
  5
D6
 10
961630.138
 20
7285650.605
 30
0.0
 40
24.0
  1
 
 50
336.564292
  7
ROMANC
 72
     4
 11
961642.250693
 21
7285658.433325
 31
0.0
210
0.0
220
0.0
230
1.0
  0
TEXT
  8
19
  6
CONTINUOUS
 62
     1
  5
D7
 10
963689.69
 20
7287399.218
 30
0.0
 40
24.0
  1
N. GUAVA
 50
88.6026
  7
ROMANC
 72
     4
 11
963680.006902
 21
7287494.34243
 31
0.0
210
0.0
220
0.0
230
1.0
  0
TEXT
  8
11
  6
CONTINUOUS
 62
     7
  5
DA
 10
958468.347
 20
7288702.127
 30
0.0
 40
8.0
  1
80'
 50
358.6026
  7
ROMANS
210
0.0
220
0.0
230
1.0
  0
TEXT
  8
11
  6
CONTINUOUS
 62
     7
  5
DB
 10
958451.97
 20
7287540.749
 30
0.0
 40
8.0
  1
80'
 50
358.6026
  7
ROMANS
210
0.0
220
0.0
230
1.0
  0
TEXT
  8
11
  6
CONTINUOUS
 62
     7
  5
DC
 10
958452.141
 20
7287512.602
 30
0.0
 40
8.0
  1
90'
 50
358.6026
  7
ROMANS
210
0.0
220
0.0
230
1.0
  0
TEXT
  8
11
  6
CONTINUOUS
 62
     7
  5
DD
 10
958893.284
 20
7287577.46
 30
0.0
 40
8.0
  1
9
 50
343.569267
  7
ROMANS
 72
     1
 11
958897.784574
 21
7287584.473396
 31
0.0
210
0.0
220
0.0
230
1.0
 73
     3
  0
TEXT
  8
11
  6
CONTINUOUS
 62
     7
  5
DE
 10
958901.923
 20
7287574.913
 30
0.0
 40
8.0
  1
1
 50
343.569267
  7
ROMANS
 72
     1
 11
958905.465371
 21
7287582.208969
 31
0.0
210
0.0
220
0.0
230
1.0
 73
     3
  0
TEXT
  8
11
  6
CONTINUOUS
 62
     7
  5
DF
 10
958908.631
 20
7287572.934
 30
0.0
 40
8.0
  1
7
 50
343.569267
  7
ROMANS
 72
     1
 11
958913.131574
 21
7287579.947396
 31
0.0
210
0.0
220
0.0
230
1.0
 73
     3
  0
TEXT
  8
11
  6
CONTINUOUS
 62
     7
  5
E0
 10
958917.3
 20
7287570.378
 30
0.0
 40
8.0
  1
.
 50
343.569267
  7
ROMANS
 72
     1
 11
958920.830861
 21
7287577.677363
 31
0.0
210
0.0
220
0.0
230
1.0
 73
     3
  0
TEXT
  8
11
  6
CONTINUOUS
 62
     7
  5
E1
 10
958923.977
 20
7287568.409
 30
0.0
 40
8.0
  1
2
 50
343.569267
  7
ROMANS
 72
     1
 11
958928.477574
 21
7287575.422396
 31
0.0
210
0.0
220
0.0
230
1.0
 73
     3
  0
TEXT
  8
11
  6
CONTINUOUS
 62
     7
  5
E2
 10
958931.348
 20
7287566.235
 30
0.0
 40
8.0
  1
0
 50
343.569267
  7
ROMANS
 72
     1
 11
958936.153587
 21
7287573.158448
 31
0.0
210
0.0
220
0.0
230
1.0
 73
     3
  0
TEXT
  8
11
  6
CONTINUOUS
 62
     7
  5
E3
 10
958940.29
 20
7287563.598
 30
0.0
 40
8.0
  1
'
 50
343.569267
  7
ROMANS
 72
     1
 11
958943.832371
 21
7287570.893969
 31
0.0
210
0.0
220
0.0
230
1.0
 73
     3
  0
TEXT
  8
11
  6
CONTINUOUS
 62
     7
  5
E4
 10
958945.425
 20
7287562.084
 30
0.0
 40
8.0
  1
 
 50
343.569267
  7
ROMANS
 72
     1
 11
958950.244975
 21
7287569.003205
 31
0.0
210
0.0
220
0.0
230
1.0
 73
     3
  0
TEXT
  8
11
  6
CONTINUOUS
 62
     7
  5
E5
 10
958953.099
 20
7287559.821
 30
0.0
 40
8.0
  1
 
 50
343.569267
  7
ROMANS
 72
     1
 11
958957.918975
 21
7287566.740205
 31
0.0
210
0.0
220
0.0
230
1.0
 73
     3
  0
TEXT
  8
11
  6
CONTINUOUS
 62
     7
  5
E6
 10
958960.773
 20
7287557.558
 30
0.0
 40
8.0
  1
 
 50
343.569267
  7
ROMANS
 72
     1
 11
958965.592975
 21
7287564.477205
 31
0.0
210
0.0
220
0.0
230
1.0
 73
     3
  0
TEXT
  8
11
  6
CONTINUOUS
 62
     7
  5
E7
 10
958943.983
 20
7287577.106
 30
0.0
 40
8.0
  1
9
 50
343.569267
  7
ROMANS
 72
     1
 11
958946.220726
 21
7287576.446097
 31
0.0
210
0.0
220
0.0
230
1.0
  0
TEXT
  8
11
  6
CONTINUOUS
 62
     7
  5
E8
 10
958951.655
 20
7287574.844
 30
0.0
 40
8.0
  1
2
 50
343.569267
  7
ROMANS
 72
     1
 11
958953.892726
 21
7287574.184097
 31
0.0
210
0.0
220
0.0
230
1.0
  0
TEXT
  8
11
  6
CONTINUOUS
 62
     7
  5
E9
 10
958959.329
 20
7287572.581
 30
0.0
 40
8.0
  1
7
 50
343.569267
  7
ROMANS
 72
     1
 11
958961.566726
 21
7287571.921097
 31
0.0
210
0.0
220
0.0
230
1.0
  0
TEXT
  8
11
  6
CONTINUOUS
 62
     7
  5
EA
 10
958967.999
 20
7287570.023
 30
0.0
 40
8.0
  1
.
 50
343.569267
  7
ROMANS
 72
     1
 11
958969.267013
 21
7287569.649064
 31
0.0
210
0.0
220
0.0
230
1.0
  0
TEXT
  8
11
  6
CONTINUOUS
 62
     7
  5
EB
 10
958974.676
 20
7287568.054
 30
0.0
 40
8.0
  1
5
 50
343.569267
  7
ROMANS
 72
     1
 11
958976.924277
 21
7287567.390986
 31
0.0
210
0.0
220
0.0
230
1.0
  0
TEXT
  8
11
  6
CONTINUOUS
 62
     7
  5
EC
 10
958982.349
 20
7287565.791
 30
0.0
 40
8.0
  1
7
 50
343.569267
  7
ROMANS
 72
     1
 11
958984.586726
 21
7287565.131097
 31
0.0
210
0.0
220
0.0
230
1.0
  0
TEXT
  8
11
  6
CONTINUOUS
 62
     7
  5
ED
 10
958990.988
 20
7287563.243
 30
0.0
 40
8.0
  1
'
 50
343.569267
  7
ROMANS
 72
     1
 11
958992.267523
 21
7287562.86567
 31
0.0
210
0.0
220
0.0
230
1.0
  0
TEXT
  8
11
  6
CONTINUOUS
 62
     7
  5
EE
 10
959359.258
 20
7287147.315
 30
0.0
 40
8.0
  1
6
 50
268.6026
  7
ROMANS
 72
     1
 11
959367.194166
 21
7287144.600655
 31
0.0
210
0.0
220
0.0
230
1.0
 73
     3
  0
TEXT
  8
11
  6
CONTINUOUS
 62
     7
  5
EF
 10
959359.066
 20
7287139.444
 30
0.0
 40
8.0
  1
0
 50
268.6026
  7
ROMANS
 72
     1
 11
959366.998971
 21
7287136.598694
 31
0.0
210
0.0
220
0.0
230
1.0
 73
     3
  0
TEXT
  8
11
  6
CONTINUOUS
 62
     7
  5
F0
 10
959358.839
 20
7287130.124
 30
0.0
 40
8.0
  1
1
 50
268.6026
  7
ROMANS
 72
     1
 11
959366.804113
 21
7287128.596302
 31
0.0
210
0.0
220
0.0
230
1.0
 73
     3
  0
TEXT
  8
11
  6
CONTINUOUS
 62
     7
  5
F1
 10
959358.643
 20
7287122.126
 30
0.0
 40
8.0
  1
'
 50
268.6026
  7
ROMANS
 72
     1
 11
959366.608113
 21
7287120.598302
 31
0.0
210
0.0
220
0.0
230
1.0
 73
     3
  0
TEXT
  8
11
  6
CONTINUOUS
 62
     7
  5
F2
 10
958961.898
 20
7286966.679
 30
0.0
 40
8.0
  1
7
 50
343.569297
  7
ROMANS
 72
     1
 11
958964.135726
 21
7286966.019098
 31
0.0
210
0.0
220
0.0
230
1.0
  0
TEXT
  8
11
  6
CONTINUOUS
 62
     7
  5
F3
 10
958969.39
 20
7286964.469
 30
0.0
 40
8.0
  1
6
 50
343.569297
  7
ROMANS
 72
     1
 11
958971.80709
 21
7286963.756204
 31
0.0
210
0.0
220
0.0
230
1.0
  0
TEXT
  8
11
  6
CONTINUOUS
 62
     7
  5
F4
 10
958977.244
 20
7286962.153
 30
0.0
 40
8.0
  1
2
 50
343.569297
  7
ROMANS
 72
     1
 11
958979.481726
 21
7286961.493098
 31
0.0
210
0.0
220
0.0
230
1.0
  0
TEXT
  8
11
  6
CONTINUOUS
 62
     7
  5
F5
 10
958985.884
 20
7286959.605
 30
0.0
 40
8.0
  1
'
 50
343.569297
  7
ROMANS
 72
     1
 11
958987.162564
 21
7286959.227954
 31
0.0
210
0.0
220
0.0
230
1.0
  0
TEXT
  8
11
  6
CONTINUOUS
 62
     7
  5
F6
 10
958991.021
 20
7286958.09
 30
0.0
 40
8.0
  1
 
 50
343.569297
  7
ROMANS
 72
     1
 11
958993.578127
 21
7286957.335907
 31
0.0
210
0.0
220
0.0
230
1.0
  0
TEXT
  8
11
  6
CONTINUOUS
 62
     7
  5
F7
 10
958998.694
 20
7286955.828
 30
0.0
 40
8.0
  1
 
 50
343.569297
  7
ROMANS
 72
     1
 11
959001.251127
 21
7286955.073907
 31
0.0
210
0.0
220
0.0
230
1.0
  0
TEXT
  8
11
  6
CONTINUOUS
 62
     7
  5
F8
 10
959006.366
 20
7286953.565
 30
0.0
 40
8.0
  1
 
 50
343.569297
  7
ROMANS
 72
     1
 11
959008.923127
 21
7286952.810907
 31
0.0
210
0.0
220
0.0
230
1.0
  0
TEXT
  8
11
  6
CONTINUOUS
 62
     7
  5
F9
 10
959294.435
 20
7286854.018
 30
0.0
 40
8.0
  1
1
 50
343.569297
  7
ROMANS
 72
     1
 11
959297.976407
 21
7286861.314254
 31
0.0
210
0.0
220
0.0
230
1.0
 73
     3
  0
TEXT
  8
11
  6
CONTINUOUS
 62
     7
  5
FA
 10
959302.108
 20
7286851.755
 30
0.0
 40
8.0
  1
1
 50
343.569297
  7
ROMANS
 72
     1
 11
959305.649407
 21
7286859.051254
 31
0.0
210
0.0
220
0.0
230
1.0
 73
     3
  0
TEXT
  8
11
  6
CONTINUOUS
 62
     7
  5
FB
 10
959308.815
 20
7286849.777
 30
0.0
 40
8.0
  1
8
 50
343.569297
  7
ROMANS
 72
     1
 11
959313.31557
 21
7286856.790398
 31
0.0
210
0.0
220
0.0
230
1.0
 73
     3
  0
TEXT
  8
11
  6
CONTINUOUS
 62
     7
  5
FC
 10
959316.186
 20
7286847.603
 30
0.0
 40
8.0
  1
0
 50
343.569297
  7
ROMANS
 72
     1
 11
959320.991584
 21
7286854.52645
 31
0.0
210
0.0
220
0.0
230
1.0
 73
     3
  0
TEXT
  8
11
  6
CONTINUOUS
 62
     7
  5
FD
 10
959325.127
 20
7286844.966
 30
0.0
 40
8.0
  1
'
 50
343.569297
  7
ROMANS
 72
     1
 11
959328.668407
 21
7286852.262254
 31
0.0
210
0.0
220
0.0
230
1.0
 73
     3
  0
TEXT
  8
11
  6
CONTINUOUS
 62
     7
  5
FE
 10
958585.82
 20
7287107.464
 30
0.0
 40
8.0
  1
R
 50
293.283628
  7
ROMANS
 72
     1
 11
958586.816113
 21
7287105.14923
 31
0.0
210
0.0
220
0.0
230
1.0
  0
TEXT
  8
11
  6
CONTINUOUS
 62
     7
  5
FF
 10
958588.579
 20
7287101.102
 30
0.0
 40
8.0
  1
=
 50
298.576856
  7
ROMANS
 72
     1
 11
958590.173298
 21
7287098.175038
 31
0.0
210
0.0
220
0.0
230
1.0
  0
TEXT
  8
11
  6
CONTINUOUS
 62
     7
  5
100
 10
958592.919
 20
7287093.571
 30
0.0
 40
8.0
  1
7
 50
303.870083
  7
ROMANS
 72
     1
 11
958594.219208
 21
7287091.633902
 31
0.0
210
0.0
220
0.0
230
1.0
  0
TEXT
  8
11
  6
CONTINUOUS
 62
     7
  5
101
 10
958597.469
 20
7287087.342
 30
0.0
 40
8.0
  1
5
 50
309.163314
  7
ROMANS
 72
     1
 11
958598.949313
 21
7287085.524582
 31
0.0
210
0.0
220
0.0
230
1.0
  0
TEXT
  8
11
  6
CONTINUOUS
 62
     7
  5
102
 10
958603.357
 20
7287080.905
 30
0.0
 40
8.0
  1
'
 50
314.456542
  7
ROMANS
 72
     1
 11
958604.291291
 21
7287079.952815
 31
0.0
210
0.0
220
0.0
230
1.0
  0
TEXT
  8
11
  6
CONTINUOUS
 62
     7
  5
103
 10
958571.42
 20
7287106.503
 30
0.0
 40
8.0
  1
8
 50
287.9904
  7
ROMANS
 72
     1
 11
958579.749431
 21
7287106.754925
 31
0.0
210
0.0
220
0.0
230
1.0
 73
     3
  0
TEXT
  8
11
  6
CONTINUOUS
 62
     7
  5
104
 10
958574.616
 20
7287098.082
 30
0.0
 40
8.0
  1
2
 50
293.283628
  7
ROMANS
 72
     1
 11
958582.88667
 21
7287099.101265
 31
0.0
210
0.0
220
0.0
230
1.0
 73
     3
  0
TEXT
  8
11
  6
CONTINUOUS
 62
     7
  5
105
 10
958579.645
 20
7287088.226
 30
0.0
 40
8.0
  1
.
 50
303.870083
  7
ROMANS
 72
     1
 11
958587.024193
 21
7287091.586832
 31
0.0
210
0.0
220
0.0
230
1.0
 73
     3
  0
TEXT
  8
11
  6
CONTINUOUS
 62
     7
  5
106
 10
958584.09
 20
7287081.602
 30
0.0
 40
8.0
  1
3
 50
309.163314
  7
ROMANS
 72
     1
 11
958591.766159
 21
7287084.845375
 31
0.0
210
0.0
220
0.0
230
1.0
 73
     3
  0
TEXT
  8
11
  6
CONTINUOUS
 62
     7
  5
107
 10
958589.857
 20
7287074.676
 30
0.0
 40
8.0
  1
8
 50
314.456542
  7
ROMANS
 72
     1
 11
958597.201214
 21
7287078.613691
 31
0.0
210
0.0
220
0.0
230
1.0
 73
     3
  0
TEXT
  8
11
  6
CONTINUOUS
 62
     7
  5
108
 10
958597.075
 20
7287067.733
 30
0.0
 40
8.0
  1
'
 50
319.749769
  7
ROMANS
 72
     1
 11
958603.261402
 21
7287072.977552
 31
0.0
210
0.0
220
0.0
230
1.0
 73
     3
  0
TEXT
  8
11
  6
CONTINUOUS
 62
     7
  5
109
 10
958571.924
 20
7287167.667
 30
0.0
 40
8.0
  1
1
 50
284.591942
  7
ROMANS
 72
     1
 11
958572.260079
 21
7287166.376029
 31
0.0
210
0.0
220
0.0
230
1.0
  0
TEXT
  8
11
  6
CONTINUOUS
 62
     7
  5
10A
 10
958573.56
 20
7287161.106
 30
0.0
 40
8.0
  1
0
 50
282.948339
  7
ROMANS
 72
     1
 11
958574.154016
 21
7287158.522408
 31
0.0
210
0.0
220
0.0
230
1.0
  0
TEXT
  8
11
  6
CONTINUOUS
 62
     7
  5
10B
 10
958575.352
 20
7287153.309
 30
0.0
 40
8.0
  1
0
 50
282.948339
  7
ROMANS
 72
     1
 11
958575.946016
 21
7287150.725408
 31
0.0
210
0.0
220
0.0
230
1.0
  0
TEXT
  8
11
  6
CONTINUOUS
 62
     7
  5
10C
 10
958577.442
 20
7287144.224
 30
0.0
 40
8.0
  1
'
 50
282.948339
  7
ROMANS
 72
     1
 11
958577.740689
 21
7287142.924895
 31
0.0
210
0.0
220
0.0
230
1.0
  0
TEXT
  8
11
  6
CONTINUOUS
 62
     7
  5
10D
 10
958528.398
 20
7287363.075
 30
0.0
 40
8.0
  1
1
 50
281.331536
  7
ROMANS
 72
     1
 11
958528.659916
 21
7287361.767985
 31
0.0
210
0.0
220
0.0
230
1.0
  0
TEXT
  8
11
  6
CONTINUOUS
 62
     7
  5
10E
 10
958529.77
 20
7287356.219
 30
0.0
 40
8.0
  1
7
 50
281.331536
  7
ROMANS
 72
     1
 11
958530.228401
 21
7287353.931478
 31
0.0
210
0.0
220
0.0
230
1.0
  0
TEXT
  8
11
  6
CONTINUOUS
 62
     7
  5
10F
 10
958531.342
 20
7287348.375
 30
0.0
 40
8.0
  1
8
 50
281.331536
  7
ROMANS
 72
     1
 11
958531.800401
 21
7287346.087478
 31
0.0
210
0.0
220
0.0
230
1.0
  0
TEXT
  8
11
  6
CONTINUOUS
 62
     7
  5
110
 10
958533.119
 20
7287339.512
 30
0.0
 40
8.0
  1
.
 50
281.331536
  7
ROMANS
 72
     1
 11
958533.378754
 21
7287338.21577
 31
0.0
210
0.0
220
0.0
230
1.0
  0
TEXT
  8
11
  6
CONTINUOUS
 62
     7
  5
111
 10
958534.486
 20
7287332.687
 30
0.0
 40
8.0
  1
9
 50
281.331536
  7
ROMANS
 72
     1
 11
958534.944401
 21
7287330.399478
 31
0.0
210
0.0
220
0.0
230
1.0
  0
TEXT
  8
11
  6
CONTINUOUS
 62
     7
  5
112
 10
958536.058
 20
7287324.843
 30
0.0
 40
8.0
  1
8
 50
281.331536
  7
ROMANS
 72
     1
 11
958536.516401
 21
7287322.555478
 31
0.0
210
0.0
220
0.0
230
1.0
  0
TEXT
  8
11
  6
CONTINUOUS
 62
     7
  5
113
 10
958537.829
 20
7287316.01
 30
0.0
 40
8.0
  1
'
 50
281.331536
  7
ROMANS
 72
     1
 11
958538.090916
 21
7287314.702985
 31
0.0
210
0.0
220
0.0
230
1.0
  0
TEXT
  8
11
  6
CONTINUOUS
 62
     7
  5
114
 10
958506.214
 20
7287514.373
 30
0.0
 40
8.0
  1
R
 50
271.636206
  7
ROMANS
 72
     1
 11
958506.285954
 21
7287511.854027
 31
0.0
210
0.0
220
0.0
230
1.0
  0
TEXT
  8
11
  6
CONTINUOUS
 62
     7
  5
115
 10
958506.418
 20
7287507.162
 30
0.0
 40
8.0
  1
=
 50
271.636206
  7
ROMANS
 72
     1
 11
958506.513168
 21
7287503.830359
 31
0.0
210
0.0
220
0.0
230
1.0
  0
TEXT
  8
11
  6
CONTINUOUS
 62
     7
  5
116
 10
958506.675
 20
7287498.297
 30
0.0
 40
8.0
  1
5
 50
273.658608
  7
ROMANS
 72
     1
 11
958506.824574
 21
7287495.957777
 31
0.0
210
0.0
220
0.0
230
1.0
  0
TEXT
  8
11
  6
CONTINUOUS
 62
     7
  5
117
 10
958507.248
 20
7287489.307
 30
0.0
 40
8.0
  1
1
 50
273.658608
  7
ROMANS
 72
     1
 11
958507.333061
 21
7287487.976717
 31
0.0
210
0.0
220
0.0
230
1.0
  0
TEXT
  8
11
  6
CONTINUOUS
 62
     7
  5
118
 10
958507.615
 20
7287482.428
 30
0.0
 40
8.0
  1
3
 50
275.681011
  7
ROMANS
 72
     1
 11
958507.845944
 21
7287480.106459
 31
0.0
210
0.0
220
0.0
230
1.0
  0
TEXT
  8
11
  6
CONTINUOUS
 62
     7
  5
119
 10
958508.51
 20
7287473.432
 30
0.0
 40
8.0
  1
.
 50
275.681011
  7
ROMANS
 72
     1
 11
958508.640865
 21
7287472.116493
 31
0.0
210
0.0
220
0.0
230
1.0
  0
TEXT
  8
11
  6
CONTINUOUS
 62
     7
  5
11A
 10
958509.181
 20
7287466.694
 30
0.0
 40
8.0
  1
6
 50
275.681011
  7
ROMANS
 72
     1
 11
958509.430455
 21
7287464.186377
 31
0.0
210
0.0
220
0.0
230
1.0
  0
TEXT
  8
11
  6
CONTINUOUS
 62
     7
  5
11B
 10
958510.112
 20
7287458.667
 30
0.0
 40
8.0
  1
9
 50
277.703414
  7
ROMANS
 72
     1
 11
958510.424728
 21
7287456.355055
 31
0.0
210
0.0
220
0.0
230
1.0
  0
TEXT
  8
11
  6
CONTINUOUS
 62
     7
  5
11C
 10
958511.32
 20
7287449.74
 30
0.0
 40
8.0
  1
'
 50
277.703414
  7
ROMANS
 72
     1
 11
958511.498816
 21
7287448.418039
 31
0.0
210
0.0
220
0.0
230
1.0
  0
TEXT
  8
11
  6
CONTINUOUS
 62
     7
  5
11D
 10
958492.172
 20
7287515.585
 30
0.0
 40
8.0
  1
1
 50
271.636206
  7
ROMANS
 72
     1
 11
958500.206828
 21
7287514.47997
 31
0.0
210
0.0
220
0.0
230
1.0
 73
     3
  0
TEXT
  8
11
  6
CONTINUOUS
 62
     7
  5
11E
 10
958492.373
 20
7287508.595
 30
0.0
 40
8.0
  1
3
 50
271.636206
  7
ROMANS
 72
     1
 11
958500.436353
 21
7287506.491378
 31
0.0
210
0.0
220
0.0
230
1.0
 73
     3
  0
TEXT
  8
11
  6
CONTINUOUS
 62
     7
  5
11F
 10
958492.602
 20
7287500.597
 30
0.0
 40
8.0
  1
8
 50
271.636206
  7
ROMANS
 72
     1
 11
958500.665353
 21
7287498.493378
 31
0.0
210
0.0
220
0.0
230
1.0
 73
     3
  0
TEXT
  8
11
  6
CONTINUOUS
 62
     7
  5
120
 10
958493.1
 20
7287491.185
 30
0.0
 40
8.0
  1
.
 50
273.658608
  7
ROMANS
 72
     1
 11
958501.168054
 21
7287490.376185
 31
0.0
210
0.0
220
0.0
230
1.0
 73
     3
  0
TEXT
  8
11
  6
CONTINUOUS
 62
     7
  5
121
 10
958493.545
 20
7287484.239
 30
0.0
 40
8.0
  1
5
 50
273.658608
  7
ROMANS
 72
     1
 11
958501.67827
 21
7287482.410268
 31
0.0
210
0.0
220
0.0
230
1.0
 73
     3
  0
TEXT
  8
11
  6
CONTINUOUS
 62
     7
  5
122
 10
958494.198
 20
7287475.876
 30
0.0
 40
8.0
  1
4
 50
275.681011
  7
ROMANS
 72
     1
 11
958502.389651
 21
7287474.346378
 31
0.0
210
0.0
220
0.0
230
1.0
 73
     3
  0
TEXT
  8
11
  6
CONTINUOUS
 62
     7
  5
123
 10
958495.089
 20
7287466.913
 30
0.0
 40
8.0
  1
'
 50
275.681011
  7
ROMANS
 72
     1
 11
958503.181661
 21
7287466.378467
 31
0.0
210
0.0
220
0.0
230
1.0
 73
     3
  0
TEXT
  8
11
  6
CONTINUOUS
 62
     7
  5
124
 10
958498.841
 20
7287639.588
 30
0.0
 40
8.0
  1
1
 50
268.6026
  7
ROMANS
 72
     1
 11
958498.808492
 21
7287638.255396
 31
0.0
210
0.0
220
0.0
230
1.0
  0
TEXT
  8
11
  6
CONTINUOUS
 62
     7
  5
125
 10
958498.67
 20
7287632.599
 30
0.0
 40
8.0
  1
7
 50
268.6026
  7
ROMANS
 72
     1
 11
958498.613106
 21
7287630.266694
 31
0.0
210
0.0
220
0.0
230
1.0
  0
TEXT
  8
11
  6
CONTINUOUS
 62
     7
  5
126
 10
958498.451
 20
7287623.593
 30
0.0
 40
8.0
  1
1
 50
268.6026
  7
ROMANS
 72
     1
 11
958498.418492
 21
7287622.260396
 31
0.0
210
0.0
220
0.0
230
1.0
  0
TEXT
  8
11
  6
CONTINUOUS
 62
     7
  5
127
 10
958498.255
 20
7287615.564
 30
0.0
 40
8.0
  1
.
 50
268.6026
  7
ROMANS
 72
     1
 11
958498.222761
 21
7287614.242393
 31
0.0
210
0.0
220
0.0
230
1.0
  0
TEXT
  8
11
  6
CONTINUOUS
 62
     7
  5
128
 10
958498.093
 20
7287608.92
 30
0.0
 40
8.0
  1
0
 50
268.6026
  7
ROMANS
 72
     1
 11
958498.028351
 21
7287606.269788
 31
0.0
210
0.0
220
0.0
230
1.0
  0
TEXT
  8
11
  6
CONTINUOUS
 62
     7
  5
129
 10
958497.865
 20
7287599.6
 30
0.0
 40
8.0
  1
1
 50
268.6026
  7
ROMANS
 72
     1
 11
958497.832492
 21
7287598.267396
 31
0.0
210
0.0
220
0.0
230
1.0
  0
TEXT
  8
11
  6
CONTINUOUS
 62
     7
  5
12A
 10
958497.671
 20
7287591.603
 30
0.0
 40
8.0
  1
'
 50
268.6026
  7
ROMANS
 72
     1
 11
958497.638492
 21
7287590.270396
 31
0.0
210
0.0
220
0.0
230
1.0
  0
TEXT
  8
11
  6
CONTINUOUS
 62
     7
  5
12B
 10
959780.592
 20
7286712.22
 30
0.0
 40
8.0
  1
3
 50
23.224092
  7
ROMANS
 72
     1
 11
959782.735956
 21
7286713.139968
 31
0.0
210
0.0
220
0.0
230
1.0
  0
TEXT
  8
11
  6
CONTINUOUS
 62
     7
  5
12C
 10
959787.653
 20
7286715.251
 30
0.0
 40
8.0
  1
0
 50
23.224092
  7
ROMANS
 72
     1
 11
959790.089188
 21
7286716.296364
 31
0.0
210
0.0
220
0.0
230
1.0
  0
TEXT
  8
11
  6
CONTINUOUS
 62
     7
  5
12D
 10
959796.221
 20
7286718.927
 30
0.0
 40
8.0
  1
'
 50
23.224092
  7
ROMANS
 72
     1
 11
959797.445986
 21
7286719.45264
 31
0.0
210
0.0
220
0.0
230
1.0
  0
TEXT
  8
11
  6
CONTINUOUS
 62
     7
  5
12E
 10
959862.821
 20
7286747.505
 30
0.0
 40
8.0
  1
2
 50
23.224092
  7
ROMANS
 72
     1
 11
959864.964956
 21
7286748.424968
 31
0.0
210
0.0
220
0.0
230
1.0
  0
TEXT
  8
11
  6
CONTINUOUS
 62
     7
  5
12F
 10
959870.174
 20
7286750.66
 30
0.0
 40
8.0
  1
2
 50
23.224092
  7
ROMANS
 72
     1
 11
959872.317956
 21
7286751.579968
 31
0.0
210
0.0
220
0.0
230
1.0
  0
TEXT
  8
11
  6
CONTINUOUS
 62
     7
  5
130
 10
959877.524
 20
7286753.815
 30
0.0
 40
8.0
  1
9
 50
23.224092
  7
ROMANS
 72
     1
 11
959879.667956
 21
7286754.734968
 31
0.0
210
0.0
220
0.0
230
1.0
  0
TEXT
  8
11
  6
CONTINUOUS
 62
     7
  5
131
 10
959885.832
 20
7286757.379
 30
0.0
 40
8.0
  1
.
 50
23.224092
  7
ROMANS
 72
     1
 11
959887.046878
 21
7286757.900302
 31
0.0
210
0.0
220
0.0
230
1.0
  0
TEXT
  8
11
  6
CONTINUOUS
 62
     7
  5
132
 10
959892.229
 20
7286760.124
 30
0.0
 40
8.0
  1
7
 50
23.224092
  7
ROMANS
 72
     1
 11
959894.372956
 21
7286761.043968
 31
0.0
210
0.0
220
0.0
230
1.0
  0
TEXT
  8
11
  6
CONTINUOUS
 62
     7
  5
133
 10
959900.506
 20
7286763.676
 30
0.0
 40
8.0
  1
'
 50
23.224092
  7
ROMANS
 72
     1
 11
959901.730986
 21
7286764.20164
 31
0.0
210
0.0
220
0.0
230
1.0
  0
TEXT
  8
11
  6
CONTINUOUS
 62
     7
  5
134
 10
960316.195
 20
7286668.69
 30
0.0
 40
8.0
  1
7
 50
24.029786
  7
ROMANS
 72
     1
 11
960315.068116
 21
7286676.946696
 31
0.0
210
0.0
220
0.0
230
1.0
 73
     3
  0
TEXT
  8
11
  6
CONTINUOUS
 62
     7
  5
135
 10
960323.502
 20
7286671.946
 30
0.0
 40
8.0
  1
5
 50
24.029786
  7
ROMANS
 72
     1
 11
960322.385163
 21
7286680.207175
 31
0.0
210
0.0
220
0.0
230
1.0
 73
     3
  0
TEXT
  8
11
  6
CONTINUOUS
 62
     7
  5
136
 10
960330.808
 20
7286675.205
 30
0.0
 40
8.0
  1
2
 50
24.029786
  7
ROMANS
 72
     1
 11
960329.681116
 21
7286683.461696
 31
0.0
210
0.0
220
0.0
230
1.0
 73
     3
  0
TEXT
  8
11
  6
CONTINUOUS
 62
     7
  5
137
 10
960339.035
 20
7286678.873
 30
0.0
 40
8.0
  1
'
 50
24.029786
  7
ROMANS
 72
     1
 11
960336.994782
 21
7286686.722484
 31
0.0
210
0.0
220
0.0
230
1.0
 73
     3
  0
TEXT
  8
11
  6
CONTINUOUS
 62
     7
  5
138
 10
960343.925
 20
7286681.053
 30
0.0
 40
8.0
  1
 
 50
24.029786
  7
ROMANS
 72
     1
 11
960343.102256
 21
7286689.445297
 31
0.0
210
0.0
220
0.0
230
1.0
 73
     3
  0
TEXT
  8
11
  6
CONTINUOUS
 62
     7
  5
139
 10
960351.232
 20
7286684.311
 30
0.0
 40
8.0
  1
 
 50
24.029786
  7
ROMANS
 72
     1
 11
960350.409256
 21
7286692.703297
 31
0.0
210
0.0
220
0.0
230
1.0
 73
     3
  0
TEXT
  8
11
  6
CONTINUOUS
 62
     7
  5
13A
 10
960358.54
 20
7286687.568
 30
0.0
 40
8.0
  1
 
 50
24.029786
  7
ROMANS
 72
     1
 11
960357.717256
 21
7286695.960297
 31
0.0
210
0.0
220
0.0
230
1.0
 73
     3
  0
TEXT
  8
11
  6
CONTINUOUS
 62
     7
  5
13B
 10
960049.418
 20
7286548.482
 30
0.0
 40
8.0
  1
3
 50
293.227981
  7
ROMANS
 72
     1
 11
960050.338114
 21
7286546.338106
 31
0.0
210
0.0
220
0.0
230
1.0
  0
TEXT
  8
11
  6
CONTINUOUS
 62
     7
  5
13C
 10
960052.572
 20
7286541.131
 30
0.0
 40
8.0
  1
5
 50
293.227981
  7
ROMANS
 72
     1
 11
960053.496452
 21
7286538.976998
 31
0.0
210
0.0
220
0.0
230
1.0
  0
TEXT
  8
11
  6
CONTINUOUS
 62
     7
  5
13D
 10
960056.125
 20
7286532.854
 30
0.0
 40
8.0
  1
'
 50
293.227981
  7
ROMANS
 72
     1
 11
960056.651117
 21
7286531.62813
 31
0.0
210
0.0
220
0.0
230
1.0
  0
TEXT
  8
11
  6
CONTINUOUS
 62
     7
  5
13E
 10
960238.88
 20
7286421.394
 30
0.0
 40
8.0
  1
5
 50
331.035922
  7
ROMANS
 72
     1
 11
960240.930821
 21
7286420.258892
 31
0.0
210
0.0
220
0.0
230
1.0
  0
TEXT
  8
11
  6
CONTINUOUS
 62
     7
  5
13F
 10
960245.88
 20
7286417.521
 30
0.0
 40
8.0
  1
5
 50
331.035922
  7
ROMANS
 72
     1
 11
960247.930821
 21
7286416.385892
 31
0.0
210
0.0
220
0.0
230
1.0
  0
TEXT
  8
11
  6
CONTINUOUS
 62
     7
  5
140
 10
960253.761
 20
7286413.158
 30
0.0
 40
8.0
  1
1
 50
331.035922
  7
ROMANS
 72
     1
 11
960254.927273
 21
7286412.51248
 31
0.0
210
0.0
220
0.0
230
1.0
  0
TEXT
  8
11
  6
CONTINUOUS
 62
     7
  5
141
 10
960260.788
 20
7286409.269
 30
0.0
 40
8.0
  1
.
 50
331.035922
  7
ROMANS
 72
     1
 11
960261.944649
 21
7286408.628807
 31
0.0
210
0.0
220
0.0
230
1.0
  0
TEXT
  8
11
  6
CONTINUOUS
 62
     7
  5
142
 10
960266.878
 20
7286405.898
 30
0.0
 40
8.0
  1
7
 50
331.035922
  7
ROMANS
 72
     1
 11
960268.919197
 21
7286404.768219
 31
0.0
210
0.0
220
0.0
230
1.0
  0
TEXT
  8
11
  6
CONTINUOUS
 62
     7
  5
143
 10
960274.758
 20
7286401.535
 30
0.0
 40
8.0
  1
'
 50
331.035922
  7
ROMANS
 72
     1
 11
960275.924273
 21
7286400.88948
 31
0.0
210
0.0
220
0.0
230
1.0
  0
TEXT
  8
11
  6
CONTINUOUS
 62
     7
  5
144
 10
960279.444
 20
7286398.944
 30
0.0
 40
8.0
  1
 
 50
331.035922
  7
ROMANS
 72
     1
 11
960281.776546
 21
7286397.65296
 31
0.0
210
0.0
220
0.0
230
1.0
  0
TEXT
  8
11
  6
CONTINUOUS
 62
     7
  5
145
 10
960286.444
 20
7286395.069
 30
0.0
 40
8.0
  1
 
 50
331.035922
  7
ROMANS
 72
     1
 11
960288.776546
 21
7286393.77796
 31
0.0
210
0.0
220
0.0
230
1.0
  0
TEXT
  8
11
  6
CONTINUOUS
 62
     7
  5
146
 10
960293.442
 20
7286391.195
 30
0.0
 40
8.0
  1
 
 50
331.035922
  7
ROMANS
 72
     1
 11
960295.774546
 21
7286389.90396
 31
0.0
210
0.0
220
0.0
230
1.0
  0
TEXT
  8
11
  6
CONTINUOUS
 62
     7
  5
147
 10
960761.85
 20
7286168.906
 30
0.0
 40
8.0
  1
4
 50
338.98595
  7
ROMANS
 72
     1
 11
960764.027838
 21
7286168.069394
 31
0.0
210
0.0
220
0.0
230
1.0
  0
TEXT
  8
11
  6
CONTINUOUS
 62
     7
  5
148
 10
960769.14
 20
7286166.105
 30
0.0
 40
8.0
  1
6
 50
338.98595
  7
ROMANS
 72
     1
 11
960771.492401
 21
7286165.201336
 31
0.0
210
0.0
220
0.0
230
1.0
  0
TEXT
  8
11
  6
CONTINUOUS
 62
     7
  5
149
 10
960776.785
 20
7286163.168
 30
0.0
 40
8.0
  1
4
 50
338.98595
  7
ROMANS
 72
     1
 11
960778.962838
 21
7286162.331394
 31
0.0
210
0.0
220
0.0
230
1.0
  0
TEXT
  8
11
  6
CONTINUOUS
 62
     7
  5
14A
 10
960785.224
 20
7286159.927
 30
0.0
 40
8.0
  1
.
 50
338.98595
  7
ROMANS
 72
     1
 11
960786.458077
 21
7286159.452935
 31
0.0
210
0.0
220
0.0
230
1.0
  0
TEXT
  8
11
  6
CONTINUOUS
 62
     7
  5
14B
 10
960791.722
 20
7286157.43
 30
0.0
 40
8.0
  1
5
 50
338.98595
  7
ROMANS
 72
     1
 11
960793.910106
 21
7286156.589449
 31
0.0
210
0.0
220
0.0
230
1.0
  0
TEXT
  8
11
  6
CONTINUOUS
 62
     7
  5
14C
 10
960798.895
 20
7286154.676
 30
0.0
 40
8.0
  1
0
 50
338.98595
  7
ROMANS
 72
     1
 11
960801.369689
 21
7286153.72536
 31
0.0
210
0.0
220
0.0
230
1.0
  0
TEXT
  8
11
  6
CONTINUOUS
 62
     7
  5
14D
 10
960807.598
 20
7286151.332
 30
0.0
 40
8.0
  1
'
 50
338.98595
  7
ROMANS
 72
     1
 11
960808.842346
 21
7286150.85399
 31
0.0
210
0.0
220
0.0
230
1.0
  0
TEXT
  8
11
  6
CONTINUOUS
 62
     7
  5
14E
 10
960812.597
 20
7286149.411
 30
0.0
 40
8.0
  1
 
 50
338.98595
  7
ROMANS
 72
     1
 11
960815.085691
 21
7286148.454981
 31
0.0
210
0.0
220
0.0
230
1.0
  0
TEXT
  8
11
  6
CONTINUOUS
 62
     7
  5
14F
 10
960820.063
 20
7286146.543
 30
0.0
 40
8.0
  1
 
 50
338.98595
  7
ROMANS
 72
     1
 11
960822.551691
 21
7286145.586981
 31
0.0
210
0.0
220
0.0
230
1.0
  0
TEXT
  8
11
  6
CONTINUOUS
 62
     7
  5
150
 10
960827.532
 20
7286143.673
 30
0.0
 40
8.0
  1
 
 50
338.98595
  7
ROMANS
 72
     1
 11
960830.020691
 21
7286142.716981
 31
0.0
210
0.0
220
0.0
230
1.0
  0
TEXT
  8
11
  6
CONTINUOUS
 62
     7
  5
151
 10
960848.285
 20
7286568.235
 30
0.0
 40
8.0
  1
7
 50
293.985928
  7
ROMANS
 72
     1
 11
960856.542556
 21
7286569.355564
 31
0.0
210
0.0
220
0.0
230
1.0
 73
     3
  0
TEXT
  8
11
  6
CONTINUOUS
 62
     7
  5
152
 10
960851.537
 20
7286560.927
 30
0.0
 40
8.0
  1
7
 50
293.985928
  7
ROMANS
 72
     1
 11
960859.794556
 21
7286562.047564
 31
0.0
210
0.0
220
0.0
230
1.0
 73
     3
  0
TEXT
  8
11
  6
CONTINUOUS
 62
     7
  5
153
 10
960854.789
 20
7286553.617
 30
0.0
 40
8.0
  1
5
 50
293.985928
  7
ROMANS
 72
     1
 11
960863.051027
 21
7286554.727513
 31
0.0
210
0.0
220
0.0
230
1.0
 73
     3
  0
TEXT
  8
11
  6
CONTINUOUS
 62
     7
  5
154
 10
960858.465
 20
7286545.358
 30
0.0
 40
8.0
  1
.
 50
293.985928
  7
ROMANS
 72
     1
 11
960866.311572
 21
7286547.402259
 31
0.0
210
0.0
220
0.0
230
1.0
 73
     3
  0
TEXT
  8
11
  6
CONTINUOUS
 62
     7
  5
155
 10
960861.703
 20
7286538.078
 30
0.0
 40
8.0
  1
1
 50
293.985928
  7
ROMANS
 72
     1
 11
960869.554043
 21
7286540.112209
 31
0.0
210
0.0
220
0.0
230
1.0
 73
     3
  0
TEXT
  8
11
  6
CONTINUOUS
 62
     7
  5
156
 10
960864.545
 20
7286531.689
 30
0.0
 40
8.0
  1
5
 50
293.985928
  7
ROMANS
 72
     1
 11
960872.807027
 21
7286532.799513
 31
0.0
210
0.0
220
0.0
230
1.0
 73
     3
  0
TEXT
  8
11
  6
CONTINUOUS
 62
     7
  5
157
 10
960868.208
 20
7286523.459
 30
0.0
 40
8.0
  1
'
 50
293.985928
  7
ROMANS
 72
     1
 11
960876.059043
 21
7286525.493209
 31
0.0
210
0.0
220
0.0
230
1.0
 73
     3
  0
TEXT
  8
11
  6
CONTINUOUS
 62
     7
  5
158
 10
960870.384
 20
7286518.567
 30
0.0
 40
8.0
  1
 
 50
293.985928
  7
ROMANS
 72
     1
 11
960878.776924
 21
7286519.38332
 31
0.0
210
0.0
220
0.0
230
1.0
 73
     3
  0
TEXT
  8
11
  6
CONTINUOUS
 62
     7
  5
159
 10
960873.635
 20
7286511.259
 30
0.0
 40
8.0
  1
 
 50
293.985928
  7
ROMANS
 72
     1
 11
960882.027924
 21
7286512.07532
 31
0.0
210
0.0
220
0.0
230
1.0
 73
     3
  0
TEXT
  8
11
  6
CONTINUOUS
 62
     7
  5
15A
 10
960876.889
 20
7286503.949
 30
0.0
 40
8.0
  1
 
 50
293.985928
  7
ROMANS
 72
     1
 11
960885.281924
 21
7286504.76532
 31
0.0
210
0.0
220
0.0
230
1.0
 73
     3
  0
TEXT
  8
11
  6
CONTINUOUS
 62
     7
  5
15B
 10
960880.14
 20
7286496.64
 30
0.0
 40
8.0
  1
 
 50
293.985928
  7
ROMANS
 72
     1
 11
960888.532924
 21
7286497.45632
 31
0.0
210
0.0
220
0.0
230
1.0
 73
     3
  0
TEXT
  8
11
  6
CONTINUOUS
 62
     7
  5
15C
 10
961005.094
 20
7286095.531
 30
0.0
 40
8.0
  1
9
 50
41.352522
  7
ROMANS
 72
     1
 11
961006.845287
 21
7286097.07239
 31
0.0
210
0.0
220
0.0
230
1.0
  0
TEXT
  8
11
  6
CONTINUOUS
 62
     7
  5
15D
 10
961011.101
 20
7286100.817
 30
0.0
 40
8.0
  1
5
 50
41.352522
  7
ROMANS
 72
     1
 11
961012.860544
 21
7286102.365658
 31
0.0
210
0.0
220
0.0
230
1.0
  0
TEXT
  8
11
  6
CONTINUOUS
 62
     7
  5
15E
 10
961017.885
 20
7286106.789
 30
0.0
 40
8.0
  1
.
 50
41.352522
  7
ROMANS
 72
     1
 11
961018.877371
 21
7286107.662432
 31
0.0
210
0.0
220
0.0
230
1.0
  0
TEXT
  8
11
  6
CONTINUOUS
 62
     7
  5
15F
 10
961023.11
 20
7286111.387
 30
0.0
 40
8.0
  1
8
 50
41.352522
  7
ROMANS
 72
     1
 11
961024.861287
 21
7286112.92839
 31
0.0
210
0.0
220
0.0
230
1.0
  0
TEXT
  8
11
  6
CONTINUOUS
 62
     7
  5
160
 10
961029.872
 20
7286117.34
 30
0.0
 40
8.0
  1
'
 50
41.352522
  7
ROMANS
 72
     1
 11
961030.872628
 21
7286118.2207
 31
0.0
210
0.0
220
0.0
230
1.0
  0
TEXT
  8
11
  6
CONTINUOUS
 62
     7
  5
161
 10
960752.16
 20
7286841.896
 30
0.0
 40
8.0
  1
50'
 50
358.6026
  7
ROMANS
210
0.0
220
0.0
230
1.0
  0
TEXT
  8
11
  6
CONTINUOUS
 62
     7
  5
162
 10
961056.953
 20
7286153.911
 30
0.0
 40
8.0
  1
50'
 50
358.6026
  7
ROMANS
210
0.0
220
0.0
230
1.0
  0
TEXT
  8
11
  6
CONTINUOUS
 62
     7
  5
163
 10
960123.523
 20
7286878.178
 30
0.0
 40
8.0
  1
2
 50
293.224647
  7
ROMANS
 72
     1
 11
960124.442989
 21
7286876.034053
 31
0.0
210
0.0
220
0.0
230
1.0
  0
TEXT
  8
11
  6
CONTINUOUS
 62
     7
  5
164
 10
960126.677
 20
7286870.825
 30
0.0
 40
8.0
  1
5
 50
293.224647
  7
ROMANS
 72
     1
 11
960127.601327
 21
7286868.670944
 31
0.0
210
0.0
220
0.0
230
1.0
  0
TEXT
  8
11
  6
CONTINUOUS
 62
     7
  5
165
 10
960130.23
 20
7286862.548
 30
0.0
 40
8.0
  1
'
 50
293.224647
  7
ROMANS
 72
     1
 11
960130.756046
 21
7286861.3221
 31
0.0
210
0.0
220
0.0
230
1.0
  0
TEXT
  8
11
  6
CONTINUOUS
 62
     7
  5
166
 10
960178.926
 20
7286777.531
 30
0.0
 40
8.0
  1
2
 50
293.223903
  7
ROMANS
 72
     1
 11
960179.845961
 21
7286775.387041
 31
0.0
210
0.0
220
0.0
230
1.0
  0
TEXT
  8
11
  6
CONTINUOUS
 62
     7
  5
167
 10
960182.081
 20
7286770.178
 30
0.0
 40
8.0
  1
5
 50
293.223903
  7
ROMANS
 72
     1
 11
960183.005299
 21
7286768.023932
 31
0.0
210
0.0
220
0.0
230
1.0
  0
TEXT
  8
11
  6
CONTINUOUS
 62
     7
  5
168
 10
960185.633
 20
7286761.902
 30
0.0
 40
8.0
  1
'
 50
293.223903
  7
ROMANS
 72
     1
 11
960186.158636
 21
7286760.677012
 31
0.0
210
0.0
220
0.0
230
1.0
  0
TEXT
  8
11
  6
CONTINUOUS
 62
     7
  5
169
 10
961222.803
 20
7287348.993
 30
0.0
 40
8.0
  1
2
 50
293.225036
  7
ROMANS
 72
     1
 11
961231.074708
 21
7287350.003807
 31
0.0
210
0.0
220
0.0
230
1.0
 73
     3
  0
TEXT
  8
11
  6
CONTINUOUS
 62
     7
  5
16A
 10
961225.958
 20
7287341.64
 30
0.0
 40
8.0
  1
5
 50
293.225036
  7
ROMANS
 72
     1
 11
961234.234046
 21
7287342.640698
 31
0.0
210
0.0
220
0.0
230
1.0
 73
     3
  0
TEXT
  8
11
  6
CONTINUOUS
 62
     7
  5
16B
 10
961229.511
 20
7287333.363
 30
0.0
 40
8.0
  1
'
 50
293.225036
  7
ROMANS
 72
     1
 11
961237.388365
 21
7287335.29277
 31
0.0
210
0.0
220
0.0
230
1.0
 73
     3
  0
TEXT
  8
11
  6
CONTINUOUS
 62
     7
  5
16C
 10
961281.286
 20
7287237.223
 30
0.0
 40
8.0
  1
2
 50
293.225036
  7
ROMANS
 72
     1
 11
961289.557708
 21
7287238.233807
 31
0.0
210
0.0
220
0.0
230
1.0
 73
     3
  0
TEXT
  8
11
  6
CONTINUOUS
 62
     7
  5
16D
 10
961284.441
 20
7287229.87
 30
0.0
 40
8.0
  1
5
 50
293.225036
  7
ROMANS
 72
     1
 11
961292.717046
 21
7287230.870698
 31
0.0
210
0.0
220
0.0
230
1.0
 73
     3
  0
TEXT
  8
11
  6
CONTINUOUS
 62
     7
  5
16E
 10
961287.993
 20
7287221.593
 30
0.0
 40
8.0
  1
'
 50
293.225036
  7
ROMANS
 72
     1
 11
961295.870365
 21
7287223.52277
 31
0.0
210
0.0
220
0.0
230
1.0
 73
     3
  0
TEXT
  8
11
  6
CONTINUOUS
 62
     7
  5
16F
 10
961286.708
 20
7287327.445
 30
0.0
 40
8.0
  1
100'
 50
300.020539
  7
ROMANS
210
0.0
220
0.0
230
1.0
  0
TEXT
  8
11
  6
CONTINUOUS
 62
     7
  5
170
 10
961671.933
 20
7287489.363
 30
0.0
 40
8.0
  1
100'
 50
300.020539
  7
ROMANS
210
0.0
220
0.0
230
1.0
  0
TEXT
  8
11
  6
CONTINUOUS
 62
     7
  5
171
 10
962776.013
 20
7287962.745
 30
0.0
 40
8.0
  1
100'
 50
300.020539
  7
ROMANS
210
0.0
220
0.0
230
1.0
  0
TEXT
  8
11
  6
CONTINUOUS
 62
     7
  5
172
 10
963617.101
 20
7288322.523
 30
0.0
 40
8.0
  1
100'
 50
300.020539
  7
ROMANS
210
0.0
220
0.0
230
1.0
  0
TEXT
  8
11
  6
CONTINUOUS
 62
     7
  5
173
 10
963359.33
 20
7288090.637
 30
0.0
 40
8.0
  1
100'
 50
300.020539
  7
ROMANS
210
0.0
220
0.0
230
1.0
  0
TEXT
  8
11
  6
CONTINUOUS
 62
     7
  5
174
 10
962052.968
 20
7287527.422
 30
0.0
 40
8.0
  1
100'
 50
300.020539
  7
ROMANS
210
0.0
220
0.0
230
1.0
  0
TEXT
  8
11
  6
CONTINUOUS
 62
     7
  5
175
 10
961529.487
 20
7287303.24
 30
0.0
 40
8.0
  1
100'
 50
300.020539
  7
ROMANS
210
0.0
220
0.0
230
1.0
  0
TEXT
  8
11
  6
CONTINUOUS
 62
     7
  5
176
 10
959106.517
 20
7286388.565
 30
0.0
 40
8.0
  1
100'
 50
300.020539
  7
ROMANS
210
0.0
220
0.0
230
1.0
  0
TEXT
  8
11
  6
CONTINUOUS
 62
     7
  5
177
 10
958471.368
 20
7286092.954
 30
0.0
 40
8.0
  1
100'
 50
300.020539
  7
ROMANS
210
0.0
220
0.0
230
1.0
  0
TEXT
  8
11
  6
CONTINUOUS
 62
     7
  5
178
 10
962098.415
 20
7287646.735
 30
0.0
 40
8.0
  1
N
 50
23.231186
  7
ROMANS
 72
     1
 11
962097.575143
 21
7287655.08036
 31
0.0
210
0.0
220
0.0
230
1.0
 73
     3
  0
TEXT
  8
11
  6
CONTINUOUS
 62
     7
  5
179
 10
962105.765
 20
7287649.89
 30
0.0
 40
8.0
  1
6
 50
23.231186
  7
ROMANS
 72
     1
 11
962104.925143
 21
7287658.23536
 31
0.0
210
0.0
220
0.0
230
1.0
 73
     3
  0
TEXT
  8
11
  6
CONTINUOUS
 62
     7
  5
17A
 10
962113.291
 20
7287653.118
 30
0.0
 40
8.0
  1
4
 50
23.231186
  7
ROMANS
 72
     1
 11
962112.279305
 21
7287661.3896
 31
0.0
210
0.0
220
0.0
230
1.0
 73
     3
  0
TEXT
  8
11
  6
CONTINUOUS
 62
     7
  5
17B
 10
962121.481
 20
7287656.635
 30
0.0
 40
8.0
  1
%%d
 50
23.231186
  7
ROMANS
 72
     1
 11
962119.645952
 21
7287664.55318
 31
0.0
210
0.0
220
0.0
230
1.0
 73
     3
  0
TEXT
  8
11
  6
CONTINUOUS
 62
     7
  5
17C
 10
962127.994
 20
7287659.43
 30
0.0
 40
8.0
  1
3
 50
23.231186
  7
ROMANS
 72
     1
 11
962126.982305
 21
7287667.7016
 31
0.0
210
0.0
220
0.0
230
1.0
 73
     3
  0
TEXT
  8
11
  6
CONTINUOUS
 62
     7
  5
17D
 10
962135.345
 20
7287662.585
 30
0.0
 40
8.0
  1
7
 50
23.231186
  7
ROMANS
 72
     1
 11
962134.333305
 21
7287670.8566
 31
0.0
210
0.0
220
0.0
230
1.0
 73
     3
  0
TEXT
  8
11
  6
CONTINUOUS
 62
     7
  5
17E
 10
962143.622
 20
7287666.14
 30
0.0
 40
8.0
  1
'
 50
23.231186
  7
ROMANS
 72
     1
 11
962141.691384
 21
7287674.017158
 31
0.0
210
0.0
220
0.0
230
1.0
 73
     3
  0
TEXT
  8
11
  6
CONTINUOUS
 62
     7
  5
17F
 10
962149.903
 20
7287668.836
 30
0.0
 40
8.0
  1
E
 50
23.231186
  7
ROMANS
 72
     1
 11
962149.044765
 21
7287677.173472
 31
0.0
210
0.0
220
0.0
230
1.0
 73
     3
  0
TEXT
  8
11
  6
CONTINUOUS
 62
     7
  5
180
 10
958986.514
 20
7286434.826
 30
0.0
 40
8.0
  1
1
 50
326.302603
  7
ROMANS
 72
     1
 11
958992.061482
 21
7286440.742277
 31
0.0
210
0.0
220
0.0
230
1.0
 73
     3
  0
TEXT
  8
11
  6
CONTINUOUS
 62
     7
  5
181
 10
958992.174
 20
7286431.05
 30
0.0
 40
8.0
  1
6
 50
326.302603
  7
ROMANS
 72
     1
 11
958998.709041
 21
7286436.307722
 31
0.0
210
0.0
220
0.0
230
1.0
 73
     3
  0
TEXT
  8
11
  6
CONTINUOUS
 62
     7
  5
182
 10
958998.988
 20
7286426.508
 30
0.0
 40
8.0
  1
9
 50
326.302603
  7
ROMANS
 72
     1
 11
959005.367461
 21
7286431.869471
 31
0.0
210
0.0
220
0.0
230
1.0
 73
     3
  0
TEXT
  8
11
  6
CONTINUOUS
 62
     7
  5
183
 10
959006.508
 20
7286421.493
 30
0.0
 40
8.0
  1
.
 50
326.302603
  7
ROMANS
 72
     1
 11
959012.04633
 21
7286427.41538
 31
0.0
210
0.0
220
0.0
230
1.0
 73
     3
  0
TEXT
  8
11
  6
CONTINUOUS
 62
     7
  5
184
 10
959012.299
 20
7286417.63
 30
0.0
 40
8.0
  1
5
 50
326.302603
  7
ROMANS
 72
     1
 11
959018.687613
 21
7286422.985368
 31
0.0
210
0.0
220
0.0
230
1.0
 73
     3
  0
TEXT
  8
11
  6
CONTINUOUS
 62
     7
  5
185
 10
959019.794
 20
7286412.634
 30
0.0
 40
8.0
  1
'
 50
326.302603
  7
ROMANS
 72
     1
 11
959025.341482
 21
7286418.550277
 31
0.0
210
0.0
220
0.0
230
1.0
 73
     3
  0
TEXT
  8
11
  6
CONTINUOUS
 62
     7
  5
186
 10
958688.229
 20
7286573.845
 30
0.0
 40
8.0
  1
3
 50
341.579578
  7
ROMANS
 72
     1
 11
958690.442465
 21
7286573.107802
 31
0.0
210
0.0
220
0.0
230
1.0
  0
TEXT
  8
11
  6
CONTINUOUS
 62
     7
  5
187
 10
958695.64
 20
7286571.377
 30
0.0
 40
8.0
  1
6
 50
341.579578
  7
ROMANS
 72
     1
 11
958698.030884
 21
7286570.580712
 31
0.0
210
0.0
220
0.0
230
1.0
  0
TEXT
  8
11
  6
CONTINUOUS
 62
     7
  5
188
 10
958703.444
 20
7286568.791
 30
0.0
 40
8.0
  1
9
 50
340.962603
  7
ROMANS
 72
     1
 11
958705.649399
 21
7286568.03001
 31
0.0
210
0.0
220
0.0
230
1.0
  0
TEXT
  8
11
  6
CONTINUOUS
 62
     7
  5
189
 10
958711.989
 20
7286565.844
 30
0.0
 40
8.0
  1
.
 50
340.962603
  7
ROMANS
 72
     1
 11
958713.238694
 21
7286565.412783
 31
0.0
210
0.0
220
0.0
230
1.0
  0
TEXT
  8
11
  6
CONTINUOUS
 62
     7
  5
18A
 10
958718.569
 20
7286563.574
 30
0.0
 40
8.0
  1
2
 50
340.962603
  7
ROMANS
 72
     1
 11
958720.774399
 21
7286562.81301
 31
0.0
210
0.0
220
0.0
230
1.0
  0
TEXT
  8
11
  6
CONTINUOUS
 62
     7
  5
18B
 10
958727.085
 20
7286560.635
 30
0.0
 40
8.0
  1
'
 50
340.962603
  7
ROMANS
 72
     1
 11
958728.345093
 21
7286560.200195
 31
0.0
210
0.0
220
0.0
230
1.0
  0
TEXT
  8
11
  6
CONTINUOUS
 62
     7
  5
18C
 10
958732.146
 20
7286558.889
 30
0.0
 40
8.0
  1
 
 50
340.962603
  7
ROMANS
 72
     1
 11
958734.666185
 21
7286558.01939
 31
0.0
210
0.0
220
0.0
230
1.0
  0
TEXT
  8
11
  6
CONTINUOUS
 62
     7
  5
18D
 10
958739.709
 20
7286556.28
 30
0.0
 40
8.0
  1
 
 50
340.962603
  7
ROMANS
 72
     1
 11
958742.229185
 21
7286555.41039
 31
0.0
210
0.0
220
0.0
230
1.0
  0
TEXT
  8
11
  6
CONTINUOUS
 62
     7
  5
18E
 10
958747.27
 20
7286553.671
 30
0.0
 40
8.0
  1
 
 50
340.962603
  7
ROMANS
 72
     1
 11
958749.790185
 21
7286552.80139
 31
0.0
210
0.0
220
0.0
230
1.0
  0
TEXT
  8
11
  6
CONTINUOUS
 62
     7
  5
18F
 10
958754.833
 20
7286551.06
 30
0.0
 40
8.0
  1
 
 50
340.962603
  7
ROMANS
 72
     1
 11
958757.353185
 21
7286550.19039
 31
0.0
210
0.0
220
0.0
230
1.0
  0
TEXT
  8
11
  6
CONTINUOUS
 62
     7
  5
190
 10
958763.786
 20
7286547.937
 30
0.0
 40
8.0
  1
R
 50
340.345628
  7
ROMANS
 72
     1
 11
958766.159182
 21
7286547.08941
 31
0.0
210
0.0
220
0.0
230
1.0
  0
TEXT
  8
11
  6
CONTINUOUS
 62
     7
  5
191
 10
958770.577
 20
7286545.511
 30
0.0
 40
8.0
  1
=
 50
340.345628
  7
ROMANS
 72
     1
 11
958773.715815
 21
7286544.389961
 31
0.0
210
0.0
220
0.0
230
1.0
  0
TEXT
  8
11
  6
CONTINUOUS
 62
     7
  5
192
 10
958779.031
 20
7286542.492
 30
0.0
 40
8.0
  1
5
 50
340.345628
  7
ROMANS
 72
     1
 11
958781.238435
 21
7286541.703606
 31
0.0
210
0.0
220
0.0
230
1.0
  0
TEXT
  8
11
  6
CONTINUOUS
 62
     7
  5
193
 10
958786.565
 20
7286539.801
 30
0.0
 40
8.0
  1
5
 50
340.345628
  7
ROMANS
 72
     1
 11
958788.772435
 21
7286539.012606
 31
0.0
210
0.0
220
0.0
230
1.0
  0
TEXT
  8
11
  6
CONTINUOUS
 62
     7
  5
194
 10
958795.048
 20
7286536.771
 30
0.0
 40
8.0
  1
1
 50
340.345628
  7
ROMANS
 72
     1
 11
958796.303338
 21
7286536.322652
 31
0.0
210
0.0
220
0.0
230
1.0
  0
TEXT
  8
11
  6
CONTINUOUS
 62
     7
  5
195
 10
958801.633
 20
7286534.42
 30
0.0
 40
8.0
  1
9
 50
340.345628
  7
ROMANS
 72
     1
 11
958803.830076
 21
7286533.635306
 31
0.0
210
0.0
220
0.0
230
1.0
  0
TEXT
  8
11
  6
CONTINUOUS
 62
     7
  5
196
 10
958810.145
 20
7286531.38
 30
0.0
 40
8.0
  1
.
 50
340.345628
  7
ROMANS
 72
     1
 11
958811.389979
 21
7286530.935351
 31
0.0
210
0.0
220
0.0
230
1.0
  0
TEXT
  8
11
  6
CONTINUOUS
 62
     7
  5
197
 10
958816.732
 20
7286529.03
 30
0.0
 40
8.0
  1
4
 50
339.728653
  7
ROMANS
 72
     1
 11
958818.920499
 21
7286528.221693
 31
0.0
210
0.0
220
0.0
230
1.0
  0
TEXT
  8
11
  6
CONTINUOUS
 62
     7
  5
198
 10
958825.182
 20
7286525.909
 30
0.0
 40
8.0
  1
'
 50
339.728653
  7
ROMANS
 72
     1
 11
958826.433375
 21
7286525.446814
 31
0.0
210
0.0
220
0.0
230
1.0
  0
TEXT
  8
11
  6
CONTINUOUS
 62
     7
  5
199
 10
958495.431
 20
7286468.251
 30
0.0
 40
8.0
  1
1
 50
82.853919
  7
ROMANS
 72
     1
 11
958487.658967
 21
7286470.568842
 31
0.0
210
0.0
220
0.0
230
1.0
 73
     3
  0
TEXT
  8
11
  6
CONTINUOUS
 62
     7
  5
19A
 10
958496.427
 20
7286476.189
 30
0.0
 40
8.0
  1
1
 50
82.853919
  7
ROMANS
 72
     1
 11
958488.654967
 21
7286478.506842
 31
0.0
210
0.0
220
0.0
230
1.0
 73
     3
  0
TEXT
  8
11
  6
CONTINUOUS
 62
     7
  5
19B
 10
958497.258
 20
7286482.815
 30
0.0
 40
8.0
  1
0
 50
82.853919
  7
ROMANS
 72
     1
 11
958489.649925
 21
7286486.440604
 31
0.0
210
0.0
220
0.0
230
1.0
 73
     3
  0
TEXT
  8
11
  6
CONTINUOUS
 62
     7
  5
19C
 10
958498.417
 20
7286491.959
 30
0.0
 40
8.0
  1
'
 50
82.298106
  7
ROMANS
 72
     1
 11
958490.667817
 21
7286494.352126
 31
0.0
210
0.0
220
0.0
230
1.0
 73
     3
  0
TEXT
  8
11
  6
CONTINUOUS
 62
     7
  5
19D
 10
958593.98
 20
7286416.166
 30
0.0
 40
8.0
  1
3
 50
350.505439
  7
ROMANS
 72
     1
 11
958596.281041
 21
7286415.781162
 31
0.0
210
0.0
220
0.0
230
1.0
  0
TEXT
  8
11
  6
CONTINUOUS
 62
     7
  5
19E
 10
958601.871
 20
7286414.845
 30
0.0
 40
8.0
  1
7
 50
350.505439
  7
ROMANS
 72
     1
 11
958604.172041
 21
7286414.460162
 31
0.0
210
0.0
220
0.0
230
1.0
  0
TEXT
  8
11
  6
CONTINUOUS
 62
     7
  5
19F
 10
958609.761
 20
7286413.526
 30
0.0
 40
8.0
  1
9
 50
350.505439
  7
ROMANS
 72
     1
 11
958612.062041
 21
7286413.141162
 31
0.0
210
0.0
220
0.0
230
1.0
  0
TEXT
  8
11
  6
CONTINUOUS
 62
     7
  5
1A0
 10
958618.678
 20
7286412.036
 30
0.0
 40
8.0
  1
.
 50
350.505439
  7
ROMANS
 72
     1
 11
958619.98189
 21
7286411.817931
 31
0.0
210
0.0
220
0.0
230
1.0
  0
TEXT
  8
11
  6
CONTINUOUS
 62
     7
  5
1A1
 10
958625.232
 20
7286410.939
 30
0.0
 40
8.0
  1
0
 50
350.505439
  7
ROMANS
 72
     1
 11
958627.846685
 21
7286410.501707
 31
0.0
210
0.0
220
0.0
230
1.0
  0
TEXT
  8
11
  6
CONTINUOUS
 62
     7
  5
1A2
 10
958633.433
 20
7286409.567
 30
0.0
 40
8.0
  1
5
 50
350.505439
  7
ROMANS
 72
     1
 11
958635.74489
 21
7286409.180348
 31
0.0
210
0.0
220
0.0
230
1.0
  0
TEXT
  8
11
  6
CONTINUOUS
 62
     7
  5
1A3
 10
958642.315
 20
7286408.082
 30
0.0
 40
8.0
  1
'
 50
350.505439
  7
ROMANS
 72
     1
 11
958643.62974
 21
7286407.862116
 31
0.0
210
0.0
220
0.0
230
1.0
  0
TEXT
  8
11
  6
CONTINUOUS
 62
     7
  5
1A4
 10
958647.598
 20
7286407.199
 30
0.0
 40
8.0
  1
 
 50
350.505439
  7
ROMANS
 72
     1
 11
958650.227479
 21
7286406.759233
 31
0.0
210
0.0
220
0.0
230
1.0
  0
TEXT
  8
11
  6
CONTINUOUS
 62
     7
  5
1A5
 10
958655.488
 20
7286405.879
 30
0.0
 40
8.0
  1
 
 50
350.505439
  7
ROMANS
 72
     1
 11
958658.117479
 21
7286405.439233
 31
0.0
210
0.0
220
0.0
230
1.0
  0
TEXT
  8
11
  6
CONTINUOUS
 62
     7
  5
1A6
 10
958663.378
 20
7286404.558
 30
0.0
 40
8.0
  1
 
 50
350.505439
  7
ROMANS
 72
     1
 11
958666.007479
 21
7286404.118233
 31
0.0
210
0.0
220
0.0
230
1.0
  0
TEXT
  8
11
  6
CONTINUOUS
 62
     7
  5
1A7
 10
958873.717
 20
7286343.372
 30
0.0
 40
8.0
  1
9
 50
326.702692
  7
ROMANS
 72
     1
 11
958880.058867
 21
7286348.777887
 31
0.0
210
0.0
220
0.0
230
1.0
 73
     3
  0
TEXT
  8
11
  6
CONTINUOUS
 62
     7
  5
1A8
 10
958880.14
 20
7286339.153
 30
0.0
 40
8.0
  1
0
 50
326.702692
  7
ROMANS
 72
     1
 11
958886.747662
 21
7286344.38431
 31
0.0
210
0.0
220
0.0
230
1.0
 73
     3
  0
TEXT
  8
11
  6
CONTINUOUS
 62
     7
  5
1A9
 10
958887.932
 20
7286334.035
 30
0.0
 40
8.0
  1
'
 50
326.702692
  7
ROMANS
 72
     1
 11
958893.438034
 21
7286339.98987
 31
0.0
210
0.0
220
0.0
230
1.0
 73
     3
  0
TEXT
  8
11
  6
CONTINUOUS
 62
     7
  5
1AA
 10
958977.0
 20
7286344.182
 30
0.0
 40
8.0
  1
1
 50
23.224092
  7
ROMANS
 72
     1
 11
958978.224986
 21
7286344.70764
 31
0.0
210
0.0
220
0.0
230
1.0
  0
TEXT
  8
11
  6
CONTINUOUS
 62
     7
  5
1AB
 10
958983.252
 20
7286346.864
 30
0.0
 40
8.0
  1
6
 50
23.224092
  7
ROMANS
 72
     1
 11
958985.567803
 21
7286347.857707
 31
0.0
210
0.0
220
0.0
230
1.0
  0
TEXT
  8
11
  6
CONTINUOUS
 62
     7
  5
1AC
 10
958990.778
 20
7286350.093
 30
0.0
 40
8.0
  1
5
 50
23.224092
  7
ROMANS
 72
     1
 11
958992.932065
 21
7286351.017306
 31
0.0
210
0.0
220
0.0
230
1.0
  0
TEXT
  8
11
  6
CONTINUOUS
 62
     7
  5
1AD
 10
958999.055
 20
7286353.646
 30
0.0
 40
8.0
  1
'
 50
23.224092
  7
ROMANS
 72
     1
 11
959000.279986
 21
7286354.17164
 31
0.0
210
0.0
220
0.0
230
1.0
  0
TEXT
  8
11
  6
CONTINUOUS
 62
     7
  5
1AE
 10
958468.541
 20
7286208.058
 30
0.0
 40
8.0
  1
3
 50
85.288897
  7
ROMANS
 72
     1
 11
958460.759641
 21
7286211.040171
 31
0.0
210
0.0
220
0.0
230
1.0
 73
     3
  0
TEXT
  8
11
  6
CONTINUOUS
 62
     7
  5
1AF
 10
958469.197
 20
7286216.031
 30
0.0
 40
8.0
  1
2
 50
85.288897
  7
ROMANS
 72
     1
 11
958461.415641
 21
7286219.013171
 31
0.0
210
0.0
220
0.0
230
1.0
 73
     3
  0
TEXT
  8
11
  6
CONTINUOUS
 62
     7
  5
1B0
 10
958469.855
 20
7286224.005
 30
0.0
 40
8.0
  1
4
 50
85.288897
  7
ROMANS
 72
     1
 11
958462.073641
 21
7286226.987171
 31
0.0
210
0.0
220
0.0
230
1.0
 73
     3
  0
TEXT
  8
11
  6
CONTINUOUS
 62
     7
  5
1B1
 10
958470.596
 20
7286233.012
 30
0.0
 40
8.0
  1
.
 50
85.288897
  7
ROMANS
 72
     1
 11
958462.731606
 21
7286234.986587
 31
0.0
210
0.0
220
0.0
230
1.0
 73
     3
  0
TEXT
  8
11
  6
CONTINUOUS
 62
     7
  5
1B2
 10
958471.169
 20
7286239.95
 30
0.0
 40
8.0
  1
3
 50
85.288897
  7
ROMANS
 72
     1
 11
958463.387641
 21
7286242.932171
 31
0.0
210
0.0
220
0.0
230
1.0
 73
     3
  0
TEXT
  8
11
  6
CONTINUOUS
 62
     7
  5
1B3
 10
958471.8
 20
7286247.608
 30
0.0
 40
8.0
  1
0
 50
85.288897
  7
ROMANS
 72
     1
 11
958464.044759
 21
7286250.907097
 31
0.0
210
0.0
220
0.0
230
1.0
 73
     3
  0
TEXT
  8
11
  6
CONTINUOUS
 62
     7
  5
1B4
 10
958472.612
 20
7286256.779
 30
0.0
 40
8.0
  1
'
 50
84.680153
  7
ROMANS
 72
     1
 11
958464.770049
 21
7286258.847982
 31
0.0
210
0.0
220
0.0
230
1.0
 73
     3
  0
TEXT
  8
11
  6
CONTINUOUS
 62
     7
  5
1B5
 10
958400.594
 20
7286076.713
 30
0.0
 40
8.0
  1
1
 50
23.224092
  7
ROMANS
 72
     1
 11
958401.818986
 21
7286077.23864
 31
0.0
210
0.0
220
0.0
230
1.0
  0
TEXT
  8
11
  6
CONTINUOUS
 62
     7
  5
1B6
 10
958406.731
 20
7286079.347
 30
0.0
 40
8.0
  1
0
 50
23.224092
  7
ROMANS
 72
     1
 11
958409.167188
 21
7286080.392364
 31
0.0
210
0.0
220
0.0
230
1.0
  0
TEXT
  8
11
  6
CONTINUOUS
 62
     7
  5
1B7
 10
958414.371
 20
7286082.624
 30
0.0
 40
8.0
  1
3
 50
23.224092
  7
ROMANS
 72
     1
 11
958416.514956
 21
7286083.543968
 31
0.0
210
0.0
220
0.0
230
1.0
  0
TEXT
  8
11
  6
CONTINUOUS
 62
     7
  5
1B8
 10
958422.679
 20
7286086.189
 30
0.0
 40
8.0
  1
.
 50
23.224092
  7
ROMANS
 72
     1
 11
958423.893878
 21
7286086.710302
 31
0.0
210
0.0
220
0.0
230
1.0
  0
TEXT
  8
11
  6
CONTINUOUS
 62
     7
  5
1B9
 10
958428.902
 20
7286088.859
 30
0.0
 40
8.0
  1
6
 50
23.224092
  7
ROMANS
 72
     1
 11
958431.217803
 21
7286089.852707
 31
0.0
210
0.0
220
0.0
230
1.0
  0
TEXT
  8
11
  6
CONTINUOUS
 62
     7
  5
1BA
 10
958434.4
 20
7286093.878
 30
0.0
 40
8.0
  1
'
 50
23.224092
  7
ROMANS
 72
     1
 11
958435.624986
 21
7286094.40364
 31
0.0
210
0.0
220
0.0
230
1.0
  0
TEXT
  8
11
  6
CONTINUOUS
 62
     7
  5
1BB
 10
958432.875
 20
7285977.601
 30
0.0
 40
8.0
  1
1
 50
23.227972
  7
ROMANS
 72
     1
 11
958430.944826
 21
7285985.478266
 31
0.0
210
0.0
220
0.0
230
1.0
 73
     3
  0
TEXT
  8
11
  6
CONTINUOUS
 62
     7
  5
1BC
 10
958439.3
 20
7285980.359
 30
0.0
 40
8.0
  1
2
 50
23.227972
  7
ROMANS
 72
     1
 11
958438.288769
 21
7285988.630656
 31
0.0
210
0.0
220
0.0
230
1.0
 73
     3
  0
TEXT
  8
11
  6
CONTINUOUS
 62
     7
  5
1BD
 10
958446.652
 20
7285983.513
 30
0.0
 40
8.0
  1
5
 50
23.227972
  7
ROMANS
 72
     1
 11
958445.650877
 21
7285991.788995
 31
0.0
210
0.0
220
0.0
230
1.0
 73
     3
  0
TEXT
  8
11
  6
CONTINUOUS
 62
     7
  5
1BE
 10
958454.93
 20
7285987.067
 30
0.0
 40
8.0
  1
'
 50
23.227972
  7
ROMANS
 72
     1
 11
958452.999826
 21
7285994.944266
 31
0.0
210
0.0
220
0.0
230
1.0
 73
     3
  0
TEXT
  8
11
  6
CONTINUOUS
 62
     7
  5
1BF
 10
959205.729
 20
7286327.762
 30
0.0
 40
8.0
  1
1
 50
293.227836
  7
ROMANS
 72
     1
 11
959213.60627
 21
7286329.692155
 31
0.0
210
0.0
220
0.0
230
1.0
 73
     3
  0
TEXT
  8
11
  6
CONTINUOUS
 62
     7
  5
1C0
 10
959208.362
 20
7286321.628
 30
0.0
 40
8.0
  1
0
 50
293.227836
  7
ROMANS
 72
     1
 11
959216.759074
 21
7286322.346987
 31
0.0
210
0.0
220
0.0
230
1.0
 73
     3
  0
TEXT
  8
11
  6
CONTINUOUS
 62
     7
  5
1C1
 10
959211.518
 20
7286314.275
 30
0.0
 40
8.0
  1
0
 50
293.227836
  7
ROMANS
 72
     1
 11
959219.915074
 21
7286314.993987
 31
0.0
210
0.0
220
0.0
230
1.0
 73
     3
  0
TEXT
  8
11
  6
CONTINUOUS
 62
     7
  5
1C2
 10
959215.193
 20
7286305.709
 30
0.0
 40
8.0
  1
'
 50
293.227836
  7
ROMANS
 72
     1
 11
959223.07027
 21
7286307.639155
 31
0.0
210
0.0
220
0.0
230
1.0
 73
     3
  0
TEXT
  8
11
  6
CONTINUOUS
 62
     7
  5
1C3
 10
958457.192
 20
7285878.548
 30
0.0
 40
8.0
  1
5
 50
23.228106
  7
ROMANS
 72
     1
 11
958456.190858
 21
7285886.823992
 31
0.0
210
0.0
220
0.0
230
1.0
 73
     3
  0
TEXT
  8
11
  6
CONTINUOUS
 62
     7
  5
1C4
 10
958464.253
 20
7285881.58
 30
0.0
 40
8.0
  1
0
 50
23.228106
  7
ROMANS
 72
     1
 11
958463.533973
 21
7285889.977071
 31
0.0
210
0.0
220
0.0
230
1.0
 73
     3
  0
TEXT
  8
11
  6
CONTINUOUS
 62
     7
  5
1C5
 10
958472.851
 20
7285885.269
 30
0.0
 40
8.0
  1
.
 50
23.228106
  7
ROMANS
 72
     1
 11
958470.910699
 21
7285893.141923
 31
0.0
210
0.0
220
0.0
230
1.0
 73
     3
  0
TEXT
  8
11
  6
CONTINUOUS
 62
     7
  5
1C6
 10
958479.246
 20
7285888.014
 30
0.0
 40
8.0
  1
3
 50
23.228106
  7
ROMANS
 72
     1
 11
958478.23475
 21
7285896.285654
 31
0.0
210
0.0
220
0.0
230
1.0
 73
     3
  0
TEXT
  8
11
  6
CONTINUOUS
 62
     7
  5
1C7
 10
958486.599
 20
7285891.169
 30
0.0
 40
8.0
  1
3
 50
23.228106
  7
ROMANS
 72
     1
 11
958485.58775
 21
7285899.440654
 31
0.0
210
0.0
220
0.0
230
1.0
 73
     3
  0
TEXT
  8
11
  6
CONTINUOUS
 62
     7
  5
1C8
 10
958494.876
 20
7285894.722
 30
0.0
 40
8.0
  1
'
 50
23.228106
  7
ROMANS
 72
     1
 11
958492.945808
 21
7285902.599261
 31
0.0
210
0.0
220
0.0
230
1.0
 73
     3
  0
TEXT
  8
11
  6
CONTINUOUS
 62
     7
  5
1C9
 10
958455.149
 20
7285836.169
 30
0.0
 40
8.0
  1
7
 50
82.573122
  7
ROMANS
 72
     1
 11
958447.51768
 21
7285839.516514
 31
0.0
210
0.0
220
0.0
230
1.0
 73
     3
  0
TEXT
  8
11
  6
CONTINUOUS
 62
     7
  5
1CA
 10
958456.183
 20
7285844.102
 30
0.0
 40
8.0
  1
5
 50
82.573122
  7
ROMANS
 72
     1
 11
958448.553102
 21
7285847.460422
 31
0.0
210
0.0
220
0.0
230
1.0
 73
     3
  0
TEXT
  8
11
  6
CONTINUOUS
 62
     7
  5
1CB
 10
958457.348
 20
7285853.034
 30
0.0
 40
8.0
  1
'
 50
82.573122
  7
ROMANS
 72
     1
 11
958449.58742
 21
7285855.389903
 31
0.0
210
0.0
220
0.0
230
1.0
 73
     3
  0
TEXT
  8
11
  6
CONTINUOUS
 62
     7
  5
1CC
 10
958399.0
 20
7285712.852
 30
0.0
 40
8.0
  1
60'
 50
358.6026
  7
ROMANS
210
0.0
220
0.0
230
1.0
  0
TEXT
  8
11
  6
CONTINUOUS
 62
     7
  5
1CD
 10
958372.045
 20
7284510.736
 30
0.0
 40
8.0
  1
60'
 50
358.6026
  7
ROMANS
210
0.0
220
0.0
230
1.0
  0
TEXT
  8
11
  6
CONTINUOUS
 62
     7
  5
1CE
 10
958349.472
 20
7283584.242
 30
0.0
 40
8.0
  1
60'
 50
358.6026
  7
ROMANS
210
0.0
220
0.0
230
1.0
  0
TEXT
  8
11
  6
CONTINUOUS
 62
     7
  5
1CF
 10
958402.288
 20
7283562.991
 30
0.0
 40
8.0
  1
25'
 50
358.6026
  7
ROMANS
210
0.0
220
0.0
230
1.0
  0
TEXT
  8
11
  6
CONTINUOUS
 62
     7
  5
1D0
 10
958435.479
 20
7283536.1
 30
0.0
 40
8.0
  1
30'
 50
88.6026
  7
ROMANS
210
0.0
220
0.0
230
1.0
  0
TEXT
  8
11
  6
CONTINUOUS
 62
     7
  5
1D1
 10
958403.302
 20
7283919.226
 30
0.0
 40
8.0
  1
826.5'
 50
88.6026
  7
ROMANS
210
0.0
220
0.0
230
1.0
  0
TEXT
  8
11
  6
CONTINUOUS
 62
     7
  5
1D2
 10
958456.8
 20
7284426.815
 30
0.0
 40
8.0
  1
60'
 50
88.6026
  7
ROMANS
210
0.0
220
0.0
230
1.0
  0
TEXT
  8
11
  6
CONTINUOUS
 62
     7
  5
1D3
 10
958422.182
 20
7284394.574
 30
0.0
 40
8.0
  1
25'
 50
358.6026
  7
ROMANS
210
0.0
220
0.0
230
1.0
  0
TEXT
  8
11
  6
CONTINUOUS
 62
     7
  5
1D4
 10
958425.132
 20
7284467.369
 30
0.0
 40
8.0
  1
25'
 50
358.6026
  7
ROMANS
210
0.0
220
0.0
230
1.0
  0
TEXT
  8
11
  6
CONTINUOUS
 62
     7
  5
1D5
 10
959793.098
 20
7286118.997
 30
0.0
 40
8.0
  1
1
 50
345.785672
  7
ROMANS
 72
     1
 11
959796.354587
 21
7286126.424754
 31
0.0
210
0.0
220
0.0
230
1.0
 73
     3
  0
TEXT
  8
11
  6
CONTINUOUS
 62
     7
  5
1D6
 10
959800.853
 20
7286117.033
 30
0.0
 40
8.0
  1
1
 50
345.785672
  7
ROMANS
 72
     1
 11
959804.109587
 21
7286124.460754
 31
0.0
210
0.0
220
0.0
230
1.0
 73
     3
  0
TEXT
  8
11
  6
CONTINUOUS
 62
     7
  5
1D7
 10
959807.631
 20
7286115.315
 30
0.0
 40
8.0
  1
9
 50
345.785672
  7
ROMANS
 72
     1
 11
959811.856971
 21
7286122.497204
 31
0.0
210
0.0
220
0.0
230
1.0
 73
     3
  0
TEXT
  8
11
  6
CONTINUOUS
 62
     7
  5
1D8
 10
959815.387
 20
7286113.351
 30
0.0
 40
8.0
  1
5
 50
345.785672
  7
ROMANS
 72
     1
 11
959819.623634
 21
7286120.530503
 31
0.0
210
0.0
220
0.0
230
1.0
 73
     3
  0
TEXT
  8
11
  6
CONTINUOUS
 62
     7
  5
1D9
 10
959824.149
 20
7286111.132
 30
0.0
 40
8.0
  1
.
 50
345.785672
  7
ROMANS
 72
     1
 11
959827.394924
 21
7286118.562455
 31
0.0
210
0.0
220
0.0
230
1.0
 73
     3
  0
TEXT
  8
11
  6
CONTINUOUS
 62
     7
  5
1DA
 10
959830.896
 20
7286109.422
 30
0.0
 40
8.0
  1
7
 50
345.785672
  7
ROMANS
 72
     1
 11
959835.121971
 21
7286116.604204
 31
0.0
210
0.0
220
0.0
230
1.0
 73
     3
  0
TEXT
  8
11
  6
CONTINUOUS
 62
     7
  5
1DB
 10
959839.628
 20
7286107.212
 30
0.0
 40
8.0
  1
'
 50
345.785672
  7
ROMANS
 72
     1
 11
959842.884587
 21
7286114.639754
 31
0.0
210
0.0
220
0.0
230
1.0
 73
     3
  0
TEXT
  8
11
  6
CONTINUOUS
 62
     7
  5
1DC
 10
960737.527
 20
7285838.512
 30
0.0
 40
8.0
  1
7
 50
338.98595
  7
ROMANS
 72
     1
 11
960742.573613
 21
7285845.143334
 31
0.0
210
0.0
220
0.0
230
1.0
 73
     3
  0
TEXT
  8
11
  6
CONTINUOUS
 62
     7
  5
1DD
 10
960745.935
 20
7285835.281
 30
0.0
 40
8.0
  1
1
 50
338.98595
  7
ROMANS
 72
     1
 11
960750.04812
 21
7285842.270931
 31
0.0
210
0.0
220
0.0
230
1.0
 73
     3
  0
TEXT
  8
11
  6
CONTINUOUS
 62
     7
  5
1DE
 10
960752.168
 20
7285832.887
 30
0.0
 40
8.0
  1
0
 50
338.98595
  7
ROMANS
 72
     1
 11
960757.511464
 21
7285839.4043
 31
0.0
210
0.0
220
0.0
230
1.0
 73
     3
  0
TEXT
  8
11
  6
CONTINUOUS
 62
     7
  5
1DF
 10
960760.901
 20
7285829.533
 30
0.0
 40
8.0
  1
.
 50
338.98595
  7
ROMANS
 72
     1
 11
960765.003852
 21
7285836.526875
 31
0.0
210
0.0
220
0.0
230
1.0
 73
     3
  0
TEXT
  8
11
  6
CONTINUOUS
 62
     7
  5
1E0
 10
960767.398
 20
7285827.036
 30
0.0
 40
8.0
  1
9
 50
338.98595
  7
ROMANS
 72
     1
 11
960772.444613
 21
7285833.667334
 31
0.0
210
0.0
220
0.0
230
1.0
 73
     3
  0
TEXT
  8
11
  6
CONTINUOUS
 62
     7
  5
1E1
 10
960775.807
 20
7285823.805
 30
0.0
 40
8.0
  1
'
 50
338.98595
  7
ROMANS
 72
     1
 11
960779.92012
 21
7285830.794931
 31
0.0
210
0.0
220
0.0
230
1.0
 73
     3
  0
TEXT
  8
11
  6
CONTINUOUS
 62
     7
  5
1E2
 10
963264.88
 20
7284187.61
 30
0.0
 40
8.0
  1
6
 50
312.356819
  7
ROMANS
 72
     1
 11
963266.577839
 21
7284185.747812
 31
0.0
210
0.0
220
0.0
230
1.0
  0
TEXT
  8
11
  6
CONTINUOUS
 62
     7
  5
1E3
 10
963270.399
 20
7284181.559
 30
0.0
 40
8.0
  1
4
 50
312.356819
  7
ROMANS
 72
     1
 11
963271.970849
 21
7284179.834999
 31
0.0
210
0.0
220
0.0
230
1.0
  0
TEXT
  8
11
  6
CONTINUOUS
 62
     7
  5
1E4
 10
963275.788
 20
7284175.648
 30
0.0
 40
8.0
  1
8
 50
312.356819
  7
ROMANS
 72
     1
 11
963277.359849
 21
7284173.923999
 31
0.0
210
0.0
220
0.0
230
1.0
  0
TEXT
  8
11
  6
CONTINUOUS
 62
     7
  5
1E5
 10
963281.879
 20
7284168.967
 30
0.0
 40
8.0
  1
.
 50
312.356819
  7
ROMANS
 72
     1
 11
963282.769692
 21
7284167.99009
 31
0.0
210
0.0
220
0.0
230
1.0
  0
TEXT
  8
11
  6
CONTINUOUS
 62
     7
  5
1E6
 10
963287.247
 20
7284163.079
 30
0.0
 40
8.0
  1
1
 50
312.356819
  7
ROMANS
 72
     1
 11
963288.145103
 21
7284162.093962
 31
0.0
210
0.0
220
0.0
230
1.0
  0
TEXT
  8
11
  6
CONTINUOUS
 62
     7
  5
1E7
 10
963292.637
 20
7284157.168
 30
0.0
 40
8.0
  1
'
 50
312.356819
  7
ROMANS
 72
     1
 11
963293.535103
 21
7284156.182962
 31
0.0
210
0.0
220
0.0
230
1.0
  0
TEXT
  8
11
  6
CONTINUOUS
 62
     7
  5
1E8
 10
963517.869
 20
7284140.034
 30
0.0
 40
8.0
  1
300'
 50
39.215644
  7
ROMANS
210
0.0
220
0.0
230
1.0
  0
TEXT
  8
11
  6
CONTINUOUS
 62
     7
  5
1E9
 10
963286.277
 20
7284374.25
 30
0.0
 40
8.0
  1
300'
 50
39.215644
  7
ROMANS
210
0.0
220
0.0
230
1.0
  0
TEXT
  8
11
  6
CONTINUOUS
 62
     7
  5
1EA
 10
963458.085
 20
7284399.971
 30
0.0
 40
8.0
  1
3
 50
312.394833
  7
ROMANS
 72
     1
 11
963465.566121
 21
7284403.641928
 31
0.0
210
0.0
220
0.0
230
1.0
 73
     3
  0
TEXT
  8
11
  6
CONTINUOUS
 62
     7
  5
1EB
 10
963463.481
 20
7284394.062
 30
0.0
 40
8.0
  1
3
 50
312.394833
  7
ROMANS
 72
     1
 11
963470.962121
 21
7284397.732928
 31
0.0
210
0.0
220
0.0
230
1.0
 73
     3
  0
TEXT
  8
11
  6
CONTINUOUS
 62
     7
  5
1EC
 10
963468.874
 20
7284388.155
 30
0.0
 40
8.0
  1
4
 50
312.394833
  7
ROMANS
 72
     1
 11
963476.355121
 21
7284391.825928
 31
0.0
210
0.0
220
0.0
230
1.0
 73
     3
  0
TEXT
  8
11
  6
CONTINUOUS
 62
     7
  5
1ED
 10
963474.969
 20
7284381.479
 30
0.0
 40
8.0
  1
.
 50
312.394833
  7
ROMANS
 72
     1
 11
963481.768469
 21
7284385.896568
 31
0.0
210
0.0
220
0.0
230
1.0
 73
     3
  0
TEXT
  8
11
  6
CONTINUOUS
 62
     7
  5
1EE
 10
963479.662
 20
7284376.339
 30
0.0
 40
8.0
  1
5
 50
312.394833
  7
ROMANS
 72
     1
 11
963487.150538
 21
7284380.001805
 31
0.0
210
0.0
220
0.0
230
1.0
 73
     3
  0
TEXT
  8
11
  6
CONTINUOUS
 62
     7
  5
1EF
 10
963485.736
 20
7284369.686
 30
0.0
 40
8.0
  1
'
 50
312.394833
  7
ROMANS
 72
     1
 11
963492.542885
 21
7284374.095444
 31
0.0
210
0.0
220
0.0
230
1.0
 73
     3
  0
TEXT
  8
11
  6
CONTINUOUS
 62
     7
  5
1F0
 10
963489.345
 20
7284365.731
 30
0.0
 40
8.0
  1
 
 50
312.394833
  7
ROMANS
 72
     1
 11
963497.050642
 21
7284369.156002
 31
0.0
210
0.0
220
0.0
230
1.0
 73
     3
  0
TEXT
  8
11
  6
CONTINUOUS
 62
     7
  5
1F1
 10
963494.74
 20
7284359.822
 30
0.0
 40
8.0
  1
 
 50
312.394833
  7
ROMANS
 72
     1
 11
963502.445642
 21
7284363.247002
 31
0.0
210
0.0
220
0.0
230
1.0
 73
     3
  0
TEXT
  8
11
  6
CONTINUOUS
 62
     7
  5
1F2
 10
963500.133
 20
7284353.916
 30
0.0
 40
8.0
  1
 
 50
312.394833
  7
ROMANS
 72
     1
 11
963507.838642
 21
7284357.341002
 31
0.0
210
0.0
220
0.0
230
1.0
 73
     3
  0
TEXT
  8
11
  6
CONTINUOUS
 62
     7
  5
1F3
 10
963506.504
 20
7284346.937
 30
0.0
 40
8.0
  1
N
 50
312.394833
  7
ROMANS
 72
     1
 11
963514.111203
 21
7284350.469826
 31
0.0
210
0.0
220
0.0
230
1.0
 73
     3
  0
TEXT
  8
11
  6
CONTINUOUS
 62
     7
  5
1F4
 10
963512.025
 20
7284340.889
 30
0.0
 40
8.0
  1
4
 50
312.394833
  7
ROMANS
 72
     1
 11
963519.506121
 21
7284344.559928
 31
0.0
210
0.0
220
0.0
230
1.0
 73
     3
  0
TEXT
  8
11
  6
CONTINUOUS
 62
     7
  5
1F5
 10
963517.419
 20
7284334.981
 30
0.0
 40
8.0
  1
4
 50
312.394833
  7
ROMANS
 72
     1
 11
963524.900121
 21
7284338.651928
 31
0.0
210
0.0
220
0.0
230
1.0
 73
     3
  0
TEXT
  8
11
  6
CONTINUOUS
 62
     7
  5
1F6
 10
963523.429
 20
7284328.399
 30
0.0
 40
8.0
  1
%%d
 50
312.394833
  7
ROMANS
 72
     1
 11
963530.306006
 21
7284332.731639
 31
0.0
210
0.0
220
0.0
230
1.0
 73
     3
  0
TEXT
  8
11
  6
CONTINUOUS
 62
     7
  5
1F7
 10
963527.994
 20
7284323.397
 30
0.0
 40
8.0
  1
0
 50
312.394833
  7
ROMANS
 72
     1
 11
963535.689528
 21
7284326.83308
 31
0.0
210
0.0
220
0.0
230
1.0
 73
     3
  0
TEXT
  8
11
  6
CONTINUOUS
 62
     7
  5
1F8
 10
963533.6
 20
7284317.257
 30
0.0
 40
8.0
  1
9
 50
312.394833
  7
ROMANS
 72
     1
 11
963541.081121
 21
7284320.927928
 31
0.0
210
0.0
220
0.0
230
1.0
 73
     3
  0
TEXT
  8
11
  6
CONTINUOUS
 62
     7
  5
1F9
 10
963539.675
 20
7284310.605
 30
0.0
 40
8.0
  1
'
 50
312.394833
  7
ROMANS
 72
     1
 11
963546.481885
 21
7284315.014444
 31
0.0
210
0.0
220
0.0
230
1.0
 73
     3
  0
TEXT
  8
11
  6
CONTINUOUS
 62
     7
  5
1FA
 10
963544.049
 20
7284305.813
 30
0.0
 40
8.0
  1
W
 50
312.394833
  7
ROMANS
 72
     1
 11
963551.88814
 21
7284309.091776
 31
0.0
210
0.0
220
0.0
230
1.0
 73
     3
  0
TEXT
  8
11
  6
CONTINUOUS
 62
     7
  5
1FB
 10
962865.32
 20
7284982.653
 30
0.0
 40
8.0
  1
2
 50
319.269239
  7
ROMANS
 72
     1
 11
962872.307953
 21
7284987.192978
 31
0.0
210
0.0
220
0.0
230
1.0
 73
     3
  0
TEXT
  8
11
  6
CONTINUOUS
 62
     7
  5
1FC
 10
962871.238
 20
7284977.555
 30
0.0
 40
8.0
  1
6
 50
319.269239
  7
ROMANS
 72
     1
 11
962878.367659
 21
7284981.97296
 31
0.0
210
0.0
220
0.0
230
1.0
 73
     3
  0
TEXT
  8
11
  6
CONTINUOUS
 62
     7
  5
1FD
 10
962877.445
 20
7284972.213
 30
0.0
 40
8.0
  1
9
 50
319.269239
  7
ROMANS
 72
     1
 11
962884.432953
 21
7284976.752978
 31
0.0
210
0.0
220
0.0
230
1.0
 73
     3
  0
TEXT
  8
11
  6
CONTINUOUS
 62
     7
  5
1FE
 10
962883.507
 20
7284966.993
 30
0.0
 40
8.0
  1
2
 50
319.269239
  7
ROMANS
 72
     1
 11
962890.494953
 21
7284971.532978
 31
0.0
210
0.0
220
0.0
230
1.0
 73
     3
  0
TEXT
  8
11
  6
CONTINUOUS
 62
     7
  5
1FF
 10
962890.357
 20
7284961.095
 30
0.0
 40
8.0
  1
.
 50
319.269239
  7
ROMANS
 72
     1
 11
962896.578833
 21
7284966.294661
 31
0.0
210
0.0
220
0.0
230
1.0
 73
     3
  0
TEXT
  8
11
  6
CONTINUOUS
 62
     7
  5
200
 10
962895.392
 20
7284956.759
 30
0.0
 40
8.0
  1
0
 50
319.269239
  7
ROMANS
 72
     1
 11
962902.620928
 21
7284961.091481
 31
0.0
210
0.0
220
0.0
230
1.0
 73
     3
  0
TEXT
  8
11
  6
CONTINUOUS
 62
     7
  5
201
 10
962902.456
 20
7284950.675
 30
0.0
 40
8.0
  1
'
 50
319.269239
  7
ROMANS
 72
     1
 11
962908.686927
 21
7284955.866831
 31
0.0
210
0.0
220
0.0
230
1.0
 73
     3
  0
TEXT
  8
11
  6
CONTINUOUS
 62
     7
  5
202
 10
962659.968
 20
7284781.79
 30
0.0
 40
8.0
  1
2
 50
319.451628
  7
ROMANS
 72
     1
 11
962661.740747
 21
7284780.273341
 31
0.0
210
0.0
220
0.0
230
1.0
  0
TEXT
  8
11
  6
CONTINUOUS
 62
     7
  5
203
 10
962666.047
 20
7284776.588
 30
0.0
 40
8.0
  1
5
 50
319.451628
  7
ROMANS
 72
     1
 11
962667.828106
 21
7284775.06419
 31
0.0
210
0.0
220
0.0
230
1.0
  0
TEXT
  8
11
  6
CONTINUOUS
 62
     7
  5
204
 10
962672.126
 20
7284771.387
 30
0.0
 40
8.0
  1
5
 50
319.451628
  7
ROMANS
 72
     1
 11
962673.907106
 21
7284769.86319
 31
0.0
210
0.0
220
0.0
230
1.0
  0
TEXT
  8
11
  6
CONTINUOUS
 62
     7
  5
205
 10
962678.203
 20
7284766.187
 30
0.0
 40
8.0
  1
4
 50
319.451628
  7
ROMANS
 72
     1
 11
962679.975747
 21
7284764.670341
 31
0.0
210
0.0
220
0.0
230
1.0
  0
TEXT
  8
11
  6
CONTINUOUS
 62
     7
  5
206
 10
962685.073
 20
7284760.31
 30
0.0
 40
8.0
  1
.
 50
319.451628
  7
ROMANS
 72
     1
 11
962686.077531
 21
7284759.450581
 31
0.0
210
0.0
220
0.0
230
1.0
  0
TEXT
  8
11
  6
CONTINUOUS
 62
     7
  5
207
 10
962690.217
 20
7284755.907
 30
0.0
 40
8.0
  1
6
 50
319.451628
  7
ROMANS
 72
     1
 11
962692.131841
 21
7284754.268774
 31
0.0
210
0.0
220
0.0
230
1.0
  0
TEXT
  8
11
  6
CONTINUOUS
 62
     7
  5
208
 10
962697.206
 20
7284749.929
 30
0.0
 40
8.0
  1
'
 50
319.451628
  7
ROMANS
 72
     1
 11
962698.21965
 21
7284749.06178
 31
0.0
210
0.0
220
0.0
230
1.0
  0
TEXT
  8
11
  6
CONTINUOUS
 62
     7
  5
209
 10
962521.369
 20
7285046.394
 30
0.0
 40
8.0
  1
300'
 50
50.532903
  7
ROMANS
210
0.0
220
0.0
230
1.0
  0
TEXT
  8
11
  6
CONTINUOUS
 62
     7
  5
20A
 10
961727.479
 20
7285556.076
 30
0.0
 40
8.0
  1
300'
 50
59.781547
  7
ROMANS
210
0.0
220
0.0
230
1.0
  0
TEXT
  8
11
  6
CONTINUOUS
 62
     7
  5
20B
 10
960584.413
 20
7286050.424
 30
0.0
 40
8.0
  1
300'
 50
68.281328
  7
ROMANS
210
0.0
220
0.0
230
1.0
  0
TEXT
  8
11
  6
CONTINUOUS
 62
     7
  5
20C
 10
962162.669
 20
7285494.323
 30
0.0
 40
8.0
  1
R
 50
328.179731
  7
ROMANS
 72
     1
 11
962169.028311
 21
7285499.791964
 31
0.0
210
0.0
220
0.0
230
1.0
 73
     3
  0
TEXT
  8
11
  6
CONTINUOUS
 62
     7
  5
20D
 10
962168.798
 20
7285490.521
 30
0.0
 40
8.0
  1
=
 50
328.179731
  7
ROMANS
 72
     1
 11
962175.848122
 21
7285495.561304
 31
0.0
210
0.0
220
0.0
230
1.0
 73
     3
  0
TEXT
  8
11
  6
CONTINUOUS
 62
     7
  5
20E
 10
962176.424
 20
7285485.788
 30
0.0
 40
8.0
  1
5
 50
328.179731
  7
ROMANS
 72
     1
 11
962182.633763
 21
7285491.349761
 31
0.0
210
0.0
220
0.0
230
1.0
 73
     3
  0
TEXT
  8
11
  6
CONTINUOUS
 62
     7
  5
20F
 10
962183.222
 20
7285481.57
 30
0.0
 40
8.0
  1
8
 50
328.179731
  7
ROMANS
 72
     1
 11
962189.422416
 21
7285487.137561
 31
0.0
210
0.0
220
0.0
230
1.0
 73
     3
  0
TEXT
  8
11
  6
CONTINUOUS
 62
     7
  5
210
 10
962189.9
 20
7285477.373
 30
0.0
 40
8.0
  1
7
 50
327.581958
  7
ROMANS
 72
     1
 11
962196.158164
 21
7285482.875569
 31
0.0
210
0.0
220
0.0
230
1.0
 73
     3
  0
TEXT
  8
11
  6
CONTINUOUS
 62
     7
  5
211
 10
962196.652
 20
7285473.086
 30
0.0
 40
8.0
  1
9
 50
327.581958
  7
ROMANS
 72
     1
 11
962202.910164
 21
7285478.588569
 31
0.0
210
0.0
220
0.0
230
1.0
 73
     3
  0
TEXT
  8
11
  6
CONTINUOUS
 62
     7
  5
212
 10
962204.283
 20
7285468.24
 30
0.0
 40
8.0
  1
.
 50
327.581958
  7
ROMANS
 72
     1
 11
962209.687719
 21
7285474.284559
 31
0.0
210
0.0
220
0.0
230
1.0
 73
     3
  0
TEXT
  8
11
  6
CONTINUOUS
 62
     7
  5
213
 10
962209.998
 20
7285464.61
 30
0.0
 40
8.0
  1
6
 50
327.581958
  7
ROMANS
 72
     1
 11
962216.414022
 21
7285470.01232
 31
0.0
210
0.0
220
0.0
230
1.0
 73
     3
  0
TEXT
  8
11
  6
CONTINUOUS
 62
     7
  5
214
 10
962216.912
 20
7285460.219
 30
0.0
 40
8.0
  1
5
 50
327.581958
  7
ROMANS
 72
     1
 11
962223.17945
 21
7285465.715672
 31
0.0
210
0.0
220
0.0
230
1.0
 73
     3
  0
TEXT
  8
11
  6
CONTINUOUS
 62
     7
  5
215
 10
962224.517
 20
7285455.391
 30
0.0
 40
8.0
  1
'
 50
327.581958
  7
ROMANS
 72
     1
 11
962229.931005
 21
7285461.429662
 31
0.0
210
0.0
220
0.0
230
1.0
 73
     3
  0
TEXT
  8
11
  6
CONTINUOUS
 62
     7
  5
216
 10
962787.774
 20
7285047.718
 30
0.0
 40
8.0
  1
R
 50
320.464789
  7
ROMANS
 72
     1
 11
962794.809927
 21
7285052.283756
 31
0.0
210
0.0
220
0.0
230
1.0
 73
     3
  0
TEXT
  8
11
  6
CONTINUOUS
 62
     7
  5
217
 10
962793.336
 20
7285043.126
 30
0.0
 40
8.0
  1
=
 50
320.464789
  7
ROMANS
 72
     1
 11
962800.99894
 21
7285047.174239
 31
0.0
210
0.0
220
0.0
230
1.0
 73
     3
  0
TEXT
  8
11
  6
CONTINUOUS
 62
     7
  5
218
 10
962800.258
 20
7285037.414
 30
0.0
 40
8.0
  1
5
 50
320.464789
  7
ROMANS
 72
     1
 11
962807.15819
 21
7285042.09179
 31
0.0
210
0.0
220
0.0
230
1.0
 73
     3
  0
TEXT
  8
11
  6
CONTINUOUS
 62
     7
  5
219
 10
962806.429
 20
7285032.321
 30
0.0
 40
8.0
  1
8
 50
320.464789
  7
ROMANS
 72
     1
 11
962813.320706
 21
7285037.005792
 31
0.0
210
0.0
220
0.0
230
1.0
 73
     3
  0
TEXT
  8
11
  6
CONTINUOUS
 62
     7
  5
21A
 10
962812.506
 20
7285027.295
 30
0.0
 40
8.0
  1
7
 50
319.867014
  7
ROMANS
 72
     1
 11
962819.446207
 21
7285031.907636
 31
0.0
210
0.0
220
0.0
230
1.0
 73
     3
  0
TEXT
  8
11
  6
CONTINUOUS
 62
     7
  5
21B
 10
962818.623
 20
7285022.139
 30
0.0
 40
8.0
  1
9
 50
319.867014
  7
ROMANS
 72
     1
 11
962825.563207
 21
7285026.751636
 31
0.0
210
0.0
220
0.0
230
1.0
 73
     3
  0
TEXT
  8
11
  6
CONTINUOUS
 62
     7
  5
21C
 10
962825.534
 20
7285016.313
 30
0.0
 40
8.0
  1
.
 50
319.867014
  7
ROMANS
 72
     1
 11
962831.701247
 21
7285021.57729
 31
0.0
210
0.0
220
0.0
230
1.0
 73
     3
  0
TEXT
  8
11
  6
CONTINUOUS
 62
     7
  5
21D
 10
962830.71
 20
7285011.948
 30
0.0
 40
8.0
  1
6
 50
319.867014
  7
ROMANS
 72
     1
 11
962837.793178
 21
7285016.440103
 31
0.0
210
0.0
220
0.0
230
1.0
 73
     3
  0
TEXT
  8
11
  6
CONTINUOUS
 62
     7
  5
21E
 10
962836.972
 20
7285006.67
 30
0.0
 40
8.0
  1
5
 50
319.867014
  7
ROMANS
 72
     1
 11
962843.920617
 21
7285011.275546
 31
0.0
210
0.0
220
0.0
230
1.0
 73
     3
  0
TEXT
  8
11
  6
CONTINUOUS
 62
     7
  5
21F
 10
962843.858
 20
7285000.863
 30
0.0
 40
8.0
  1
'
 50
319.867014
  7
ROMANS
 72
     1
 11
962850.033657
 21
7285006.1202
 31
0.0
210
0.0
220
0.0
230
1.0
 73
     3
  0
TEXT
  8
11
  6
CONTINUOUS
 62
     7
  5
220
 10
961399.346
 20
7285894.024
 30
0.0
 40
8.0
  1
R
 50
336.548569
  7
ROMANS
 72
     1
 11
961404.841615
 21
7285900.360294
 31
0.0
210
0.0
220
0.0
230
1.0
 73
     3
  0
TEXT
  8
11
  6
CONTINUOUS
 62
     7
  5
221
 10
961405.962
 20
7285891.154
 30
0.0
 40
8.0
  1
=
 50
336.548569
  7
ROMANS
 72
     1
 11
961412.203459
 21
7285897.166743
 31
0.0
210
0.0
220
0.0
230
1.0
 73
     3
  0
TEXT
  8
11
  6
CONTINUOUS
 62
     7
  5
222
 10
961414.197
 20
7285887.581
 30
0.0
 40
8.0
  1
5
 50
336.548569
  7
ROMANS
 72
     1
 11
961419.531153
 21
7285893.987337
 31
0.0
210
0.0
220
0.0
230
1.0
 73
     3
  0
TEXT
  8
11
  6
CONTINUOUS
 62
     7
  5
223
 10
961421.536
 20
7285884.397
 30
0.0
 40
8.0
  1
8
 50
336.548569
  7
ROMANS
 72
     1
 11
961426.860061
 21
7285890.807715
 31
0.0
210
0.0
220
0.0
230
1.0
 73
     3
  0
TEXT
  8
11
  6
CONTINUOUS
 62
     7
  5
224
 10
961428.773
 20
7285881.268
 30
0.0
 40
8.0
  1
7
 50
335.950794
  7
ROMANS
 72
     1
 11
961434.163654
 21
7285887.62282
 31
0.0
210
0.0
220
0.0
230
1.0
 73
     3
  0
TEXT
  8
11
  6
CONTINUOUS
 62
     7
  5
225
 10
961436.079
 20
7285878.008
 30
0.0
 40
8.0
  1
9
 50
335.950794
  7
ROMANS
 72
     1
 11
961441.469654
 21
7285884.36282
 31
0.0
210
0.0
220
0.0
230
1.0
 73
     3
  0
TEXT
  8
11
  6
CONTINUOUS
 62
     7
  5
226
 10
961444.333
 20
7285874.324
 30
0.0
 40
8.0
  1
.
 50
335.950794
  7
ROMANS
 72
     1
 11
961448.800413
 21
7285881.090824
 31
0.0
210
0.0
220
0.0
230
1.0
 73
     3
  0
TEXT
  8
11
  6
CONTINUOUS
 62
     7
  5
227
 10
961450.518
 20
7285871.565
 30
0.0
 40
8.0
  1
6
 50
335.950794
  7
ROMANS
 72
     1
 11
961456.079422
 21
7285877.843613
 31
0.0
210
0.0
220
0.0
230
1.0
 73
     3
  0
TEXT
  8
11
  6
CONTINUOUS
 62
     7
  5
228
 10
961457.996
 20
7285868.228
 30
0.0
 40
8.0
  1
5
 50
335.950794
  7
ROMANS
 72
     1
 11
961463.396699
 21
7285874.578337
 31
0.0
210
0.0
220
0.0
230
1.0
 73
     3
  0
TEXT
  8
11
  6
CONTINUOUS
 62
     7
  5
229
 10
961466.222
 20
7285864.558
 30
0.0
 40
8.0
  1
'
 50
335.950794
  7
ROMANS
 72
     1
 11
961470.699458
 21
7285871.320341
 31
0.0
210
0.0
220
0.0
230
1.0
 73
     3
  0
TEXT
  8
11
  6
CONTINUOUS
 62
     7
  5
22A
 10
961702.754
 20
7285767.835
 30
0.0
 40
8.0
  1
4
 50
333.559697
  7
ROMANS
 72
     1
 11
961704.842965
 21
7285766.796196
 31
0.0
210
0.0
220
0.0
230
1.0
  0
TEXT
  8
11
  6
CONTINUOUS
 62
     7
  5
22B
 10
961709.917
 20
7285764.273
 30
0.0
 40
8.0
  1
7
 50
333.559697
  7
ROMANS
 72
     1
 11
961712.005965
 21
7285763.234196
 31
0.0
210
0.0
220
0.0
230
1.0
  0
TEXT
  8
11
  6
CONTINUOUS
 62
     7
  5
22C
 10
961716.806
 20
7285760.795
 30
0.0
 40
8.0
  1
0
 50
332.961922
  7
ROMANS
 72
     1
 11
961719.167258
 21
7285759.589902
 31
0.0
210
0.0
220
0.0
230
1.0
  0
TEXT
  8
11
  6
CONTINUOUS
 62
     7
  5
22D
 10
961725.138
 20
7285756.543
 30
0.0
 40
8.0
  1
.
 50
332.961922
  7
ROMANS
 72
     1
 11
961726.315511
 21
7285755.942042
 31
0.0
210
0.0
220
0.0
230
1.0
  0
TEXT
  8
11
  6
CONTINUOUS
 62
     7
  5
22E
 10
961731.337
 20
7285753.378
 30
0.0
 40
8.0
  1
4
 50
332.961922
  7
ROMANS
 72
     1
 11
961733.415014
 21
7285752.317459
 31
0.0
210
0.0
220
0.0
230
1.0
  0
TEXT
  8
11
  6
CONTINUOUS
 62
     7
  5
22F
 10
961738.183
 20
7285749.885
 30
0.0
 40
8.0
  1
0
 50
332.961922
  7
ROMANS
 72
     1
 11
961740.544258
 21
7285748.679902
 31
0.0
210
0.0
220
0.0
230
1.0
  0
TEXT
  8
11
  6
CONTINUOUS
 62
     7
  5
230
 10
961746.486
 20
7285745.646
 30
0.0
 40
8.0
  1
'
 50
332.961922
  7
ROMANS
 72
     1
 11
961747.673309
 21
7285745.040041
 31
0.0
210
0.0
220
0.0
230
1.0
  0
TEXT
  8
11
  6
CONTINUOUS
 62
     7
  5
231
 10
961397.288
 20
7285910.176
 30
0.0
 40
8.0
  1
3
 50
336.548569
  7
ROMANS
 72
     1
 11
961399.428289
 21
7285909.247532
 31
0.0
210
0.0
220
0.0
230
1.0
  0
TEXT
  8
11
  6
CONTINUOUS
 62
     7
  5
232
 10
961404.626
 20
7285906.993
 30
0.0
 40
8.0
  1
3
 50
336.548569
  7
ROMANS
 72
     1
 11
961406.766289
 21
7285906.064532
 31
0.0
210
0.0
220
0.0
230
1.0
  0
TEXT
  8
11
  6
CONTINUOUS
 62
     7
  5
233
 10
961412.89
 20
7285903.409
 30
0.0
 40
8.0
  1
1
 50
336.548569
  7
ROMANS
 72
     1
 11
961414.112891
 21
7285902.878504
 31
0.0
210
0.0
220
0.0
230
1.0
  0
TEXT
  8
11
  6
CONTINUOUS
 62
     7
  5
234
 10
961420.258
 20
7285900.212
 30
0.0
 40
8.0
  1
.
 50
336.548569
  7
ROMANS
 72
     1
 11
961421.4708
 21
7285899.685882
 31
0.0
210
0.0
220
0.0
230
1.0
  0
TEXT
  8
11
  6
CONTINUOUS
 62
     7
  5
235
 10
961426.644
 20
7285897.442
 30
0.0
 40
8.0
  1
8
 50
336.548569
  7
ROMANS
 72
     1
 11
961428.784289
 21
7285896.513532
 31
0.0
210
0.0
220
0.0
230
1.0
  0
TEXT
  8
11
  6
CONTINUOUS
 62
     7
  5
236
 10
961434.938
 20
7285893.847
 30
0.0
 40
8.0
  1
'
 50
335.950794
  7
ROMANS
 72
     1
 11
961436.15529
 21
7285893.303774
 31
0.0
210
0.0
220
0.0
230
1.0
  0
TEXT
  8
11
  6
CONTINUOUS
 62
     7
  5
237
 10
961134.29
 20
7286016.382
 30
0.0
 40
8.0
  1
1
 50
338.98595
  7
ROMANS
 72
     1
 11
961135.534346
 21
7286015.90399
 31
0.0
210
0.0
220
0.0
230
1.0
  0
TEXT
  8
11
  6
CONTINUOUS
 62
     7
  5
238
 10
961141.758
 20
7286013.513
 30
0.0
 40
8.0
  1
1
 50
338.98595
  7
ROMANS
 72
     1
 11
961143.002346
 21
7286013.03499
 31
0.0
210
0.0
220
0.0
230
1.0
  0
TEXT
  8
11
  6
CONTINUOUS
 62
     7
  5
239
 10
961148.285
 20
7286011.006
 30
0.0
 40
8.0
  1
8
 50
338.98595
  7
ROMANS
 72
     1
 11
961150.462838
 21
7286010.169394
 31
0.0
210
0.0
220
0.0
230
1.0
  0
TEXT
  8
11
  6
CONTINUOUS
 62
     7
  5
23A
 10
961156.724
 20
7286007.765
 30
0.0
 40
8.0
  1
.
 50
338.98595
  7
ROMANS
 72
     1
 11
961157.958077
 21
7286007.290935
 31
0.0
210
0.0
220
0.0
230
1.0
  0
TEXT
  8
11
  6
CONTINUOUS
 62
     7
  5
23B
 10
961163.045
 20
7286005.336
 30
0.0
 40
8.0
  1
6
 50
338.98595
  7
ROMANS
 72
     1
 11
961165.397401
 21
7286004.432336
 31
0.0
210
0.0
220
0.0
230
1.0
  0
TEXT
  8
11
  6
CONTINUOUS
 62
     7
  5
23C
 10
961171.629
 20
7286002.039
 30
0.0
 40
8.0
  1
'
 50
338.98595
  7
ROMANS
 72
     1
 11
961172.873346
 21
7286001.56099
 31
0.0
210
0.0
220
0.0
230
1.0
  0
TEXT
  8
11
  6
CONTINUOUS
 62
     7
  5
23D
 10
962172.194
 20
7285504.889
 30
0.0
 40
8.0
  1
5
 50
328.179731
  7
ROMANS
 72
     1
 11
962174.185711
 21
7285503.653111
 31
0.0
210
0.0
220
0.0
230
1.0
  0
TEXT
  8
11
  6
CONTINUOUS
 62
     7
  5
23E
 10
962178.993
 20
7285500.672
 30
0.0
 40
8.0
  1
4
 50
328.179731
  7
ROMANS
 72
     1
 11
962180.975365
 21
7285499.441911
 31
0.0
210
0.0
220
0.0
230
1.0
  0
TEXT
  8
11
  6
CONTINUOUS
 62
     7
  5
23F
 10
962185.522
 20
7285496.62
 30
0.0
 40
8.0
  1
0
 50
328.179731
  7
ROMANS
 72
     1
 11
962187.774571
 21
7285495.222243
 31
0.0
210
0.0
220
0.0
230
1.0
  0
TEXT
  8
11
  6
CONTINUOUS
 62
     7
  5
240
 10
962193.498
 20
7285491.672
 30
0.0
 40
8.0
  1
.
 50
327.581958
  7
ROMANS
 72
     1
 11
962194.613978
 21
7285490.963286
 31
0.0
210
0.0
220
0.0
230
1.0
  0
TEXT
  8
11
  6
CONTINUOUS
 62
     7
  5
241
 10
962199.374
 20
7285487.941
 30
0.0
 40
8.0
  1
3
 50
327.581958
  7
ROMANS
 72
     1
 11
962201.343423
 21
7285486.690296
 31
0.0
210
0.0
220
0.0
230
1.0
  0
TEXT
  8
11
  6
CONTINUOUS
 62
     7
  5
242
 10
962206.128
 20
7285483.653
 30
0.0
 40
8.0
  1
3
 50
327.581958
  7
ROMANS
 72
     1
 11
962208.097423
 21
7285482.402296
 31
0.0
210
0.0
220
0.0
230
1.0
  0
TEXT
  8
11
  6
CONTINUOUS
 62
     7
  5
243
 10
962213.732
 20
7285478.824
 30
0.0
 40
8.0
  1
'
 50
327.581958
  7
ROMANS
 72
     1
 11
962214.857264
 21
7285478.109389
 31
0.0
210
0.0
220
0.0
230
1.0
  0
TEXT
  8
11
  6
CONTINUOUS
 62
     7
  5
244
 10
962541.506
 20
7285363.646
 30
0.0
 40
8.0
  1
 
 50
57.516517
  7
ROMANS
 72
     1
 11
962536.189422
 21
7285370.191346
 31
0.0
210
0.0
220
0.0
230
1.0
 73
     3
  0
TEXT
  8
11
  6
CONTINUOUS
 62
     7
  5
245
 10
962545.873
 20
7285370.349
 30
0.0
 40
8.0
  1
 
 50
55.516517
  7
ROMANS
 72
     1
 11
962540.78809
 21
7285377.075905
 31
0.0
210
0.0
220
0.0
230
1.0
 73
     3
  0
TEXT
  8
11
  6
CONTINUOUS
 62
     7
  5
246
 10
962569.221
 20
7285564.653
 30
0.0
 40
8.0
  1
R
 50
58.519847
  7
ROMANS
 72
     1
 11
962570.536952
 21
7285566.802109
 31
0.0
210
0.0
220
0.0
230
1.0
  0
TEXT
  8
11
  6
CONTINUOUS
 62
     7
  5
247
 10
962572.987
 20
7285570.804
 30
0.0
 40
8.0
  1
=
 50
58.519847
  7
ROMANS
 72
     1
 11
962574.727503
 21
7285573.646453
 31
0.0
210
0.0
220
0.0
230
1.0
  0
TEXT
  8
11
  6
CONTINUOUS
 62
     7
  5
248
 10
962578.117
 20
7285579.29
 30
0.0
 40
8.0
  1
1
 50
59.816711
  7
ROMANS
 72
     1
 11
962578.78719
 21
7285580.442274
 31
0.0
210
0.0
220
0.0
230
1.0
  0
TEXT
  8
11
  6
CONTINUOUS
 62
     7
  5
249
 10
962581.633
 20
7285585.333
 30
0.0
 40
8.0
  1
2
 50
59.816711
  7
ROMANS
 72
     1
 11
962582.805957
 21
7285587.349695
 31
0.0
210
0.0
220
0.0
230
1.0
  0
TEXT
  8
11
  6
CONTINUOUS
 62
     7
  5
24A
 10
962585.656
 20
7285592.248
 30
0.0
 40
8.0
  1
4
 50
59.816711
  7
ROMANS
 72
     1
 11
962586.828957
 21
7285594.264695
 31
0.0
210
0.0
220
0.0
230
1.0
  0
TEXT
  8
11
  6
CONTINUOUS
 62
     7
  5
24B
 10
962589.677
 20
7285599.164
 30
0.0
 40
8.0
  1
9
 50
59.816711
  7
ROMANS
 72
     1
 11
962590.849957
 21
7285601.180695
 31
0.0
210
0.0
220
0.0
230
1.0
  0
TEXT
  8
11
  6
CONTINUOUS
 62
     7
  5
24C
 10
962594.064
 20
7285606.988
 30
0.0
 40
8.0
  1
.
 50
61.113572
  7
ROMANS
 72
     1
 11
962594.702625
 21
7285608.145515
 31
0.0
210
0.0
220
0.0
230
1.0
  0
TEXT
  8
11
  6
CONTINUOUS
 62
     7
  5
24D
 10
962597.427
 20
7285613.083
 30
0.0
 40
8.0
  1
2
 50
61.113572
  7
ROMANS
 72
     1
 11
962598.554014
 21
7285615.125726
 31
0.0
210
0.0
220
0.0
230
1.0
  0
TEXT
  8
11
  6
CONTINUOUS
 62
     7
  5
24E
 10
962601.291
 20
7285620.088
 30
0.0
 40
8.0
  1
3
 50
61.113572
  7
ROMANS
 72
     1
 11
962602.418014
 21
7285622.130726
 31
0.0
210
0.0
220
0.0
230
1.0
  0
TEXT
  8
11
  6
CONTINUOUS
 62
     7
  5
24F
 10
962605.572
 20
7285627.936
 30
0.0
 40
8.0
  1
'
 50
62.410433
  7
ROMANS
 72
     1
 11
962606.189822
 21
7285629.118308
 31
0.0
210
0.0
220
0.0
230
1.0
  0
TEXT
  8
11
  6
CONTINUOUS
 62
     7
  5
250
 10
962580.053
 20
7285555.534
 30
0.0
 40
8.0
  1
2
 50
58.519847
  7
ROMANS
 72
     1
 11
962574.448731
 21
7285561.701257
 31
0.0
210
0.0
220
0.0
230
1.0
 73
     3
  0
TEXT
  8
11
  6
CONTINUOUS
 62
     7
  5
251
 10
962584.23
 20
7285562.357
 30
0.0
 40
8.0
  1
2
 50
58.519847
  7
ROMANS
 72
     1
 11
962578.625731
 21
7285568.524257
 31
0.0
210
0.0
220
0.0
230
1.0
 73
     3
  0
TEXT
  8
11
  6
CONTINUOUS
 62
     7
  5
252
 10
962588.393
 20
7285569.112
 30
0.0
 40
8.0
  1
0
 50
59.816711
  7
ROMANS
 72
     1
 11
962582.810466
 21
7285575.425724
 31
0.0
210
0.0
220
0.0
230
1.0
 73
     3
  0
TEXT
  8
11
  6
CONTINUOUS
 62
     7
  5
253
 10
962593.097
 20
7285577.198
 30
0.0
 40
8.0
  1
.
 50
59.816711
  7
ROMANS
 72
     1
 11
962586.846287
 21
7285582.362908
 31
0.0
210
0.0
220
0.0
230
1.0
 73
     3
  0
TEXT
  8
11
  6
CONTINUOUS
 62
     7
  5
254
 10
962596.596
 20
7285583.215
 30
0.0
 40
8.0
  1
7
 50
59.816711
  7
ROMANS
 72
     1
 11
962590.853586
 21
7285589.253838
 31
0.0
210
0.0
220
0.0
230
1.0
 73
     3
  0
TEXT
  8
11
  6
CONTINUOUS
 62
     7
  5
255
 10
962600.618
 20
7285590.13
 30
0.0
 40
8.0
  1
7
 50
59.816711
  7
ROMANS
 72
     1
 11
962594.875586
 21
7285596.168838
 31
0.0
210
0.0
220
0.0
230
1.0
 73
     3
  0
TEXT
  8
11
  6
CONTINUOUS
 62
     7
  5
256
 10
962605.193
 20
7285598.178
 30
0.0
 40
8.0
  1
'
 50
61.113572
  7
ROMANS
 72
     1
 11
962598.832307
 21
7285603.209747
 31
0.0
210
0.0
220
0.0
230
1.0
 73
     3
  0
TEXT
  8
11
  6
CONTINUOUS
 62
     7
  5
257
 10
962659.677
 20
7285542.471
 30
0.0
 40
8.0
  1
2
 50
59.984383
  7
ROMANS
 72
     1
 11
962653.916938
 21
7285548.493007
 31
0.0
210
0.0
220
0.0
230
1.0
 73
     3
  0
TEXT
  8
11
  6
CONTINUOUS
 62
     7
  5
258
 10
962663.678
 20
7285549.399
 30
0.0
 40
8.0
  1
3
 50
59.984383
  7
ROMANS
 72
     1
 11
962657.917938
 21
7285555.421007
 31
0.0
210
0.0
220
0.0
230
1.0
 73
     3
  0
TEXT
  8
11
  6
CONTINUOUS
 62
     7
  5
259
 10
962667.681
 20
7285556.326
 30
0.0
 40
8.0
  1
4
 50
59.984383
  7
ROMANS
 72
     1
 11
962661.920938
 21
7285562.348007
 31
0.0
210
0.0
220
0.0
230
1.0
 73
     3
  0
TEXT
  8
11
  6
CONTINUOUS
 62
     7
  5
25A
 10
962672.242
 20
7285564.409
 30
0.0
 40
8.0
  1
.
 50
61.243983
  7
ROMANS
 72
     1
 11
962665.864579
 21
7285569.416613
 31
0.0
210
0.0
220
0.0
230
1.0
 73
     3
  0
TEXT
  8
11
  6
CONTINUOUS
 62
     7
  5
25B
 10
962675.439
 20
7285570.235
 30
0.0
 40
8.0
  1
0
 50
61.243983
  7
ROMANS
 72
     1
 11
962669.700935
 21
7285576.407715
 31
0.0
210
0.0
220
0.0
230
1.0
 73
     3
  0
TEXT
  8
11
  6
CONTINUOUS
 62
     7
  5
25C
 10
962679.439
 20
7285577.525
 30
0.0
 40
8.0
  1
3
 50
61.243983
  7
ROMANS
 72
     1
 11
962673.547952
 21
7285583.418932
 31
0.0
210
0.0
220
0.0
230
1.0
 73
     3
  0
TEXT
  8
11
  6
CONTINUOUS
 62
     7
  5
25D
 10
962683.906
 20
7285585.625
 30
0.0
 40
8.0
  1
'
 50
62.503586
  7
ROMANS
 72
     1
 11
962677.425119
 21
7285590.500969
 31
0.0
210
0.0
220
0.0
230
1.0
 73
     3
  0
TEXT
  8
11
  6
CONTINUOUS
 62
     7
  5
25E
 10
962016.188
 20
7285846.902
 30
0.0
 40
8.0
  1
4
 50
65.652511
  7
ROMANS
 72
     1
 11
962017.149825
 21
7285849.027507
 31
0.0
210
0.0
220
0.0
230
1.0
  0
TEXT
  8
11
  6
CONTINUOUS
 62
     7
  5
25F
 10
962019.486
 20
7285854.19
 30
0.0
 40
8.0
  1
7
 50
65.652511
  7
ROMANS
 72
     1
 11
962020.447825
 21
7285856.315507
 31
0.0
210
0.0
220
0.0
230
1.0
  0
TEXT
  8
11
  6
CONTINUOUS
 62
     7
  5
260
 10
962022.784
 20
7285861.479
 30
0.0
 40
8.0
  1
5
 50
65.652511
  7
ROMANS
 72
     1
 11
962023.75036
 21
7285863.614529
 31
0.0
210
0.0
220
0.0
230
1.0
  0
TEXT
  8
11
  6
CONTINUOUS
 62
     7
  5
261
 10
962026.497
 20
7285869.686
 30
0.0
 40
8.0
  1
'
 50
65.652511
  7
ROMANS
 72
     1
 11
962027.046555
 21
7285870.900445
 31
0.0
210
0.0
220
0.0
230
1.0
  0
TEXT
  8
11
  6
CONTINUOUS
 62
     7
  5
262
 10
961835.45
 20
7286076.895
 30
0.0
 40
8.0
  1
5
 50
358.6026
  7
ROMANS
 72
     1
 11
961837.988397
 21
7286084.835458
 31
0.0
210
0.0
220
0.0
230
1.0
 73
     3
  0
TEXT
  8
11
  6
CONTINUOUS
 62
     7
  5
263
 10
961844.455
 20
7286076.675
 30
0.0
 40
8.0
  1
1
 50
358.6026
  7
ROMANS
 72
     1
 11
961845.982698
 21
7286084.640113
 31
0.0
210
0.0
220
0.0
230
1.0
 73
     3
  0
TEXT
  8
11
  6
CONTINUOUS
 62
     7
  5
264
 10
961852.453
 20
7286076.48
 30
0.0
 40
8.0
  1
1
 50
358.6026
  7
ROMANS
 72
     1
 11
961853.980698
 21
7286084.445113
 31
0.0
210
0.0
220
0.0
230
1.0
 73
     3
  0
TEXT
  8
11
  6
CONTINUOUS
 62
     7
  5
265
 10
961860.482
 20
7286076.284
 30
0.0
 40
8.0
  1
.
 50
358.6026
  7
ROMANS
 72
     1
 11
961861.998701
 21
7286084.249381
 31
0.0
210
0.0
220
0.0
230
1.0
 73
     3
  0
TEXT
  8
11
  6
CONTINUOUS
 62
     7
  5
266
 10
961867.441
 20
7286076.115
 30
0.0
 40
8.0
  1
7
 50
358.6026
  7
ROMANS
 72
     1
 11
961869.968401
 21
7286084.055726
 31
0.0
210
0.0
220
0.0
230
1.0
 73
     3
  0
TEXT
  8
11
  6
CONTINUOUS
 62
     7
  5
267
 10
961875.123
 20
7286075.927
 30
0.0
 40
8.0
  1
0
 50
358.6026
  7
ROMANS
 72
     1
 11
961877.968306
 21
7286083.859971
 31
0.0
210
0.0
220
0.0
230
1.0
 73
     3
  0
TEXT
  8
11
  6
CONTINUOUS
 62
     7
  5
268
 10
961884.443
 20
7286075.699
 30
0.0
 40
8.0
  1
'
 50
358.6026
  7
ROMANS
 72
     1
 11
961885.970698
 21
7286083.664113
 31
0.0
210
0.0
220
0.0
230
1.0
 73
     3
  0
TEXT
  8
11
  6
CONTINUOUS
 62
     7
  5
269
 10
961561.795
 20
7285951.728
 30
0.0
 40
8.0
  1
2
 50
65.652472
  7
ROMANS
 72
     1
 11
961555.468334
 21
7285957.151669
 31
0.0
210
0.0
220
0.0
230
1.0
 73
     3
  0
TEXT
  8
11
  6
CONTINUOUS
 62
     7
  5
26A
 10
961565.093
 20
7285959.017
 30
0.0
 40
8.0
  1
5
 50
65.652472
  7
ROMANS
 72
     1
 11
961558.770869
 21
7285964.45069
 31
0.0
210
0.0
220
0.0
230
1.0
 73
     3
  0
TEXT
  8
11
  6
CONTINUOUS
 62
     7
  5
26B
 10
961568.392
 20
7285966.304
 30
0.0
 40
8.0
  1
5
 50
65.652472
  7
ROMANS
 72
     1
 11
961562.069869
 21
7285971.73769
 31
0.0
210
0.0
220
0.0
230
1.0
 73
     3
  0
TEXT
  8
11
  6
CONTINUOUS
 62
     7
  5
26C
 10
961572.117
 20
7285974.54
 30
0.0
 40
8.0
  1
.
 50
65.652472
  7
ROMANS
 72
     1
 11
961565.373528
 21
7285979.042585
 31
0.0
210
0.0
220
0.0
230
1.0
 73
     3
  0
TEXT
  8
11
  6
CONTINUOUS
 62
     7
  5
26D
 10
961574.988
 20
7285980.882
 30
0.0
 40
8.0
  1
3
 50
65.652472
  7
ROMANS
 72
     1
 11
961568.661334
 21
7285986.305669
 31
0.0
210
0.0
220
0.0
230
1.0
 73
     3
  0
TEXT
  8
11
  6
CONTINUOUS
 62
     7
  5
26E
 10
961578.156
 20
7285987.884
 30
0.0
 40
8.0
  1
0
 50
65.652472
  7
ROMANS
 72
     1
 11
961571.960436
 21
7285993.597386
 31
0.0
210
0.0
220
0.0
230
1.0
 73
     3
  0
TEXT
  8
11
  6
CONTINUOUS
 62
     7
  5
26F
 10
961582.0
 20
7285996.377
 30
0.0
 40
8.0
  1
'
 50
65.652472
  7
ROMANS
 72
     1
 11
961575.261063
 21
7286000.889607
 31
0.0
210
0.0
220
0.0
230
1.0
 73
     3
  0
TEXT
  8
11
  6
CONTINUOUS
 62
     7
  5
270
 10
961682.112
 20
7286217.613
 30
0.0
 40
8.0
  1
3
 50
65.652603
  7
ROMANS
 72
     1
 11
961675.785321
 21
7286223.036654
 31
0.0
210
0.0
220
0.0
230
1.0
 73
     3
  0
TEXT
  8
11
  6
CONTINUOUS
 62
     7
  5
271
 10
961685.411
 20
7286224.902
 30
0.0
 40
8.0
  1
2
 50
65.652603
  7
ROMANS
 72
     1
 11
961679.084321
 21
7286230.325654
 31
0.0
210
0.0
220
0.0
230
1.0
 73
     3
  0
TEXT
  8
11
  6
CONTINUOUS
 62
     7
  5
272
 10
961688.709
 20
7286232.19
 30
0.0
 40
8.0
  1
9
 50
65.652603
  7
ROMANS
 72
     1
 11
961682.382321
 21
7286237.613654
 31
0.0
210
0.0
220
0.0
230
1.0
 73
     3
  0
TEXT
  8
11
  6
CONTINUOUS
 62
     7
  5
273
 10
961692.434
 20
7286240.425
 30
0.0
 40
8.0
  1
.
 50
65.652603
  7
ROMANS
 72
     1
 11
961685.690518
 21
7286244.92757
 31
0.0
210
0.0
220
0.0
230
1.0
 73
     3
  0
TEXT
  8
11
  6
CONTINUOUS
 62
     7
  5
274
 10
961695.305
 20
7286246.767
 30
0.0
 40
8.0
  1
3
 50
65.652603
  7
ROMANS
 72
     1
 11
961688.978321
 21
7286252.190654
 31
0.0
210
0.0
220
0.0
230
1.0
 73
     3
  0
TEXT
  8
11
  6
CONTINUOUS
 62
     7
  5
275
 10
961698.473
 20
7286253.769
 30
0.0
 40
8.0
  1
0
 50
65.652603
  7
ROMANS
 72
     1
 11
961692.277423
 21
7286259.482372
 31
0.0
210
0.0
220
0.0
230
1.0
 73
     3
  0
TEXT
  8
11
  6
CONTINUOUS
 62
     7
  5
276
 10
961702.317
 20
7286262.263
 30
0.0
 40
8.0
  1
'
 50
65.652603
  7
ROMANS
 72
     1
 11
961695.578053
 21
7286266.775592
 31
0.0
210
0.0
220
0.0
230
1.0
 73
     3
  0
TEXT
  8
11
  6
CONTINUOUS
 62
     7
  5
277
 10
961619.116
 20
7286112.357
 30
0.0
 40
8.0
  1
5
 50
65.652603
  7
ROMANS
 72
     1
 11
961620.082357
 21
7286114.492531
 31
0.0
210
0.0
220
0.0
230
1.0
  0
TEXT
  8
11
  6
CONTINUOUS
 62
     7
  5
278
 10
961622.413
 20
7286119.645
 30
0.0
 40
8.0
  1
8
 50
65.652603
  7
ROMANS
 72
     1
 11
961623.374822
 21
7286121.770509
 31
0.0
210
0.0
220
0.0
230
1.0
  0
TEXT
  8
11
  6
CONTINUOUS
 62
     7
  5
279
 10
961625.712
 20
7286126.934
 30
0.0
 40
8.0
  1
4
 50
65.652603
  7
ROMANS
 72
     1
 11
961626.673822
 21
7286129.059509
 31
0.0
210
0.0
220
0.0
230
1.0
  0
TEXT
  8
11
  6
CONTINUOUS
 62
     7
  5
27A
 10
961629.438
 20
7286135.17
 30
0.0
 40
8.0
  1
.
 50
65.652603
  7
ROMANS
 72
     1
 11
961629.983019
 21
7286136.374425
 31
0.0
210
0.0
220
0.0
230
1.0
  0
TEXT
  8
11
  6
CONTINUOUS
 62
     7
  5
27B
 10
961632.308
 20
7286141.511
 30
0.0
 40
8.0
  1
5
 50
65.652603
  7
ROMANS
 72
     1
 11
961633.274357
 21
7286143.646531
 31
0.0
210
0.0
220
0.0
230
1.0
  0
TEXT
  8
11
  6
CONTINUOUS
 62
     7
  5
27C
 10
961636.022
 20
7286149.718
 30
0.0
 40
8.0
  1
'
 50
65.652603
  7
ROMANS
 72
     1
 11
961636.571553
 21
7286150.932446
 31
0.0
210
0.0
220
0.0
230
1.0
  0
TEXT
  8
11
  6
CONTINUOUS
 62
     7
  5
27D
 10
962184.375
 20
7286218.575
 30
0.0
 40
8.0
  1
3
 50
65.652639
  7
ROMANS
 72
     1
 11
962185.33682
 21
7286220.70051
 31
0.0
210
0.0
220
0.0
230
1.0
  0
TEXT
  8
11
  6
CONTINUOUS
 62
     7
  5
27E
 10
962187.673
 20
7286225.864
 30
0.0
 40
8.0
  1
5
 50
65.652639
  7
ROMANS
 72
     1
 11
962188.639355
 21
7286227.999531
 31
0.0
210
0.0
220
0.0
230
1.0
  0
TEXT
  8
11
  6
CONTINUOUS
 62
     7
  5
27F
 10
962190.971
 20
7286233.152
 30
0.0
 40
8.0
  1
5
 50
65.652639
  7
ROMANS
 72
     1
 11
962191.937355
 21
7286235.287531
 31
0.0
210
0.0
220
0.0
230
1.0
  0
TEXT
  8
11
  6
CONTINUOUS
 62
     7
  5
280
 10
962194.685
 20
7286241.358
 30
0.0
 40
8.0
  1
'
 50
65.652639
  7
ROMANS
 72
     1
 11
962195.234553
 21
7286242.572447
 31
0.0
210
0.0
220
0.0
230
1.0
  0
TEXT
  8
11
  6
CONTINUOUS
 62
     7
  5
281
 10
962279.393
 20
7286404.062
 30
0.0
 40
8.0
  1
6
 50
335.652217
  7
ROMANS
 72
     1
 11
962281.688871
 21
7286403.023069
 31
0.0
210
0.0
220
0.0
230
1.0
  0
TEXT
  8
11
  6
CONTINUOUS
 62
     7
  5
282
 10
962287.771
 20
7286400.27
 30
0.0
 40
8.0
  1
1
 50
335.652217
  7
ROMANS
 72
     1
 11
962288.985443
 21
7286399.720438
 31
0.0
210
0.0
220
0.0
230
1.0
  0
TEXT
  8
11
  6
CONTINUOUS
 62
     7
  5
283
 10
962295.088
 20
7286396.959
 30
0.0
 40
8.0
  1
.
 50
335.652217
  7
ROMANS
 72
     1
 11
962296.292421
 21
7286396.413973
 31
0.0
210
0.0
220
0.0
230
1.0
  0
TEXT
  8
11
  6
CONTINUOUS
 62
     7
  5
284
 10
962301.43
 20
7286394.088
 30
0.0
 40
8.0
  1
5
 50
335.652217
  7
ROMANS
 72
     1
 11
962303.565524
 21
7286393.121629
 31
0.0
210
0.0
220
0.0
230
1.0
  0
TEXT
  8
11
  6
CONTINUOUS
 62
     7
  5
285
 10
962308.432
 20
7286390.921
 30
0.0
 40
8.0
  1
0
 50
335.652217
  7
ROMANS
 72
     1
 11
962310.847219
 21
7286389.828061
 31
0.0
210
0.0
220
0.0
230
1.0
  0
TEXT
  8
11
  6
CONTINUOUS
 62
     7
  5
286
 10
962316.925
 20
7286387.078
 30
0.0
 40
8.0
  1
'
 50
335.652217
  7
ROMANS
 72
     1
 11
962318.139443
 21
7286386.528438
 31
0.0
210
0.0
220
0.0
230
1.0
  0
TEXT
  8
11
  6
CONTINUOUS
 62
     7
  5
287
 10
962562.222
 20
7286260.71
 30
0.0
 40
8.0
  1
6
 50
335.652603
  7
ROMANS
 72
     1
 11
962567.816023
 21
7286266.959585
 31
0.0
210
0.0
220
0.0
230
1.0
 73
     3
  0
TEXT
  8
11
  6
CONTINUOUS
 62
     7
  5
288
 10
962569.396
 20
7286257.464
 30
0.0
 40
8.0
  1
0
 50
335.652603
  7
ROMANS
 72
     1
 11
962575.109372
 21
7286263.659577
 31
0.0
210
0.0
220
0.0
230
1.0
 73
     3
  0
TEXT
  8
11
  6
CONTINUOUS
 62
     7
  5
289
 10
962576.972
 20
7286254.036
 30
0.0
 40
8.0
  1
7
 50
335.652603
  7
ROMANS
 72
     1
 11
962582.395654
 21
7286260.362679
 31
0.0
210
0.0
220
0.0
230
1.0
 73
     3
  0
TEXT
  8
11
  6
CONTINUOUS
 62
     7
  5
28A
 10
962585.206
 20
7286250.31
 30
0.0
 40
8.0
  1
.
 50
335.652603
  7
ROMANS
 72
     1
 11
962589.70857
 21
7286257.053482
 31
0.0
210
0.0
220
0.0
230
1.0
 73
     3
  0
TEXT
  8
11
  6
CONTINUOUS
 62
     7
  5
28B
 10
962591.548
 20
7286247.439
 30
0.0
 40
8.0
  1
5
 50
335.652603
  7
ROMANS
 72
     1
 11
962596.981676
 21
7286253.761144
 31
0.0
210
0.0
220
0.0
230
1.0
 73
     3
  0
TEXT
  8
11
  6
CONTINUOUS
 62
     7
  5
28C
 10
962599.755
 20
7286243.726
 30
0.0
 40
8.0
  1
'
 50
335.652603
  7
ROMANS
 72
     1
 11
962604.267592
 21
7286250.464947
 31
0.0
210
0.0
220
0.0
230
1.0
 73
     3
  0
TEXT
  8
11
  6
CONTINUOUS
 62
     7
  5
28D
 10
961576.788
 20
7286754.54
 30
0.0
 40
8.0
  1
8
 50
293.985881
  7
ROMANS
 72
     1
 11
961585.045557
 21
7286755.660557
 31
0.0
210
0.0
220
0.0
230
1.0
 73
     3
  0
TEXT
  8
11
  6
CONTINUOUS
 62
     7
  5
28E
 10
961580.04
 20
7286747.23
 30
0.0
 40
8.0
  1
4
 50
293.985881
  7
ROMANS
 72
     1
 11
961588.297557
 21
7286748.350557
 31
0.0
210
0.0
220
0.0
230
1.0
 73
     3
  0
TEXT
  8
11
  6
CONTINUOUS
 62
     7
  5
28F
 10
961583.702
 20
7286739.0
 30
0.0
 40
8.0
  1
1
 50
293.985881
  7
ROMANS
 72
     1
 11
961591.553045
 21
7286741.034202
 31
0.0
210
0.0
220
0.0
230
1.0
 73
     3
  0
TEXT
  8
11
  6
CONTINUOUS
 62
     7
  5
290
 10
961586.967
 20
7286731.661
 30
0.0
 40
8.0
  1
.
 50
293.985881
  7
ROMANS
 72
     1
 11
961594.813574
 21
7286733.705252
 31
0.0
210
0.0
220
0.0
230
1.0
 73
     3
  0
TEXT
  8
11
  6
CONTINUOUS
 62
     7
  5
291
 10
961589.796
 20
7286725.302
 30
0.0
 40
8.0
  1
2
 50
293.985881
  7
ROMANS
 72
     1
 11
961598.053557
 21
7286726.422557
 31
0.0
210
0.0
220
0.0
230
1.0
 73
     3
  0
TEXT
  8
11
  6
CONTINUOUS
 62
     7
  5
292
 10
961593.458
 20
7286717.073
 30
0.0
 40
8.0
  1
'
 50
293.985881
  7
ROMANS
 72
     1
 11
961601.309045
 21
7286719.107202
 31
0.0
210
0.0
220
0.0
230
1.0
 73
     3
  0
TEXT
  8
11
  6
CONTINUOUS
 62
     7
  5
293
 10
961110.262
 20
7286100.742
 30
0.0
 40
8.0
  1
1
 50
268.6026
  7
ROMANS
 72
     1
 11
961110.229492
 21
7286099.409396
 31
0.0
210
0.0
220
0.0
230
1.0
  0
TEXT
  8
11
  6
CONTINUOUS
 62
     7
  5
294
 10
961110.067
 20
7286092.744
 30
0.0
 40
8.0
  1
1
 50
268.6026
  7
ROMANS
 72
     1
 11
961110.034492
 21
7286091.411396
 31
0.0
210
0.0
220
0.0
230
1.0
  0
TEXT
  8
11
  6
CONTINUOUS
 62
     7
  5
295
 10
961109.896
 20
7286085.755
 30
0.0
 40
8.0
  1
5
 50
268.6026
  7
ROMANS
 72
     1
 11
961109.838837
 21
7286083.411697
 31
0.0
210
0.0
220
0.0
230
1.0
  0
TEXT
  8
11
  6
CONTINUOUS
 62
     7
  5
296
 10
961109.676
 20
7286076.717
 30
0.0
 40
8.0
  1
.
 50
268.6026
  7
ROMANS
 72
     1
 11
961109.643761
 21
7286075.395393
 31
0.0
210
0.0
220
0.0
230
1.0
  0
TEXT
  8
11
  6
CONTINUOUS
 62
     7
  5
297
 10
961109.482
 20
7286068.751
 30
0.0
 40
8.0
  1
1
 50
268.6026
  7
ROMANS
 72
     1
 11
961109.449492
 21
7286067.418396
 31
0.0
210
0.0
220
0.0
230
1.0
  0
TEXT
  8
11
  6
CONTINUOUS
 62
     7
  5
298
 10
961109.286
 20
7286060.754
 30
0.0
 40
8.0
  1
'
 50
268.6026
  7
ROMANS
 72
     1
 11
961109.253492
 21
7286059.421396
 31
0.0
210
0.0
220
0.0
230
1.0
  0
TEXT
  8
11
  6
CONTINUOUS
 62
     7
  5
299
 10
960952.866
 20
7286486.445
 30
0.0
 40
8.0
  1
7
 50
293.985897
  7
ROMANS
 72
     1
 11
960953.814392
 21
7286484.313465
 31
0.0
210
0.0
220
0.0
230
1.0
  0
TEXT
  8
11
  6
CONTINUOUS
 62
     7
  5
29A
 10
960956.118
 20
7286479.135
 30
0.0
 40
8.0
  1
8
 50
293.985897
  7
ROMANS
 72
     1
 11
960957.066392
 21
7286477.003465
 31
0.0
210
0.0
220
0.0
230
1.0
  0
TEXT
  8
11
  6
CONTINUOUS
 62
     7
  5
29B
 10
960959.37
 20
7286471.826
 30
0.0
 40
8.0
  1
9
 50
293.985897
  7
ROMANS
 72
     1
 11
960960.318392
 21
7286469.694465
 31
0.0
210
0.0
220
0.0
230
1.0
  0
TEXT
  8
11
  6
CONTINUOUS
 62
     7
  5
29C
 10
960963.044
 20
7286463.568
 30
0.0
 40
8.0
  1
.
 50
293.985897
  7
ROMANS
 72
     1
 11
960963.581409
 21
7286462.360161
 31
0.0
210
0.0
220
0.0
230
1.0
  0
TEXT
  8
11
  6
CONTINUOUS
 62
     7
  5
29D
 10
960965.874
 20
7286457.208
 30
0.0
 40
8.0
  1
9
 50
293.985897
  7
ROMANS
 72
     1
 11
960966.822392
 21
7286455.076465
 31
0.0
210
0.0
220
0.0
230
1.0
  0
TEXT
  8
11
  6
CONTINUOUS
 62
     7
  5
29E
 10
960969.536
 20
7286448.977
 30
0.0
 40
8.0
  1
'
 50
293.985897
  7
ROMANS
 72
     1
 11
960970.07788
 21
7286447.75911
 31
0.0
210
0.0
220
0.0
230
1.0
  0
TEXT
  8
11
  6
CONTINUOUS
 62
     7
  5
29F
 10
962836.777
 20
7285916.29
 30
0.0
 40
8.0
  1
4
 50
65.652617
  7
ROMANS
 72
     1
 11
962830.45032
 21
7285921.713653
 31
0.0
210
0.0
220
0.0
230
1.0
 73
     3
  0
TEXT
  8
11
  6
CONTINUOUS
 62
     7
  5
2A0
 10
962840.075
 20
7285923.578
 30
0.0
 40
8.0
  1
8
 50
65.652617
  7
ROMANS
 72
     1
 11
962833.74832
 21
7285929.001653
 31
0.0
210
0.0
220
0.0
230
1.0
 73
     3
  0
TEXT
  8
11
  6
CONTINUOUS
 62
     7
  5
2A1
 10
962843.371
 20
7285930.867
 30
0.0
 40
8.0
  1
7
 50
65.652617
  7
ROMANS
 72
     1
 11
962837.04432
 21
7285936.290653
 31
0.0
210
0.0
220
0.0
230
1.0
 73
     3
  0
TEXT
  8
11
  6
CONTINUOUS
 62
     7
  5
2A2
 10
962847.086
 20
7285939.073
 30
0.0
 40
8.0
  1
'
 50
65.652617
  7
ROMANS
 72
     1
 11
962840.347052
 21
7285943.58559
 31
0.0
210
0.0
220
0.0
230
1.0
 73
     3
  0
TEXT
  8
11
  6
CONTINUOUS
 62
     7
  5
2A3
 10
962849.293
 20
7285943.952
 30
0.0
 40
8.0
  1
 
 50
65.652617
  7
ROMANS
 72
     1
 11
962843.103605
 21
7285949.679037
 31
0.0
210
0.0
220
0.0
230
1.0
 73
     3
  0
TEXT
  8
11
  6
CONTINUOUS
 62
     7
  5
2A4
 10
962761.319
 20
7285965.418
 30
0.0
 40
8.0
  1
4
 50
65.652617
  7
ROMANS
 72
     1
 11
962762.280821
 21
7285967.543509
 31
0.0
210
0.0
220
0.0
230
1.0
  0
TEXT
  8
11
  6
CONTINUOUS
 62
     7
  5
2A5
 10
962764.617
 20
7285972.707
 30
0.0
 40
8.0
  1
8
 50
65.652617
  7
ROMANS
 72
     1
 11
962765.578821
 21
7285974.832509
 31
0.0
210
0.0
220
0.0
230
1.0
  0
TEXT
  8
11
  6
CONTINUOUS
 62
     7
  5
2A6
 10
962767.915
 20
7285979.995
 30
0.0
 40
8.0
  1
7
 50
65.652617
  7
ROMANS
 72
     1
 11
962768.876821
 21
7285982.120509
 31
0.0
210
0.0
220
0.0
230
1.0
  0
TEXT
  8
11
  6
CONTINUOUS
 62
     7
  5
2A7
 10
962771.628
 20
7285988.202
 30
0.0
 40
8.0
  1
'
 50
65.652617
  7
ROMANS
 72
     1
 11
962772.177553
 21
7285989.416447
 31
0.0
210
0.0
220
0.0
230
1.0
  0
TEXT
  8
11
  6
CONTINUOUS
 62
     7
  5
2A8
 10
962773.836
 20
7285993.08
 30
0.0
 40
8.0
  1
 
 50
65.652617
  7
ROMANS
 72
     1
 11
962774.935106
 21
7285995.508893
 31
0.0
210
0.0
220
0.0
230
1.0
  0
TEXT
  8
11
  6
CONTINUOUS
 62
     7
  5
2A9
 10
962869.18
 20
7286203.779
 30
0.0
 40
8.0
  1
1
 50
65.652617
  7
ROMANS
 72
     1
 11
962869.729553
 21
7286204.993447
 31
0.0
210
0.0
220
0.0
230
1.0
  0
TEXT
  8
11
  6
CONTINUOUS
 62
     7
  5
2AA
 10
962871.985
 20
7286209.978
 30
0.0
 40
8.0
  1
6
 50
65.652617
  7
ROMANS
 72
     1
 11
962873.023915
 21
7286212.273878
 31
0.0
210
0.0
220
0.0
230
1.0
  0
TEXT
  8
11
  6
CONTINUOUS
 62
     7
  5
2AB
 10
962875.231
 20
7286217.152
 30
0.0
 40
8.0
  1
0
 50
65.652617
  7
ROMANS
 72
     1
 11
962876.323922
 21
7286219.567227
 31
0.0
210
0.0
220
0.0
230
1.0
  0
TEXT
  8
11
  6
CONTINUOUS
 62
     7
  5
2AC
 10
962879.076
 20
7286225.644
 30
0.0
 40
8.0
  1
'
 50
65.652617
  7
ROMANS
 72
     1
 11
962879.625553
 21
7286226.858447
 31
0.0
210
0.0
220
0.0
230
1.0
  0
TEXT
  8
11
  6
CONTINUOUS
 62
     7
  5
2AD
 10
962950.325
 20
7286167.222
 30
0.0
 40
8.0
  1
1
 50
65.652617
  7
ROMANS
 72
     1
 11
962943.586052
 21
7286171.73459
 31
0.0
210
0.0
220
0.0
230
1.0
 73
     3
  0
TEXT
  8
11
  6
CONTINUOUS
 62
     7
  5
2AE
 10
962953.13
 20
7286173.42
 30
0.0
 40
8.0
  1
6
 50
65.652617
  7
ROMANS
 72
     1
 11
962946.880414
 21
7286179.014021
 31
0.0
210
0.0
220
0.0
230
1.0
 73
     3
  0
TEXT
  8
11
  6
CONTINUOUS
 62
     7
  5
2AF
 10
962956.376
 20
7286180.593
 30
0.0
 40
8.0
  1
0
 50
65.652617
  7
ROMANS
 72
     1
 11
962950.180421
 21
7286186.306371
 31
0.0
210
0.0
220
0.0
230
1.0
 73
     3
  0
TEXT
  8
11
  6
CONTINUOUS
 62
     7
  5
2B0
 10
962960.219
 20
7286189.087
 30
0.0
 40
8.0
  1
'
 50
65.652617
  7
ROMANS
 72
     1
 11
962953.480052
 21
7286193.59959
 31
0.0
210
0.0
220
0.0
230
1.0
 73
     3
  0
TEXT
  8
11
  6
CONTINUOUS
 62
     7
  5
2B1
 10
962935.505
 20
7286362.277
 30
0.0
 40
8.0
  1
R
 50
74.205681
  7
ROMANS
 72
     1
 11
962936.190906
 21
7286364.701857
 31
0.0
210
0.0
220
0.0
230
1.0
  0
TEXT
  8
11
  6
CONTINUOUS
 62
     7
  5
2B2
 10
962937.467
 20
7286369.217
 30
0.0
 40
8.0
  1
=
 50
74.205681
  7
ROMANS
 72
     1
 11
962938.374192
 21
7286372.424163
 31
0.0
210
0.0
220
0.0
230
1.0
  0
TEXT
  8
11
  6
CONTINUOUS
 62
     7
  5
2B3
 10
962939.91
 20
7286377.855
 30
0.0
 40
8.0
  1
5
 50
74.205681
  7
ROMANS
 72
     1
 11
962940.548001
 21
7286380.110502
 31
0.0
210
0.0
220
0.0
230
1.0
  0
TEXT
  8
11
  6
CONTINUOUS
 62
     7
  5
2B4
 10
962941.941
 20
7286385.489
 30
0.0
 40
8.0
  1
8
 50
76.106361
  7
ROMANS
 72
     1
 11
962942.501201
 21
7286387.753744
 31
0.0
210
0.0
220
0.0
230
1.0
  0
TEXT
  8
11
  6
CONTINUOUS
 62
     7
  5
2B5
 10
962944.103
 20
7286394.234
 30
0.0
 40
8.0
  1
1
 50
76.106361
  7
ROMANS
 72
     1
 11
962944.42308
 21
7286395.528001
 31
0.0
210
0.0
220
0.0
230
1.0
  0
TEXT
  8
11
  6
CONTINUOUS
 62
     7
  5
2B6
 10
962945.96
 20
7286401.945
 30
0.0
 40
8.0
  1
.
 50
78.007042
  7
ROMANS
 72
     1
 11
962946.2347
 21
7286403.238145
 31
0.0
210
0.0
220
0.0
230
1.0
  0
TEXT
  8
11
  6
CONTINUOUS
 62
     7
  5
2B7
 10
962947.406
 20
7286408.752
 30
0.0
 40
8.0
  1
5
 50
78.007042
  7
ROMANS
 72
     1
 11
962947.893063
 21
7286411.044838
 31
0.0
210
0.0
220
0.0
230
1.0
  0
TEXT
  8
11
  6
CONTINUOUS
 62
     7
  5
2B8
 10
962949.068
 20
7286416.578
 30
0.0
 40
8.0
  1
9
 50
78.007042
  7
ROMANS
 72
     1
 11
962949.552778
 21
7286418.860078
 31
0.0
210
0.0
220
0.0
230
1.0
  0
TEXT
  8
11
  6
CONTINUOUS
 62
     7
  5
2B9
 10
962950.718
 20
7286425.331
 30
0.0
 40
8.0
  1
'
 50
79.907722
  7
ROMANS
 72
     1
 11
962950.951762
 21
7286426.644359
 31
0.0
210
0.0
220
0.0
230
1.0
  0
TEXT
  8
11
  6
CONTINUOUS
 62
     7
  5
2BA
 10
962951.147
 20
7286366.141
 30
0.0
 40
8.0
  1
2
 50
74.205681
  7
ROMANS
 72
     1
 11
962944.084047
 21
7286370.563396
 31
0.0
210
0.0
220
0.0
230
1.0
 73
     3
  0
TEXT
  8
11
  6
CONTINUOUS
 62
     7
  5
2BB
 10
962953.324
 20
7286373.839
 30
0.0
 40
8.0
  1
3
 50
74.205681
  7
ROMANS
 72
     1
 11
962946.261047
 21
7286378.261396
 31
0.0
210
0.0
220
0.0
230
1.0
 73
     3
  0
TEXT
  8
11
  6
CONTINUOUS
 62
     7
  5
2BC
 10
962955.48
 20
7286381.921
 30
0.0
 40
8.0
  1
5
 50
76.106361
  7
ROMANS
 72
     1
 11
962948.276897
 21
7286386.117384
 31
0.0
210
0.0
220
0.0
230
1.0
 73
     3
  0
TEXT
  8
11
  6
CONTINUOUS
 62
     7
  5
2BD
 10
962957.65
 20
7286390.695
 30
0.0
 40
8.0
  1
.
 50
76.106361
  7
ROMANS
 72
     1
 11
962950.201494
 21
7286393.899285
 31
0.0
210
0.0
220
0.0
230
1.0
 73
     3
  0
TEXT
  8
11
  6
CONTINUOUS
 62
     7
  5
2BE
 10
962959.328
 20
7286397.502
 30
0.0
 40
8.0
  1
0
 50
78.007042
  7
ROMANS
 72
     1
 11
962952.05347
 21
7286401.757469
 31
0.0
210
0.0
220
0.0
230
1.0
 73
     3
  0
TEXT
  8
11
  6
CONTINUOUS
 62
     7
  5
2BF
 10
962961.056
 20
7286405.636
 30
0.0
 40
8.0
  1
5
 50
78.007042
  7
ROMANS
 72
     1
 11
962953.717678
 21
7286409.59117
 31
0.0
210
0.0
220
0.0
230
1.0
 73
     3
  0
TEXT
  8
11
  6
CONTINUOUS
 62
     7
  5
2C0
 10
962962.927
 20
7286414.447
 30
0.0
 40
8.0
  1
'
 50
78.007042
  7
ROMANS
 72
     1
 11
962955.378809
 21
7286417.414215
 31
0.0
210
0.0
220
0.0
230
1.0
 73
     3
  0
TEXT
  8
11
  6
CONTINUOUS
 62
     7
  5
2C1
 10
962960.959
 20
7286548.235
 30
0.0
 40
8.0
  1
1
 50
88.6026
  7
ROMANS
 72
     1
 11
962960.991508
 21
7286549.567604
 31
0.0
210
0.0
220
0.0
230
1.0
  0
TEXT
  8
11
  6
CONTINUOUS
 62
     7
  5
2C2
 10
962961.129
 20
7286555.224
 30
0.0
 40
8.0
  1
5
 50
88.6026
  7
ROMANS
 72
     1
 11
962961.186163
 21
7286557.567303
 31
0.0
210
0.0
220
0.0
230
1.0
  0
TEXT
  8
11
  6
CONTINUOUS
 62
     7
  5
2C3
 10
962961.317
 20
7286562.908
 30
0.0
 40
8.0
  1
0
 50
88.6026
  7
ROMANS
 72
     1
 11
962961.381649
 21
7286565.558212
 31
0.0
210
0.0
220
0.0
230
1.0
  0
TEXT
  8
11
  6
CONTINUOUS
 62
     7
  5
2C4
 10
962961.545
 20
7286572.259
 30
0.0
 40
8.0
  1
.
 50
88.6026
  7
ROMANS
 72
     1
 11
962961.577239
 21
7286573.580607
 31
0.0
210
0.0
220
0.0
230
1.0
  0
TEXT
  8
11
  6
CONTINUOUS
 62
     7
  5
2C5
 10
962961.714
 20
7286579.217
 30
0.0
 40
8.0
  1
2
 50
88.6026
  7
ROMANS
 72
     1
 11
962961.770894
 21
7286581.549306
 31
0.0
210
0.0
220
0.0
230
1.0
  0
TEXT
  8
11
  6
CONTINUOUS
 62
     7
  5
2C6
 10
962961.91
 20
7286587.214
 30
0.0
 40
8.0
  1
8
 50
88.6026
  7
ROMANS
 72
     1
 11
962961.966894
 21
7286589.546306
 31
0.0
210
0.0
220
0.0
230
1.0
  0
TEXT
  8
11
  6
CONTINUOUS
 62
     7
  5
2C7
 10
962962.129
 20
7286596.22
 30
0.0
 40
8.0
  1
'
 50
88.6026
  7
ROMANS
 72
     1
 11
962962.161508
 21
7286597.552604
 31
0.0
210
0.0
220
0.0
230
1.0
  0
TEXT
  8
11
  6
CONTINUOUS
 62
     7
  5
2C8
 10
963022.312
 20
7286342.293
 30
0.0
 40
8.0
  1
2
 50
73.702367
  7
ROMANS
 72
     1
 11
963015.288168
 21
7286346.777269
 31
0.0
210
0.0
220
0.0
230
1.0
 73
     3
  0
TEXT
  8
11
  6
CONTINUOUS
 62
     7
  5
2C9
 10
963024.505
 20
7286349.788
 30
0.0
 40
8.0
  1
6
 50
73.702367
  7
ROMANS
 72
     1
 11
963017.533645
 21
7286354.451755
 31
0.0
210
0.0
220
0.0
230
1.0
 73
     3
  0
TEXT
  8
11
  6
CONTINUOUS
 62
     7
  5
2CA
 10
963026.736
 20
7286358.024
 30
0.0
 40
8.0
  1
5
 50
75.4912
  7
ROMANS
 72
     1
 11
963019.578366
 21
7286362.297477
 31
0.0
210
0.0
220
0.0
230
1.0
 73
     3
  0
TEXT
  8
11
  6
CONTINUOUS
 62
     7
  5
2CB
 10
963028.999
 20
7286366.775
 30
0.0
 40
8.0
  1
.
 50
75.4912
  7
ROMANS
 72
     1
 11
963021.585326
 21
7286370.05907
 31
0.0
210
0.0
220
0.0
230
1.0
 73
     3
  0
TEXT
  8
11
  6
CONTINUOUS
 62
     7
  5
2CC
 10
963030.801
 20
7286373.853
 30
0.0
 40
8.0
  1
3
 50
77.280033
  7
ROMANS
 72
     1
 11
963023.511031
 21
7286377.890232
 31
0.0
210
0.0
220
0.0
230
1.0
 73
     3
  0
TEXT
  8
11
  6
CONTINUOUS
 62
     7
  5
2CD
 10
963032.521
 20
7286381.473
 30
0.0
 40
8.0
  1
6
 50
77.280033
  7
ROMANS
 72
     1
 11
963025.272206
 21
7286385.692643
 31
0.0
210
0.0
220
0.0
230
1.0
 73
     3
  0
TEXT
  8
11
  6
CONTINUOUS
 62
     7
  5
2CE
 10
963034.545
 20
7286390.443
 30
0.0
 40
8.0
  1
'
 50
77.280033
  7
ROMANS
 72
     1
 11
963027.034845
 21
7286393.504775
 31
0.0
210
0.0
220
0.0
230
1.0
 73
     3
  0
TEXT
  8
11
  6
CONTINUOUS
 62
     7
  5
2CF
 10
963051.132
 20
7286595.231
 30
0.0
 40
8.0
  1
2
 50
88.6026
  7
ROMANS
 72
     1
 11
963043.191274
 21
7286597.758401
 31
0.0
210
0.0
220
0.0
230
1.0
 73
     3
  0
TEXT
  8
11
  6
CONTINUOUS
 62
     7
  5
2D0
 10
963051.351
 20
7286604.237
 30
0.0
 40
8.0
  1
1
 50
88.6026
  7
ROMANS
 72
     1
 11
963043.385887
 21
7286605.764698
 31
0.0
210
0.0
220
0.0
230
1.0
 73
     3
  0
TEXT
  8
11
  6
CONTINUOUS
 62
     7
  5
2D1
 10
963051.513
 20
7286610.911
 30
0.0
 40
8.0
  1
0
 50
88.6026
  7
ROMANS
 72
     1
 11
963043.580029
 21
7286613.756306
 31
0.0
210
0.0
220
0.0
230
1.0
 73
     3
  0
TEXT
  8
11
  6
CONTINUOUS
 62
     7
  5
2D2
 10
963051.742
 20
7286620.232
 30
0.0
 40
8.0
  1
'
 50
88.6026
  7
ROMANS
 72
     1
 11
963043.776887
 21
7286621.759698
 31
0.0
210
0.0
220
0.0
230
1.0
 73
     3
  0
TEXT
  8
11
  6
CONTINUOUS
 62
     7
  5
2D3
 10
962964.245
 20
7286682.943
 30
0.0
 40
8.0
  1
5
 50
88.6026
  7
ROMANS
 72
     1
 11
962964.302163
 21
7286685.286303
 31
0.0
210
0.0
220
0.0
230
1.0
  0
TEXT
  8
11
  6
CONTINUOUS
 62
     7
  5
2D4
 10
962964.439
 20
7286690.94
 30
0.0
 40
8.0
  1
9
 50
88.6026
  7
ROMANS
 72
     1
 11
962964.495894
 21
7286693.272306
 31
0.0
210
0.0
220
0.0
230
1.0
  0
TEXT
  8
11
  6
CONTINUOUS
 62
     7
  5
2D5
 10
962964.66
 20
7286699.977
 30
0.0
 40
8.0
  1
.
 50
88.6026
  7
ROMANS
 72
     1
 11
962964.692239
 21
7286701.298607
 31
0.0
210
0.0
220
0.0
230
1.0
  0
TEXT
  8
11
  6
CONTINUOUS
 62
     7
  5
2D6
 10
962964.83
 20
7286706.935
 30
0.0
 40
8.0
  1
7
 50
88.6026
  7
ROMANS
 72
     1
 11
962964.886894
 21
7286709.267306
 31
0.0
210
0.0
220
0.0
230
1.0
  0
TEXT
  8
11
  6
CONTINUOUS
 62
     7
  5
2D7
 10
962965.025
 20
7286714.933
 30
0.0
 40
8.0
  1
2
 50
88.6026
  7
ROMANS
 72
     1
 11
962965.081894
 21
7286717.265306
 31
0.0
210
0.0
220
0.0
230
1.0
  0
TEXT
  8
11
  6
CONTINUOUS
 62
     7
  5
2D8
 10
962965.244
 20
7286723.938
 30
0.0
 40
8.0
  1
'
 50
88.6026
  7
ROMANS
 72
     1
 11
962965.276508
 21
7286725.270604
 31
0.0
210
0.0
220
0.0
230
1.0
  0
TEXT
  8
11
  6
CONTINUOUS
 62
     7
  5
2D9
 10
962684.96
 20
7286660.518
 30
0.0
 40
8.0
  1
5
 50
358.6026
  7
ROMANS
 72
     1
 11
962687.498397
 21
7286668.458458
 31
0.0
210
0.0
220
0.0
230
1.0
 73
     3
  0
TEXT
  8
11
  6
CONTINUOUS
 62
     7
  5
2DA
 10
962693.965
 20
7286660.298
 30
0.0
 40
8.0
  1
1
 50
358.6026
  7
ROMANS
 72
     1
 11
962695.492698
 21
7286668.263113
 31
0.0
210
0.0
220
0.0
230
1.0
 73
     3
  0
TEXT
  8
11
  6
CONTINUOUS
 62
     7
  5
2DB
 10
962700.955
 20
7286660.128
 30
0.0
 40
8.0
  1
8
 50
358.6026
  7
ROMANS
 72
     1
 11
962703.482401
 21
7286668.068726
 31
0.0
210
0.0
220
0.0
230
1.0
 73
     3
  0
TEXT
  8
11
  6
CONTINUOUS
 62
     7
  5
2DC
 10
962709.992
 20
7286659.907
 30
0.0
 40
8.0
  1
.
 50
358.6026
  7
ROMANS
 72
     1
 11
962711.508701
 21
7286667.872381
 31
0.0
210
0.0
220
0.0
230
1.0
 73
     3
  0
TEXT
  8
11
  6
CONTINUOUS
 62
     7
  5
2DD
 10
962716.761
 20
7286659.742
 30
0.0
 40
8.0
  1
6
 50
358.6026
  7
ROMANS
 72
     1
 11
962719.475345
 21
7286667.678166
 31
0.0
210
0.0
220
0.0
230
1.0
 73
     3
  0
TEXT
  8
11
  6
CONTINUOUS
 62
     7
  5
2DE
 10
962724.948
 20
7286659.542
 30
0.0
 40
8.0
  1
5
 50
358.6026
  7
ROMANS
 72
     1
 11
962727.486397
 21
7286667.482458
 31
0.0
210
0.0
220
0.0
230
1.0
 73
     3
  0
TEXT
  8
11
  6
CONTINUOUS
 62
     7
  5
2DF
 10
962733.953
 20
7286659.323
 30
0.0
 40
8.0
  1
'
 50
358.6026
  7
ROMANS
 72
     1
 11
962735.480698
 21
7286667.288113
 31
0.0
210
0.0
220
0.0
230
1.0
 73
     3
  0
TEXT
  8
11
  6
CONTINUOUS
 62
     7
  5
2E0
 10
963067.464
 20
7286802.741
 30
0.0
 40
8.0
  1
R
 50
70.796972
  7
ROMANS
 72
     1
 11
963060.737998
 21
7286807.752117
 31
0.0
210
0.0
220
0.0
230
1.0
 73
     3
  0
TEXT
  8
11
  6
CONTINUOUS
 62
     7
  5
2E1
 10
963069.836
 20
7286809.552
 30
0.0
 40
8.0
  1
=
 50
70.796972
  7
ROMANS
 72
     1
 11
963063.377407
 21
7286815.330881
 31
0.0
210
0.0
220
0.0
230
1.0
 73
     3
  0
TEXT
  8
11
  6
CONTINUOUS
 62
     7
  5
2E2
 10
963072.78
 20
7286817.47
 30
0.0
 40
8.0
  1
2
 50
68.057644
  7
ROMANS
 72
     1
 11
963066.231298
 21
7286822.623387
 31
0.0
210
0.0
220
0.0
230
1.0
 73
     3
  0
TEXT
  8
11
  6
CONTINUOUS
 62
     7
  5
2E3
 10
963075.499
 20
7286824.435
 30
0.0
 40
8.0
  1
8
 50
65.318317
  7
ROMANS
 72
     1
 11
963069.204073
 21
7286829.895474
 31
0.0
210
0.0
220
0.0
230
1.0
 73
     3
  0
TEXT
  8
11
  6
CONTINUOUS
 62
     7
  5
2E4
 10
963078.709
 20
7286831.417
 30
0.0
 40
8.0
  1
0
 50
65.318317
  7
ROMANS
 72
     1
 11
963072.546862
 21
7286837.166422
 31
0.0
210
0.0
220
0.0
230
1.0
 73
     3
  0
TEXT
  8
11
  6
CONTINUOUS
 62
     7
  5
2E5
 10
963082.464
 20
7286839.37
 30
0.0
 40
8.0
  1
'
 50
62.578989
  7
ROMANS
 72
     1
 11
963075.976708
 21
7286844.237435
 31
0.0
210
0.0
220
0.0
230
1.0
 73
     3
  0
TEXT
  8
11
  6
CONTINUOUS
 62
     7
  5
2E6
 10
963052.331
 20
7286801.083
 30
0.0
 40
8.0
  1
1
 50
73.5363
  7
ROMANS
 72
     1
 11
963052.708783
 21
7286802.361346
 31
0.0
210
0.0
220
0.0
230
1.0
  0
TEXT
  8
11
  6
CONTINUOUS
 62
     7
  5
2E7
 10
963054.435
 20
7286807.9
 30
0.0
 40
8.0
  1
9
 50
70.796972
  7
ROMANS
 72
     1
 11
963055.202362
 21
7286810.10319
 31
0.0
210
0.0
220
0.0
230
1.0
  0
TEXT
  8
11
  6
CONTINUOUS
 62
     7
  5
2E8
 10
963057.398
 20
7286816.408
 30
0.0
 40
8.0
  1
1
 50
70.796972
  7
ROMANS
 72
     1
 11
963057.836446
 21
7286817.666831
 31
0.0
210
0.0
220
0.0
230
1.0
  0
TEXT
  8
11
  6
CONTINUOUS
 62
     7
  5
2E9
 10
963060.332
 20
7286824.035
 30
0.0
 40
8.0
  1
.
 50
68.057644
  7
ROMANS
 72
     1
 11
963060.825996
 21
7286825.261235
 31
0.0
210
0.0
220
0.0
230
1.0
  0
TEXT
  8
11
  6
CONTINUOUS
 62
     7
  5
2EA
 10
963062.945
 20
7286830.643
 30
0.0
 40
8.0
  1
5
 50
65.318317
  7
ROMANS
 72
     1
 11
963063.9238
 21
7286832.772856
 31
0.0
210
0.0
220
0.0
230
1.0
  0
TEXT
  8
11
  6
CONTINUOUS
 62
     7
  5
2EB
 10
963066.285
 20
7286837.912
 30
0.0
 40
8.0
  1
8
 50
65.318317
  7
ROMANS
 72
     1
 11
963067.259206
 21
7286840.031861
 31
0.0
210
0.0
220
0.0
230
1.0
  0
TEXT
  8
11
  6
CONTINUOUS
 62
     7
  5
2EC
 10
963070.221
 20
7286846.17
 30
0.0
 40
8.0
  1
'
 50
62.578989
  7
ROMANS
 72
     1
 11
963070.83488
 21
7286847.353233
 31
0.0
210
0.0
220
0.0
230
1.0
  0
TEXT
  8
11
  6
CONTINUOUS
 62
     7
  5
2ED
 10
962983.52
 20
7286832.462
 30
0.0
 40
8.0
  1
2
 50
70.356592
  7
ROMANS
 72
     1
 11
962984.304273
 21
7286834.659226
 31
0.0
210
0.0
220
0.0
230
1.0
  0
TEXT
  8
11
  6
CONTINUOUS
 62
     7
  5
2EE
 10
962986.209
 20
7286839.998
 30
0.0
 40
8.0
  1
4
 50
70.356592
  7
ROMANS
 72
     1
 11
962986.993273
 21
7286842.195226
 31
0.0
210
0.0
220
0.0
230
1.0
  0
TEXT
  8
11
  6
CONTINUOUS
 62
     7
  5
2EF
 10
962988.968
 20
7286847.642
 30
0.0
 40
8.0
  1
2
 50
67.923792
  7
ROMANS
 72
     1
 11
962989.844834
 21
7286849.803956
 31
0.0
210
0.0
220
0.0
230
1.0
  0
TEXT
  8
11
  6
CONTINUOUS
 62
     7
  5
2F0
 10
962992.365
 20
7286856.019
 30
0.0
 40
8.0
  1
.
 50
67.923792
  7
ROMANS
 72
     1
 11
962992.86186
 21
7286857.244077
 31
0.0
210
0.0
220
0.0
230
1.0
  0
TEXT
  8
11
  6
CONTINUOUS
 62
     7
  5
2F1
 10
962995.093
 20
7286862.56
 30
0.0
 40
8.0
  1
9
 50
65.490989
  7
ROMANS
 72
     1
 11
962996.060813
 21
7286864.682787
 31
0.0
210
0.0
220
0.0
230
1.0
  0
TEXT
  8
11
  6
CONTINUOUS
 62
     7
  5
2F2
 10
962998.282
 20
7286869.553
 30
0.0
 40
8.0
  1
0
 50
65.490989
  7
ROMANS
 72
     1
 11
962999.381731
 21
7286871.965134
 31
0.0
210
0.0
220
0.0
230
1.0
  0
TEXT
  8
11
  6
CONTINUOUS
 62
     7
  5
2F3
 10
963002.338
 20
7286878.085
 30
0.0
 40
8.0
  1
'
 50
63.058189
  7
ROMANS
 72
     1
 11
963002.941963
 21
7286879.273326
 31
0.0
210
0.0
220
0.0
230
1.0
  0
TEXT
  8
11
  6
CONTINUOUS
 62
     7
  5
2F4
 10
962982.715
 20
7287073.883
 30
0.0
 40
8.0
  1
2
 50
295.536133
  7
ROMANS
 72
     1
 11
962990.939219
 21
7287075.226544
 31
0.0
210
0.0
220
0.0
230
1.0
 73
     3
  0
TEXT
  8
11
  6
CONTINUOUS
 62
     7
  5
2F5
 10
962986.164
 20
7287066.665
 30
0.0
 40
8.0
  1
2
 50
295.536133
  7
ROMANS
 72
     1
 11
962994.388219
 21
7287068.008544
 31
0.0
210
0.0
220
0.0
230
1.0
 73
     3
  0
TEXT
  8
11
  6
CONTINUOUS
 62
     7
  5
2F6
 10
962989.612
 20
7287059.447
 30
0.0
 40
8.0
  1
7
 50
295.536133
  7
ROMANS
 72
     1
 11
962997.836219
 21
7287060.790544
 31
0.0
210
0.0
220
0.0
230
1.0
 73
     3
  0
TEXT
  8
11
  6
CONTINUOUS
 62
     7
  5
2F7
 10
962993.509
 20
7287051.291
 30
0.0
 40
8.0
  1
.
 50
295.536133
  7
ROMANS
 72
     1
 11
963001.297397
 21
7287053.546783
 31
0.0
210
0.0
220
0.0
230
1.0
 73
     3
  0
TEXT
  8
11
  6
CONTINUOUS
 62
     7
  5
2F8
 10
962996.51
 20
7287045.009
 30
0.0
 40
8.0
  1
2
 50
295.536133
  7
ROMANS
 72
     1
 11
963004.734219
 21
7287046.352544
 31
0.0
210
0.0
220
0.0
230
1.0
 73
     3
  0
TEXT
  8
11
  6
CONTINUOUS
 62
     7
  5
2F9
 10
963000.394
 20
7287036.882
 30
0.0
 40
8.0
  1
1
 50
295.536133
  7
ROMANS
 72
     1
 11
963008.187139
 21
7287039.127858
 31
0.0
210
0.0
220
0.0
230
1.0
 73
     3
  0
TEXT
  8
11
  6
CONTINUOUS
 62
     7
  5
2FA
 10
963003.842
 20
7287029.664
 30
0.0
 40
8.0
  1
'
 50
295.536133
  7
ROMANS
 72
     1
 11
963011.635139
 21
7287031.909858
 31
0.0
210
0.0
220
0.0
230
1.0
 73
     3
  0
TEXT
  8
11
  6
CONTINUOUS
 62
     7
  5
2FB
 10
963066.661
 20
7286925.446
 30
0.0
 40
8.0
  1
7
 50
318.958625
  7
ROMANS
 72
     1
 11
963073.673463
 21
7286929.948028
 31
0.0
210
0.0
220
0.0
230
1.0
 73
     3
  0
TEXT
  8
11
  6
CONTINUOUS
 62
     7
  5
2FC
 10
963072.696
 20
7286920.193
 30
0.0
 40
8.0
  1
5
 50
318.958625
  7
ROMANS
 72
     1
 11
963079.716759
 21
7286924.687806
 31
0.0
210
0.0
220
0.0
230
1.0
 73
     3
  0
TEXT
  8
11
  6
CONTINUOUS
 62
     7
  5
2FD
 10
963079.491
 20
7286914.278
 30
0.0
 40
8.0
  1
'
 50
318.958625
  7
ROMANS
 72
     1
 11
963085.749227
 21
7286919.436632
 31
0.0
210
0.0
220
0.0
230
1.0
 73
     3
  0
TEXT
  8
11
  6
CONTINUOUS
 62
     7
  5
2FE
 10
962423.947
 20
7286484.063
 30
0.0
 40
8.0
  1
R
 50
72.086611
  7
ROMANS
 72
     1
 11
962417.109919
 21
7286488.921469
 31
0.0
210
0.0
220
0.0
230
1.0
 73
     3
  0
TEXT
  8
11
  6
CONTINUOUS
 62
     7
  5
2FF
 10
962426.166
 20
7286490.926
 30
0.0
 40
8.0
  1
=
 50
72.086611
  7
ROMANS
 72
     1
 11
962419.57898
 21
7286496.558057
 31
0.0
210
0.0
220
0.0
230
1.0
 73
     3
  0
TEXT
  8
11
  6
CONTINUOUS
 62
     7
  5
300
 10
962428.868
 20
7286499.288
 30
0.0
 40
8.0
  1
6
 50
72.086611
  7
ROMANS
 72
     1
 11
962422.030919
 21
7286504.146469
 31
0.0
210
0.0
220
0.0
230
1.0
 73
     3
  0
TEXT
  8
11
  6
CONTINUOUS
 62
     7
  5
301
 10
962431.431
 20
7286507.435
 30
0.0
 40
8.0
  1
2
 50
73.924808
  7
ROMANS
 72
     1
 11
962424.389811
 21
7286511.891967
 31
0.0
210
0.0
220
0.0
230
1.0
 73
     3
  0
TEXT
  8
11
  6
CONTINUOUS
 62
     7
  5
302
 10
962433.926
 20
7286516.091
 30
0.0
 40
8.0
  1
1
 50
73.924808
  7
ROMANS
 72
     1
 11
962426.607913
 21
7286519.587068
 31
0.0
210
0.0
220
0.0
230
1.0
 73
     3
  0
TEXT
  8
11
  6
CONTINUOUS
 62
     7
  5
303
 10
962436.272
 20
7286524.141
 30
0.0
 40
8.0
  1
.
 50
75.763006
  7
ROMANS
 72
     1
 11
962428.84283
 21
7286527.389863
 31
0.0
210
0.0
220
0.0
230
1.0
 73
     3
  0
TEXT
  8
11
  6
CONTINUOUS
 62
     7
  5
304
 10
962437.983
 20
7286530.888
 30
0.0
 40
8.0
  1
8
 50
75.763006
  7
ROMANS
 72
     1
 11
962430.802468
 21
7286535.116812
 31
0.0
210
0.0
220
0.0
230
1.0
 73
     3
  0
TEXT
  8
11
  6
CONTINUOUS
 62
     7
  5
305
 10
962439.874
 20
7286538.337
 30
0.0
 40
8.0
  1
0
 50
75.763006
  7
ROMANS
 72
     1
 11
962432.771675
 21
7286542.874045
 31
0.0
210
0.0
220
0.0
230
1.0
 73
     3
  0
TEXT
  8
11
  6
CONTINUOUS
 62
     7
  5
306
 10
962442.154
 20
7286547.739
 30
0.0
 40
8.0
  1
'
 50
77.601203
  7
ROMANS
 72
     1
 11
962434.627015
 21
7286550.759605
 31
0.0
210
0.0
220
0.0
230
1.0
 73
     3
  0
TEXT
  8
11
  6
CONTINUOUS
 62
     7
  5
307
 10
962443.303
 20
7286552.969
 30
0.0
 40
8.0
  1
 
 50
77.601203
  7
ROMANS
 72
     1
 11
962436.062015
 21
7286557.290539
 31
0.0
210
0.0
220
0.0
230
1.0
 73
     3
  0
TEXT
  8
11
  6
CONTINUOUS
 62
     7
  5
308
 10
962445.203
 20
7286561.105
 30
0.0
 40
8.0
  1
 
 50
79.439397
  7
ROMANS
 72
     1
 11
962437.827119
 21
7286565.192046
 31
0.0
210
0.0
220
0.0
230
1.0
 73
     3
  0
TEXT
  8
11
  6
CONTINUOUS
 62
     7
  5
309
 10
962446.97
 20
7286570.579
 30
0.0
 40
8.0
  1
2
 50
79.439397
  7
ROMANS
 72
     1
 11
962439.533089
 21
7286574.338686
 31
0.0
210
0.0
220
0.0
230
1.0
 73
     3
  0
TEXT
  8
11
  6
CONTINUOUS
 62
     7
  5
30A
 10
962448.435
 20
7286578.444
 30
0.0
 40
8.0
  1
5
 50
79.439397
  7
ROMANS
 72
     1
 11
962441.000105
 21
7286582.2145
 31
0.0
210
0.0
220
0.0
230
1.0
 73
     3
  0
TEXT
  8
11
  6
CONTINUOUS
 62
     7
  5
30B
 10
962450.046
 20
7286587.665
 30
0.0
 40
8.0
  1
1
 50
81.277594
  7
ROMANS
 72
     1
 11
962442.340669
 21
7286590.195762
 31
0.0
210
0.0
220
0.0
230
1.0
 73
     3
  0
TEXT
  8
11
  6
CONTINUOUS
 62
     7
  5
30C
 10
962451.264
 20
7286595.603
 30
0.0
 40
8.0
  1
.
 50
81.277594
  7
ROMANS
 72
     1
 11
962443.557001
 21
7286598.12289
 31
0.0
210
0.0
220
0.0
230
1.0
 73
     3
  0
TEXT
  8
11
  6
CONTINUOUS
 62
     7
  5
30D
 10
962452.425
 20
7286602.824
 30
0.0
 40
8.0
  1
3
 50
83.115792
  7
ROMANS
 72
     1
 11
962444.762318
 21
7286606.099086
 31
0.0
210
0.0
220
0.0
230
1.0
 73
     3
  0
TEXT
  8
11
  6
CONTINUOUS
 62
     7
  5
30E
 10
962453.345
 20
7286610.455
 30
0.0
 40
8.0
  1
0
 50
83.115792
  7
ROMANS
 72
     1
 11
962445.720434
 21
7286614.045793
 31
0.0
210
0.0
220
0.0
230
1.0
 73
     3
  0
TEXT
  8
11
  6
CONTINUOUS
 62
     7
  5
30F
 10
962454.464
 20
7286619.709
 30
0.0
 40
8.0
  1
'
 50
83.115792
  7
ROMANS
 72
     1
 11
962446.681454
 21
7286621.991295
 31
0.0
210
0.0
220
0.0
230
1.0
 73
     3
  0
TEXT
  8
11
  6
CONTINUOUS
 62
     7
  5
310
 10
962377.788
 20
7286375.535
 30
0.0
 40
8.0
  1
7
 50
65.653217
  7
ROMANS
 72
     1
 11
962371.461263
 21
7286380.958586
 31
0.0
210
0.0
220
0.0
230
1.0
 73
     3
  0
TEXT
  8
11
  6
CONTINUOUS
 62
     7
  5
311
 10
962381.007
 20
7286382.65
 30
0.0
 40
8.0
  1
6
 50
65.653217
  7
ROMANS
 72
     1
 11
962374.757355
 21
7286388.243956
 31
0.0
210
0.0
220
0.0
230
1.0
 73
     3
  0
TEXT
  8
11
  6
CONTINUOUS
 62
     7
  5
312
 10
962384.811
 20
7286391.059
 30
0.0
 40
8.0
  1
.
 50
65.653217
  7
ROMANS
 72
     1
 11
962378.06747
 21
7286395.561498
 31
0.0
210
0.0
220
0.0
230
1.0
 73
     3
  0
TEXT
  8
11
  6
CONTINUOUS
 62
     7
  5
313
 10
962387.682
 20
7286397.401
 30
0.0
 40
8.0
  1
8
 50
65.653217
  7
ROMANS
 72
     1
 11
962381.355263
 21
7286402.824586
 31
0.0
210
0.0
220
0.0
230
1.0
 73
     3
  0
TEXT
  8
11
  6
CONTINUOUS
 62
     7
  5
314
 10
962391.395
 20
7286405.608
 30
0.0
 40
8.0
  1
'
 50
65.653217
  7
ROMANS
 72
     1
 11
962384.656005
 21
7286410.120519
 31
0.0
210
0.0
220
0.0
230
1.0
 73
     3
  0
TEXT
  8
11
  6
CONTINUOUS
 62
     7
  5
315
 10
962333.653
 20
7286399.285
 30
0.0
 40
8.0
  1
7
 50
65.652925
  7
ROMANS
 72
     1
 11
962334.61481
 21
7286401.410514
 31
0.0
210
0.0
220
0.0
230
1.0
  0
TEXT
  8
11
  6
CONTINUOUS
 62
     7
  5
316
 10
962336.873
 20
7286406.402
 30
0.0
 40
8.0
  1
6
 50
65.652925
  7
ROMANS
 72
     1
 11
962337.911903
 21
7286408.697883
 31
0.0
210
0.0
220
0.0
230
1.0
  0
TEXT
  8
11
  6
CONTINUOUS
 62
     7
  5
317
 10
962340.677
 20
7286414.81
 30
0.0
 40
8.0
  1
.
 50
65.652925
  7
ROMANS
 72
     1
 11
962341.222012
 21
7286416.014428
 31
0.0
210
0.0
220
0.0
230
1.0
  0
TEXT
  8
11
  6
CONTINUOUS
 62
     7
  5
318
 10
962343.546
 20
7286421.15
 30
0.0
 40
8.0
  1
8
 50
65.652925
  7
ROMANS
 72
     1
 11
962344.50781
 21
7286423.275514
 31
0.0
210
0.0
220
0.0
230
1.0
  0
TEXT
  8
11
  6
CONTINUOUS
 62
     7
  5
319
 10
962347.26
 20
7286429.357
 30
0.0
 40
8.0
  1
'
 50
65.652925
  7
ROMANS
 72
     1
 11
962347.809547
 21
7286430.571449
 31
0.0
210
0.0
220
0.0
230
1.0
  0
TEXT
  8
11
  6
CONTINUOUS
 62
     7
  5
31A
 10
962362.3
 20
7286384.972
 30
0.0
 40
8.0
  1
N
 50
65.653217
  7
ROMANS
 72
     1
 11
962356.050355
 21
7286390.565956
 31
0.0
210
0.0
220
0.0
230
1.0
 73
     3
  0
TEXT
  8
11
  6
CONTINUOUS
 62
     7
  5
31B
 10
962365.676
 20
7286392.432
 30
0.0
 40
8.0
  1
2
 50
65.653217
  7
ROMANS
 72
     1
 11
962359.349263
 21
7286397.855586
 31
0.0
210
0.0
220
0.0
230
1.0
 73
     3
  0
TEXT
  8
11
  6
CONTINUOUS
 62
     7
  5
31C
 10
962368.974
 20
7286399.721
 30
0.0
 40
8.0
  1
2
 50
65.653217
  7
ROMANS
 72
     1
 11
962362.647263
 21
7286405.144586
 31
0.0
210
0.0
220
0.0
230
1.0
 73
     3
  0
TEXT
  8
11
  6
CONTINUOUS
 62
     7
  5
31D
 10
962372.648
 20
7286407.842
 30
0.0
 40
8.0
  1
%%d
 50
65.653217
  7
ROMANS
 72
     1
 11
962365.95188
 21
7286412.44927
 31
0.0
210
0.0
220
0.0
230
1.0
 73
     3
  0
TEXT
  8
11
  6
CONTINUOUS
 62
     7
  5
31E
 10
962375.57
 20
7286414.297
 30
0.0
 40
8.0
  1
2
 50
65.653217
  7
ROMANS
 72
     1
 11
962369.243263
 21
7286419.720586
 31
0.0
210
0.0
220
0.0
230
1.0
 73
     3
  0
TEXT
  8
11
  6
CONTINUOUS
 62
     7
  5
31F
 10
962378.868
 20
7286421.586
 30
0.0
 40
8.0
  1
7
 50
65.653217
  7
ROMANS
 72
     1
 11
962372.541263
 21
7286427.009586
 31
0.0
210
0.0
220
0.0
230
1.0
 73
     3
  0
TEXT
  8
11
  6
CONTINUOUS
 62
     7
  5
320
 10
962382.582
 20
7286429.794
 30
0.0
 40
8.0
  1
'
 50
65.653217
  7
ROMANS
 72
     1
 11
962375.843005
 21
7286434.306519
 31
0.0
210
0.0
220
0.0
230
1.0
 73
     3
  0
TEXT
  8
11
  6
CONTINUOUS
 62
     7
  5
321
 10
962329.189
 20
7286366.16
 30
0.0
 40
8.0
  1
3
 50
335.652603
  7
ROMANS
 72
     1
 11
962334.612654
 21
7286372.486679
 31
0.0
210
0.0
220
0.0
230
1.0
 73
     3
  0
TEXT
  8
11
  6
CONTINUOUS
 62
     7
  5
322
 10
962336.305
 20
7286362.941
 30
0.0
 40
8.0
  1
6
 50
335.652603
  7
ROMANS
 72
     1
 11
962341.899023
 21
7286369.190585
 31
0.0
210
0.0
220
0.0
230
1.0
 73
     3
  0
TEXT
  8
11
  6
CONTINUOUS
 62
     7
  5
323
 10
962344.684
 20
7286359.149
 30
0.0
 40
8.0
  1
'
 50
335.652603
  7
ROMANS
 72
     1
 11
962349.196592
 21
7286365.887947
 31
0.0
210
0.0
220
0.0
230
1.0
 73
     3
  0
TEXT
  8
11
  6
CONTINUOUS
 62
     7
  5
324
 10
962558.409
 20
7286277.802
 30
0.0
 40
8.0
  1
N
 50
335.652603
  7
ROMANS
 72
     1
 11
962560.704878
 21
7286276.763084
 31
0.0
210
0.0
220
0.0
230
1.0
  0
TEXT
  8
11
  6
CONTINUOUS
 62
     7
  5
325
 10
962565.697
 20
7286274.505
 30
0.0
 40
8.0
  1
6
 50
335.652603
  7
ROMANS
 72
     1
 11
962567.992878
 21
7286273.466084
 31
0.0
210
0.0
220
0.0
230
1.0
  0
TEXT
  8
11
  6
CONTINUOUS
 62
     7
  5
326
 10
962573.157
 20
7286271.128
 30
0.0
 40
8.0
  1
7
 50
335.652603
  7
ROMANS
 72
     1
 11
962575.282509
 21
7286270.166178
 31
0.0
210
0.0
220
0.0
230
1.0
  0
TEXT
  8
11
  6
CONTINUOUS
 62
     7
  5
327
 10
962581.278
 20
7286267.454
 30
0.0
 40
8.0
  1
%%d
 50
335.652603
  7
ROMANS
 72
     1
 11
962582.587197
 21
7286266.861571
 31
0.0
210
0.0
220
0.0
230
1.0
  0
TEXT
  8
11
  6
CONTINUOUS
 62
     7
  5
328
 10
962587.448
 20
7286264.662
 30
0.0
 40
8.0
  1
0
 50
335.652603
  7
ROMANS
 72
     1
 11
962589.863227
 21
7286263.569077
 31
0.0
210
0.0
220
0.0
230
1.0
  0
TEXT
  8
11
  6
CONTINUOUS
 62
     7
  5
329
 10
962595.022
 20
7286261.234
 30
0.0
 40
8.0
  1
3
 50
335.652603
  7
ROMANS
 72
     1
 11
962597.147509
 21
7286260.272178
 31
0.0
210
0.0
220
0.0
230
1.0
  0
TEXT
  8
11
  6
CONTINUOUS
 62
     7
  5
32A
 10
962603.229
 20
7286257.52
 30
0.0
 40
8.0
  1
'
 50
335.652603
  7
ROMANS
 72
     1
 11
962604.443446
 21
7286256.970447
 31
0.0
210
0.0
220
0.0
230
1.0
  0
TEXT
  8
11
  6
CONTINUOUS
 62
     7
  5
32B
 10
962609.141
 20
7286254.845
 30
0.0
 40
8.0
  1
W
 50
335.652603
  7
ROMANS
 72
     1
 11
962611.750283
 21
7286253.664264
 31
0.0
210
0.0
220
0.0
230
1.0
  0
TEXT
  8
11
  6
CONTINUOUS
 62
     7
  5
32C
 10
962384.336
 20
7286524.484
 30
0.0
 40
8.0
  1
2
 50
74.175197
  7
ROMANS
 72
     1
 11
962384.972202
 21
7286526.728579
 31
0.0
210
0.0
220
0.0
230
1.0
  0
TEXT
  8
11
  6
CONTINUOUS
 62
     7
  5
32D
 10
962386.517
 20
7286532.18
 30
0.0
 40
8.0
  1
3
 50
74.175197
  7
ROMANS
 72
     1
 11
962387.153202
 21
7286534.424579
 31
0.0
210
0.0
220
0.0
230
1.0
  0
TEXT
  8
11
  6
CONTINUOUS
 62
     7
  5
32E
 10
962388.658
 20
7286539.588
 30
0.0
 40
8.0
  1
6
 50
76.069036
  7
ROMANS
 72
     1
 11
962389.264697
 21
7286542.033878
 31
0.0
210
0.0
220
0.0
230
1.0
  0
TEXT
  8
11
  6
CONTINUOUS
 62
     7
  5
32F
 10
962390.881
 20
7286548.546
 30
0.0
 40
8.0
  1
.
 50
76.069036
  7
ROMANS
 72
     1
 11
962391.199275
 21
7286549.829115
 31
0.0
210
0.0
220
0.0
230
1.0
  0
TEXT
  8
11
  6
CONTINUOUS
 62
     7
  5
330
 10
962392.556
 20
7286555.303
 30
0.0
 40
8.0
  1
7
 50
76.069036
  7
ROMANS
 72
     1
 11
962393.117676
 21
7286557.567378
 31
0.0
210
0.0
220
0.0
230
1.0
  0
TEXT
  8
11
  6
CONTINUOUS
 62
     7
  5
331
 10
962394.34
 20
7286562.996
 30
0.0
 40
8.0
  1
5
 50
77.962872
  7
ROMANS
 72
     1
 11
962394.828831
 21
7286565.288462
 31
0.0
210
0.0
220
0.0
230
1.0
  0
TEXT
  8
11
  6
CONTINUOUS
 62
     7
  5
332
 10
962396.219
 20
7286571.808
 30
0.0
 40
8.0
  1
'
 50
77.962872
  7
ROMANS
 72
     1
 11
962396.496991
 21
7286573.111691
 31
0.0
210
0.0
220
0.0
230
1.0
  0
TEXT
  8
11
  6
CONTINUOUS
 62
     7
  5
333
 10
962416.33
 20
7287005.203
 30
0.0
 40
8.0
  1
7
 50
88.6026
  7
ROMANS
 72
     1
 11
962416.386894
 21
7287007.535306
 31
0.0
210
0.0
220
0.0
230
1.0
  0
TEXT
  8
11
  6
CONTINUOUS
 62
     7
  5
334
 10
962416.526
 20
7287013.201
 30
0.0
 40
8.0
  1
3
 50
88.6026
  7
ROMANS
 72
     1
 11
962416.582894
 21
7287015.533306
 31
0.0
210
0.0
220
0.0
230
1.0
  0
TEXT
  8
11
  6
CONTINUOUS
 62
     7
  5
335
 10
962416.72
 20
7287021.198
 30
0.0
 40
8.0
  1
4
 50
88.6026
  7
ROMANS
 72
     1
 11
962416.776894
 21
7287023.530306
 31
0.0
210
0.0
220
0.0
230
1.0
  0
TEXT
  8
11
  6
CONTINUOUS
 62
     7
  5
336
 10
962416.941
 20
7287030.236
 30
0.0
 40
8.0
  1
.
 50
88.6026
  7
ROMANS
 72
     1
 11
962416.973239
 21
7287031.557607
 31
0.0
210
0.0
220
0.0
230
1.0
  0
TEXT
  8
11
  6
CONTINUOUS
 62
     7
  5
337
 10
962417.111
 20
7287037.194
 30
0.0
 40
8.0
  1
7
 50
88.6026
  7
ROMANS
 72
     1
 11
962417.167894
 21
7287039.526306
 31
0.0
210
0.0
220
0.0
230
1.0
  0
TEXT
  8
11
  6
CONTINUOUS
 62
     7
  5
338
 10
962417.298
 20
7287044.876
 30
0.0
 40
8.0
  1
0
 50
88.6026
  7
ROMANS
 72
     1
 11
962417.362649
 21
7287047.526212
 31
0.0
210
0.0
220
0.0
230
1.0
  0
TEXT
  8
11
  6
CONTINUOUS
 62
     7
  5
339
 10
962417.525
 20
7287054.197
 30
0.0
 40
8.0
  1
'
 50
88.6026
  7
ROMANS
 72
     1
 11
962417.557508
 21
7287055.529604
 31
0.0
210
0.0
220
0.0
230
1.0
  0
TEXT
  8
11
  6
CONTINUOUS
 62
     7
  5
33A
 10
962462.404
 20
7286843.633
 30
0.0
 40
8.0
  1
4
 50
88.6026
  7
ROMANS
 72
     1
 11
962454.463274
 21
7286846.160401
 31
0.0
210
0.0
220
0.0
230
1.0
 73
     3
  0
TEXT
  8
11
  6
CONTINUOUS
 62
     7
  5
33B
 10
962462.599
 20
7286851.63
 30
0.0
 40
8.0
  1
3
 50
88.6026
  7
ROMANS
 72
     1
 11
962454.658274
 21
7286854.157401
 31
0.0
210
0.0
220
0.0
230
1.0
 73
     3
  0
TEXT
  8
11
  6
CONTINUOUS
 62
     7
  5
33C
 10
962462.794
 20
7286859.628
 30
0.0
 40
8.0
  1
7
 50
88.6026
  7
ROMANS
 72
     1
 11
962454.853274
 21
7286862.155401
 31
0.0
210
0.0
220
0.0
230
1.0
 73
     3
  0
TEXT
  8
11
  6
CONTINUOUS
 62
     7
  5
33D
 10
962463.014
 20
7286868.665
 30
0.0
 40
8.0
  1
.
 50
88.6026
  7
ROMANS
 72
     1
 11
962455.048619
 21
7286870.181701
 31
0.0
210
0.0
220
0.0
230
1.0
 73
     3
  0
TEXT
  8
11
  6
CONTINUOUS
 62
     7
  5
33E
 10
962463.185
 20
7286875.623
 30
0.0
 40
8.0
  1
3
 50
88.6026
  7
ROMANS
 72
     1
 11
962455.244274
 21
7286878.150401
 31
0.0
210
0.0
220
0.0
230
1.0
 73
     3
  0
TEXT
  8
11
  6
CONTINUOUS
 62
     7
  5
33F
 10
962463.379
 20
7286883.621
 30
0.0
 40
8.0
  1
2
 50
88.6026
  7
ROMANS
 72
     1
 11
962455.438274
 21
7286886.148401
 31
0.0
210
0.0
220
0.0
230
1.0
 73
     3
  0
TEXT
  8
11
  6
CONTINUOUS
 62
     7
  5
340
 10
962463.599
 20
7286892.626
 30
0.0
 40
8.0
  1
'
 50
88.6026
  7
ROMANS
 72
     1
 11
962455.633887
 21
7286894.153698
 31
0.0
210
0.0
220
0.0
230
1.0
 73
     3
  0
TEXT
  8
11
  6
CONTINUOUS
 62
     7
  5
341
 10
962652.087
 20
7287170.032
 30
0.0
 40
8.0
  1
5
 50
24.029861
  7
ROMANS
 72
     1
 11
962650.970152
 21
7287178.293173
 31
0.0
210
0.0
220
0.0
230
1.0
 73
     3
  0
TEXT
  8
11
  6
CONTINUOUS
 62
     7
  5
342
 10
962659.394
 20
7287173.289
 30
0.0
 40
8.0
  1
5
 50
24.029861
  7
ROMANS
 72
     1
 11
962658.277152
 21
7287181.550173
 31
0.0
210
0.0
220
0.0
230
1.0
 73
     3
  0
TEXT
  8
11
  6
CONTINUOUS
 62
     7
  5
343
 10
962666.7
 20
7287176.548
 30
0.0
 40
8.0
  1
2
 50
24.029861
  7
ROMANS
 72
     1
 11
962665.573105
 21
7287184.804694
 31
0.0
210
0.0
220
0.0
230
1.0
 73
     3
  0
TEXT
  8
11
  6
CONTINUOUS
 62
     7
  5
344
 10
962674.957
 20
7287180.228
 30
0.0
 40
8.0
  1
.
 50
24.029861
  7
ROMANS
 72
     1
 11
962672.906725
 21
7287188.073002
 31
0.0
210
0.0
220
0.0
230
1.0
 73
     3
  0
TEXT
  8
11
  6
CONTINUOUS
 62
     7
  5
345
 10
962682.234
 20
7287183.474
 30
0.0
 40
8.0
  1
1
 50
24.029861
  7
ROMANS
 72
     1
 11
962680.193772
 21
7287191.323481
 31
0.0
210
0.0
220
0.0
230
1.0
 73
     3
  0
TEXT
  8
11
  6
CONTINUOUS
 62
     7
  5
346
 10
962689.541
 20
7287186.731
 30
0.0
 40
8.0
  1
1
 50
24.029861
  7
ROMANS
 72
     1
 11
962687.500772
 21
7287194.580481
 31
0.0
210
0.0
220
0.0
230
1.0
 73
     3
  0
TEXT
  8
11
  6
CONTINUOUS
 62
     7
  5
347
 10
962696.848
 20
7287189.989
 30
0.0
 40
8.0
  1
'
 50
24.029861
  7
ROMANS
 72
     1
 11
962694.807772
 21
7287197.838481
 31
0.0
210
0.0
220
0.0
230
1.0
 73
     3
  0
TEXT
  8
11
  6
CONTINUOUS
 62
     7
  5
348
 10
962701.738
 20
7287192.17
 30
0.0
 40
8.0
  1
 
 50
24.029861
  7
ROMANS
 72
     1
 11
962700.915245
 21
7287200.562296
 31
0.0
210
0.0
220
0.0
230
1.0
 73
     3
  0
TEXT
  8
11
  6
CONTINUOUS
 62
     7
  5
349
 10
962709.045
 20
7287195.427
 30
0.0
 40
8.0
  1
 
 50
24.029861
  7
ROMANS
 72
     1
 11
962708.222245
 21
7287203.819296
 31
0.0
210
0.0
220
0.0
230
1.0
 73
     3
  0
TEXT
  8
11
  6
CONTINUOUS
 62
     7
  5
34A
 10
962716.351
 20
7287198.685
 30
0.0
 40
8.0
  1
 
 50
24.029861
  7
ROMANS
 72
     1
 11
962715.528245
 21
7287207.077296
 31
0.0
210
0.0
220
0.0
230
1.0
 73
     3
  0
TEXT
  8
11
  6
CONTINUOUS
 62
     7
  5
34B
 10
962723.658
 20
7287201.942
 30
0.0
 40
8.0
  1
 
 50
24.029861
  7
ROMANS
 72
     1
 11
962722.835245
 21
7287210.334296
 31
0.0
210
0.0
220
0.0
230
1.0
 73
     3
  0
TEXT
  8
11
  6
CONTINUOUS
 62
     7
  5
34C
 10
962730.965
 20
7287205.199
 30
0.0
 40
8.0
  1
 
 50
24.029861
  7
ROMANS
 72
     1
 11
962730.142245
 21
7287213.591296
 31
0.0
210
0.0
220
0.0
230
1.0
 73
     3
  0
TEXT
  8
11
  6
CONTINUOUS
 62
     7
  5
34D
 10
962738.27
 20
7287208.458
 30
0.0
 40
8.0
  1
 
 50
24.029861
  7
ROMANS
 72
     1
 11
962737.447245
 21
7287216.850296
 31
0.0
210
0.0
220
0.0
230
1.0
 73
     3
  0
TEXT
  8
11
  6
CONTINUOUS
 62
     7
  5
34E
 10
962745.577
 20
7287211.715
 30
0.0
 40
8.0
  1
 
 50
24.029861
  7
ROMANS
 72
     1
 11
962744.754245
 21
7287220.107296
 31
0.0
210
0.0
220
0.0
230
1.0
 73
     3
  0
TEXT
  8
11
  6
CONTINUOUS
 62
     7
  5
34F
 10
962752.884
 20
7287214.973
 30
0.0
 40
8.0
  1
 
 50
24.029861
  7
ROMANS
 72
     1
 11
962752.061245
 21
7287223.365296
 31
0.0
210
0.0
220
0.0
230
1.0
 73
     3
  0
TEXT
  8
11
  6
CONTINUOUS
 62
     7
  5
350
 10
962761.514
 20
7287218.82
 30
0.0
 40
8.0
  1
N
 50
24.029861
  7
ROMANS
 72
     1
 11
962760.557898
 21
7287227.152843
 31
0.0
210
0.0
220
0.0
230
1.0
 73
     3
  0
TEXT
  8
11
  6
CONTINUOUS
 62
     7
  5
351
 10
962768.821
 20
7287222.079
 30
0.0
 40
8.0
  1
6
 50
24.029861
  7
ROMANS
 72
     1
 11
962767.864898
 21
7287230.411843
 31
0.0
210
0.0
220
0.0
230
1.0
 73
     3
  0
TEXT
  8
11
  6
CONTINUOUS
 62
     7
  5
352
 10
962776.301
 20
7287225.413
 30
0.0
 40
8.0
  1
4
 50
24.029861
  7
ROMANS
 72
     1
 11
962775.174105
 21
7287233.669694
 31
0.0
210
0.0
220
0.0
230
1.0
 73
     3
  0
TEXT
  8
11
  6
CONTINUOUS
 62
     7
  5
353
 10
962784.441
 20
7287229.043
 30
0.0
 40
8.0
  1
%%d
 50
24.029861
  7
ROMANS
 72
     1
 11
962782.495758
 21
7287236.934831
 31
0.0
210
0.0
220
0.0
230
1.0
 73
     3
  0
TEXT
  8
11
  6
CONTINUOUS
 62
     7
  5
354
 10
962790.914
 20
7287231.929
 30
0.0
 40
8.0
  1
3
 50
24.029861
  7
ROMANS
 72
     1
 11
962789.787105
 21
7287240.185694
 31
0.0
210
0.0
220
0.0
230
1.0
 73
     3
  0
TEXT
  8
11
  6
CONTINUOUS
 62
     7
  5
355
 10
962798.221
 20
7287235.186
 30
0.0
 40
8.0
  1
4
 50
24.029861
  7
ROMANS
 72
     1
 11
962797.094105
 21
7287243.442694
 31
0.0
210
0.0
220
0.0
230
1.0
 73
     3
  0
TEXT
  8
11
  6
CONTINUOUS
 62
     7
  5
356
 10
962806.448
 20
7287238.854
 30
0.0
 40
8.0
  1
'
 50
24.029861
  7
ROMANS
 72
     1
 11
962804.407772
 21
7287246.703481
 31
0.0
210
0.0
220
0.0
230
1.0
 73
     3
  0
TEXT
  8
11
  6
CONTINUOUS
 62
     7
  5
357
 10
962812.833
 20
7287241.701
 30
0.0
 40
8.0
  1
2
 50
24.029861
  7
ROMANS
 72
     1
 11
962811.706105
 21
7287249.957694
 31
0.0
210
0.0
220
0.0
230
1.0
 73
     3
  0
TEXT
  8
11
  6
CONTINUOUS
 62
     7
  5
358
 10
962820.14
 20
7287244.959
 30
0.0
 40
8.0
  1
2
 50
24.029861
  7
ROMANS
 72
     1
 11
962819.013105
 21
7287253.215694
 31
0.0
210
0.0
220
0.0
230
1.0
 73
     3
  0
TEXT
  8
11
  6
CONTINUOUS
 62
     7
  5
359
 10
962827.217
 20
7287248.114
 30
0.0
 40
8.0
  1
"
 50
24.029861
  7
ROMANS
 72
     1
 11
962826.318438
 21
7287256.472497
 31
0.0
210
0.0
220
0.0
230
1.0
 73
     3
  0
TEXT
  8
11
  6
CONTINUOUS
 62
     7
  5
35A
 10
962834.61
 20
7287251.411
 30
0.0
 40
8.0
  1
E
 50
24.029861
  7
ROMANS
 72
     1
 11
962833.635632
 21
7287259.735699
 31
0.0
210
0.0
220
0.0
230
1.0
 73
     3
  0
TEXT
  8
11
  6
CONTINUOUS
 62
     7
  5
35B
 10
962961.015
 20
7287216.947
 30
0.0
 40
8.0
  1
1
 50
88.6026
  7
ROMANS
 72
     1
 11
962961.047508
 21
7287218.279604
 31
0.0
210
0.0
220
0.0
230
1.0
  0
TEXT
  8
11
  6
CONTINUOUS
 62
     7
  5
35C
 10
962961.185
 20
7287223.937
 30
0.0
 40
8.0
  1
8
 50
88.6026
  7
ROMANS
 72
     1
 11
962961.241894
 21
7287226.269306
 31
0.0
210
0.0
220
0.0
230
1.0
  0
TEXT
  8
11
  6
CONTINUOUS
 62
     7
  5
35D
 10
962961.373
 20
7287231.62
 30
0.0
 40
8.0
  1
0
 50
88.6026
  7
ROMANS
 72
     1
 11
962961.437649
 21
7287234.270212
 31
0.0
210
0.0
220
0.0
230
1.0
  0
TEXT
  8
11
  6
CONTINUOUS
 62
     7
  5
35E
 10
962961.601
 20
7287240.94
 30
0.0
 40
8.0
  1
'
 50
88.6026
  7
ROMANS
 72
     1
 11
962961.633508
 21
7287242.272604
 31
0.0
210
0.0
220
0.0
230
1.0
  0
TEXT
  8
11
  6
CONTINUOUS
 62
     7
  5
35F
 10
963128.353
 20
7287397.705
 30
0.0
 40
8.0
  1
4
 50
24.029825
  7
ROMANS
 72
     1
 11
963130.483807
 21
7287398.655026
 31
0.0
210
0.0
220
0.0
230
1.0
  0
TEXT
  8
11
  6
CONTINUOUS
 62
     7
  5
360
 10
963136.58
 20
7287401.374
 30
0.0
 40
8.0
  1
1
 50
24.029825
  7
ROMANS
 72
     1
 11
963137.797474
 21
7287401.916814
 31
0.0
210
0.0
220
0.0
230
1.0
  0
TEXT
  8
11
  6
CONTINUOUS
 62
     7
  5
361
 10
963142.967
 20
7287404.22
 30
0.0
 40
8.0
  1
2
 50
24.029825
  7
ROMANS
 72
     1
 11
963145.097807
 21
7287405.170026
 31
0.0
210
0.0
220
0.0
230
1.0
  0
TEXT
  8
11
  6
CONTINUOUS
 62
     7
  5
362
 10
963151.222
 20
7287407.903
 30
0.0
 40
8.0
  1
.
 50
24.029825
  7
ROMANS
 72
     1
 11
963152.429427
 21
7287408.441334
 31
0.0
210
0.0
220
0.0
230
1.0
  0
TEXT
  8
11
  6
CONTINUOUS
 62
     7
  5
363
 10
963157.579
 20
7287410.736
 30
0.0
 40
8.0
  1
3
 50
24.029825
  7
ROMANS
 72
     1
 11
963159.709807
 21
7287411.686026
 31
0.0
210
0.0
220
0.0
230
1.0
  0
TEXT
  8
11
  6
CONTINUOUS
 62
     7
  5
364
 10
963164.886
 20
7287413.993
 30
0.0
 40
8.0
  1
4
 50
24.029825
  7
ROMANS
 72
     1
 11
963167.016807
 21
7287414.943026
 31
0.0
210
0.0
220
0.0
230
1.0
  0
TEXT
  8
11
  6
CONTINUOUS
 62
     7
  5
365
 10
963173.113
 20
7287417.662
 30
0.0
 40
8.0
  1
'
 50
24.029825
  7
ROMANS
 72
     1
 11
963174.330474
 21
7287418.204814
 31
0.0
210
0.0
220
0.0
230
1.0
  0
TEXT
  8
11
  6
CONTINUOUS
 62
     7
  5
366
 10
962472.073
 20
7287240.003
 30
0.0
 40
8.0
  1
2
 50
88.6026
  7
ROMANS
 72
     1
 11
962464.132274
 21
7287242.530401
 31
0.0
210
0.0
220
0.0
230
1.0
 73
     3
  0
TEXT
  8
11
  6
CONTINUOUS
 62
     7
  5
367
 10
962472.269
 20
7287248.001
 30
0.0
 40
8.0
  1
9
 50
88.6026
  7
ROMANS
 72
     1
 11
962464.328274
 21
7287250.528401
 31
0.0
210
0.0
220
0.0
230
1.0
 73
     3
  0
TEXT
  8
11
  6
CONTINUOUS
 62
     7
  5
368
 10
962472.463
 20
7287255.998
 30
0.0
 40
8.0
  1
7
 50
88.6026
  7
ROMANS
 72
     1
 11
962464.522274
 21
7287258.525401
 31
0.0
210
0.0
220
0.0
230
1.0
 73
     3
  0
TEXT
  8
11
  6
CONTINUOUS
 62
     7
  5
369
 10
962472.684
 20
7287265.036
 30
0.0
 40
8.0
  1
.
 50
88.6026
  7
ROMANS
 72
     1
 11
962464.718619
 21
7287266.552701
 31
0.0
210
0.0
220
0.0
230
1.0
 73
     3
  0
TEXT
  8
11
  6
CONTINUOUS
 62
     7
  5
36A
 10
962472.854
 20
7287271.995
 30
0.0
 40
8.0
  1
3
 50
88.6026
  7
ROMANS
 72
     1
 11
962464.913274
 21
7287274.522401
 31
0.0
210
0.0
220
0.0
230
1.0
 73
     3
  0
TEXT
  8
11
  6
CONTINUOUS
 62
     7
  5
36B
 10
962473.049
 20
7287279.992
 30
0.0
 40
8.0
  1
8
 50
88.6026
  7
ROMANS
 72
     1
 11
962465.108274
 21
7287282.519401
 31
0.0
210
0.0
220
0.0
230
1.0
 73
     3
  0
TEXT
  8
11
  6
CONTINUOUS
 62
     7
  5
36C
 10
962473.268
 20
7287288.997
 30
0.0
 40
8.0
  1
'
 50
88.6026
  7
ROMANS
 72
     1
 11
962465.302887
 21
7287290.524698
 31
0.0
210
0.0
220
0.0
230
1.0
 73
     3
  0
TEXT
  8
11
  6
CONTINUOUS
 62
     7
  5
36D
 10
962969.589
 20
7287568.405
 30
0.0
 40
8.0
  1
5
 50
88.6026
  7
ROMANS
 72
     1
 11
962969.646163
 21
7287570.748303
 31
0.0
210
0.0
220
0.0
230
1.0
  0
TEXT
  8
11
  6
CONTINUOUS
 62
     7
  5
36E
 10
962969.784
 20
7287576.402
 30
0.0
 40
8.0
  1
3
 50
88.6026
  7
ROMANS
 72
     1
 11
962969.840894
 21
7287578.734306
 31
0.0
210
0.0
220
0.0
230
1.0
  0
TEXT
  8
11
  6
CONTINUOUS
 62
     7
  5
36F
 10
962969.971
 20
7287584.085
 30
0.0
 40
8.0
  1
0
 50
88.6026
  7
ROMANS
 72
     1
 11
962970.035649
 21
7287586.735212
 31
0.0
210
0.0
220
0.0
230
1.0
  0
TEXT
  8
11
  6
CONTINUOUS
 62
     7
  5
370
 10
962970.198
 20
7287593.405
 30
0.0
 40
8.0
  1
'
 50
88.6026
  7
ROMANS
 72
     1
 11
962970.230508
 21
7287594.737604
 31
0.0
210
0.0
220
0.0
230
1.0
  0
TEXT
  8
11
  6
CONTINUOUS
 62
     7
  5
371
 10
963343.166
 20
7287612.232
 30
0.0
 40
8.0
  1
3
 50
88.6026
  7
ROMANS
 72
     1
 11
963343.222894
 21
7287614.564306
 31
0.0
210
0.0
220
0.0
230
1.0
  0
TEXT
  8
11
  6
CONTINUOUS
 62
     7
  5
372
 10
963343.361
 20
7287620.229
 30
0.0
 40
8.0
  1
2
 50
88.6026
  7
ROMANS
 72
     1
 11
963343.417894
 21
7287622.561306
 31
0.0
210
0.0
220
0.0
230
1.0
  0
TEXT
  8
11
  6
CONTINUOUS
 62
     7
  5
373
 10
963343.555
 20
7287628.227
 30
0.0
 40
8.0
  1
2
 50
88.6026
  7
ROMANS
 72
     1
 11
963343.611894
 21
7287630.559306
 31
0.0
210
0.0
220
0.0
230
1.0
  0
TEXT
  8
11
  6
CONTINUOUS
 62
     7
  5
374
 10
963343.776
 20
7287637.264
 30
0.0
 40
8.0
  1
.
 50
88.6026
  7
ROMANS
 72
     1
 11
963343.808239
 21
7287638.585607
 31
0.0
210
0.0
220
0.0
230
1.0
  0
TEXT
  8
11
  6
CONTINUOUS
 62
     7
  5
375
 10
963343.946
 20
7287644.222
 30
0.0
 40
8.0
  1
5
 50
88.6026
  7
ROMANS
 72
     1
 11
963344.003163
 21
7287646.565303
 31
0.0
210
0.0
220
0.0
230
1.0
  0
TEXT
  8
11
  6
CONTINUOUS
 62
     7
  5
376
 10
963344.141
 20
7287652.22
 30
0.0
 40
8.0
  1
4
 50
88.6026
  7
ROMANS
 72
     1
 11
963344.197894
 21
7287654.552306
 31
0.0
210
0.0
220
0.0
230
1.0
  0
TEXT
  8
11
  6
CONTINUOUS
 62
     7
  5
377
 10
963344.36
 20
7287661.224
 30
0.0
 40
8.0
  1
'
 50
88.6026
  7
ROMANS
 72
     1
 11
963344.392508
 21
7287662.556604
 31
0.0
210
0.0
220
0.0
230
1.0
  0
TEXT
  8
11
  6
CONTINUOUS
 62
     7
  5
378
 10
962479.359
 20
7287458.02
 30
0.0
 40
8.0
  1
R
 50
83.868006
  7
ROMANS
 72
     1
 11
962471.673957
 21
7287461.380136
 31
0.0
210
0.0
220
0.0
230
1.0
 73
     3
  0
TEXT
  8
11
  6
CONTINUOUS
 62
     7
  5
379
 10
962480.13
 20
7287465.191
 30
0.0
 40
8.0
  1
=
 50
83.868006
  7
ROMANS
 72
     1
 11
962472.531801
 21
7287469.359484
 31
0.0
210
0.0
220
0.0
230
1.0
 73
     3
  0
TEXT
  8
11
  6
CONTINUOUS
 62
     7
  5
37A
 10
962481.228
 20
7287473.732
 30
0.0
 40
8.0
  1
5
 50
81.974167
  7
ROMANS
 72
     1
 11
962473.633627
 21
7287477.169998
 31
0.0
210
0.0
220
0.0
230
1.0
 73
     3
  0
TEXT
  8
11
  6
CONTINUOUS
 62
     7
  5
37B
 10
962482.345
 20
7287481.653
 30
0.0
 40
8.0
  1
8
 50
81.974167
  7
ROMANS
 72
     1
 11
962474.749091
 21
7287485.080105
 31
0.0
210
0.0
220
0.0
230
1.0
 73
     3
  0
TEXT
  8
11
  6
CONTINUOUS
 62
     7
  5
37C
 10
962483.478
 20
7287489.204
 30
0.0
 40
8.0
  1
5
 50
80.080328
  7
ROMANS
 72
     1
 11
962476.001393
 21
7287492.891096
 31
0.0
210
0.0
220
0.0
230
1.0
 73
     3
  0
TEXT
  8
11
  6
CONTINUOUS
 62
     7
  5
37D
 10
962485.037
 20
7287498.109
 30
0.0
 40
8.0
  1
.
 50
80.080328
  7
ROMANS
 72
     1
 11
962477.384336
 21
7287500.789375
 31
0.0
210
0.0
220
0.0
230
1.0
 73
     3
  0
TEXT
  8
11
  6
CONTINUOUS
 62
     7
  5
37E
 10
962486.131
 20
7287504.615
 30
0.0
 40
8.0
  1
8
 50
78.186489
  7
ROMANS
 72
     1
 11
962478.778075
 21
7287508.5364
 31
0.0
210
0.0
220
0.0
230
1.0
 73
     3
  0
TEXT
  8
11
  6
CONTINUOUS
 62
     7
  5
37F
 10
962487.704
 20
7287512.138
 30
0.0
 40
8.0
  1
0
 50
78.186489
  7
ROMANS
 72
     1
 11
962480.416178
 21
7287516.370665
 31
0.0
210
0.0
220
0.0
230
1.0
 73
     3
  0
TEXT
  8
11
  6
CONTINUOUS
 62
     7
  5
380
 10
962489.613
 20
7287521.264
 30
0.0
 40
8.0
  1
'
 50
78.186489
  7
ROMANS
 72
     1
 11
962482.055348
 21
7287524.206581
 31
0.0
210
0.0
220
0.0
230
1.0
 73
     3
  0
TEXT
  8
11
  6
CONTINUOUS
 62
     7
  5
381
 10
962490.69
 20
7287526.136
 30
0.0
 40
8.0
  1
 
 50
76.292653
  7
ROMANS
 72
     1
 11
962483.549593
 21
7287530.621771
 31
0.0
210
0.0
220
0.0
230
1.0
 73
     3
  0
TEXT
  8
11
  6
CONTINUOUS
 62
     7
  5
382
 10
962492.586
 20
7287533.908
 30
0.0
 40
8.0
  1
 
 50
76.292653
  7
ROMANS
 72
     1
 11
962485.445593
 21
7287538.393771
 31
0.0
210
0.0
220
0.0
230
1.0
 73
     3
  0
TEXT
  8
11
  6
CONTINUOUS
 62
     7
  5
383
 10
962494.783
 20
7287542.917
 30
0.0
 40
8.0
  1
2
 50
74.398814
  7
ROMANS
 72
     1
 11
962487.70518
 21
7287547.315563
 31
0.0
210
0.0
220
0.0
230
1.0
 73
     3
  0
TEXT
  8
11
  6
CONTINUOUS
 62
     7
  5
384
 10
962496.883
 20
7287550.441
 30
0.0
 40
8.0
  1
6
 50
74.398814
  7
ROMANS
 72
     1
 11
962489.855472
 21
7287555.019674
 31
0.0
210
0.0
220
0.0
230
1.0
 73
     3
  0
TEXT
  8
11
  6
CONTINUOUS
 62
     7
  5
385
 10
962499.086
 20
7287558.329
 30
0.0
 40
8.0
  1
8
 50
74.398814
  7
ROMANS
 72
     1
 11
962492.00818
 21
7287562.727563
 31
0.0
210
0.0
220
0.0
230
1.0
 73
     3
  0
TEXT
  8
11
  6
CONTINUOUS
 62
     7
  5
386
 10
962501.599
 20
7287566.631
 30
0.0
 40
8.0
  1
.
 50
72.504975
  7
ROMANS
 72
     1
 11
962494.366479
 21
7287570.296832
 31
0.0
210
0.0
220
0.0
230
1.0
 73
     3
  0
TEXT
  8
11
  6
CONTINUOUS
 62
     7
  5
387
 10
962503.69
 20
7287573.269
 30
0.0
 40
8.0
  1
5
 50
72.504975
  7
ROMANS
 72
     1
 11
962496.764716
 21
7287577.909558
 31
0.0
210
0.0
220
0.0
230
1.0
 73
     3
  0
TEXT
  8
11
  6
CONTINUOUS
 62
     7
  5
388
 10
962505.965
 20
7287580.361
 30
0.0
 40
8.0
  1
6
 50
70.611136
  7
ROMANS
 72
     1
 11
962499.255286
 21
7287585.393906
 31
0.0
210
0.0
220
0.0
230
1.0
 73
     3
  0
TEXT
  8
11
  6
CONTINUOUS
 62
     7
  5
389
 10
962509.017
 20
7287589.037
 30
0.0
 40
8.0
  1
'
 50
70.611136
  7
ROMANS
 72
     1
 11
962501.913229
 21
7287592.950224
 31
0.0
210
0.0
220
0.0
230
1.0
 73
     3
  0
TEXT
  8
11
  6
CONTINUOUS
 62
     7
  5
38A
 10
962737.353
 20
7287742.63
 30
0.0
 40
8.0
  1
4
 50
23.174175
  7
ROMANS
 72
     1
 11
962736.349536
 21
7287750.902602
 31
0.0
210
0.0
220
0.0
230
1.0
 73
     3
  0
TEXT
  8
11
  6
CONTINUOUS
 62
     7
  5
38B
 10
962744.709
 20
7287745.778
 30
0.0
 40
8.0
  1
8
 50
23.174175
  7
ROMANS
 72
     1
 11
962743.705536
 21
7287754.050602
 31
0.0
210
0.0
220
0.0
230
1.0
 73
     3
  0
TEXT
  8
11
  6
CONTINUOUS
 62
     7
  5
38C
 10
962752.062
 20
7287748.926
 30
0.0
 40
8.0
  1
4
 50
23.174175
  7
ROMANS
 72
     1
 11
962751.058536
 21
7287757.198602
 31
0.0
210
0.0
220
0.0
230
1.0
 73
     3
  0
TEXT
  8
11
  6
CONTINUOUS
 62
     7
  5
38D
 10
962760.372
 20
7287752.483
 30
0.0
 40
8.0
  1
.
 50
23.174175
  7
ROMANS
 72
     1
 11
962758.439111
 21
7287760.357746
 31
0.0
210
0.0
220
0.0
230
1.0
 73
     3
  0
TEXT
  8
11
  6
CONTINUOUS
 62
     7
  5
38E
 10
962767.698
 20
7287755.618
 30
0.0
 40
8.0
  1
1
 50
23.174175
  7
ROMANS
 72
     1
 11
962765.775223
 21
7287763.497075
 31
0.0
210
0.0
220
0.0
230
1.0
 73
     3
  0
TEXT
  8
11
  6
CONTINUOUS
 62
     7
  5
38F
 10
962774.126
 20
7287758.37
 30
0.0
 40
8.0
  1
5
 50
23.174175
  7
ROMANS
 72
     1
 11
962773.132649
 21
7287766.646931
 31
0.0
210
0.0
220
0.0
230
1.0
 73
     3
  0
TEXT
  8
11
  6
CONTINUOUS
 62
     7
  5
390
 10
962782.407
 20
7287761.915
 30
0.0
 40
8.0
  1
'
 50
23.174175
  7
ROMANS
 72
     1
 11
962780.484223
 21
7287769.794075
 31
0.0
210
0.0
220
0.0
230
1.0
 73
     3
  0
TEXT
  8
11
  6
CONTINUOUS
 62
     7
  5
391
 10
963166.937
 20
7287926.52
 30
0.0
 40
8.0
  1
4
 50
23.174175
  7
ROMANS
 72
     1
 11
963165.933536
 21
7287934.792602
 31
0.0
210
0.0
220
0.0
230
1.0
 73
     3
  0
TEXT
  8
11
  6
CONTINUOUS
 62
     7
  5
392
 10
963174.118
 20
7287929.594
 30
0.0
 40
8.0
  1
6
 50
23.174175
  7
ROMANS
 72
     1
 11
963173.286448
 21
7287937.940192
 31
0.0
210
0.0
220
0.0
230
1.0
 73
     3
  0
TEXT
  8
11
  6
CONTINUOUS
 62
     7
  5
393
 10
963181.356
 20
7287932.693
 30
0.0
 40
8.0
  1
0
 50
23.174175
  7
ROMANS
 72
     1
 11
963180.644878
 21
7287941.090744
 31
0.0
210
0.0
220
0.0
230
1.0
 73
     3
  0
TEXT
  8
11
  6
CONTINUOUS
 62
     7
  5
394
 10
963189.928
 20
7287936.361
 30
0.0
 40
8.0
  1
'
 50
23.174175
  7
ROMANS
 72
     1
 11
963188.005223
 21
7287944.240075
 31
0.0
210
0.0
220
0.0
230
1.0
 73
     3
  0
TEXT
  8
11
  6
CONTINUOUS
 62
     7
  5
395
 10
963352.328
 20
7287872.07
 30
0.0
 40
8.0
  1
R
 50
82.168914
  7
ROMANS
 72
     1
 11
963352.671358
 21
7287874.566499
 31
0.0
210
0.0
220
0.0
230
1.0
  0
TEXT
  8
11
  6
CONTINUOUS
 62
     7
  5
396
 10
963353.309
 20
7287879.216
 30
0.0
 40
8.0
  1
=
 50
82.168914
  7
ROMANS
 72
     1
 11
963353.763132
 21
7287882.517917
 31
0.0
210
0.0
220
0.0
230
1.0
  0
TEXT
  8
11
  6
CONTINUOUS
 62
     7
  5
397
 10
963354.508
 20
7287887.921
 30
0.0
 40
8.0
  1
6
 50
82.168914
  7
ROMANS
 72
     1
 11
963354.851358
 21
7287890.417499
 31
0.0
210
0.0
220
0.0
230
1.0
  0
TEXT
  8
11
  6
CONTINUOUS
 62
     7
  5
398
 10
963355.752
 20
7287896.112
 30
0.0
 40
8.0
  1
2
 50
80.330717
  7
ROMANS
 72
     1
 11
963356.143853
 21
7287898.411857
 31
0.0
210
0.0
220
0.0
230
1.0
  0
TEXT
  8
11
  6
CONTINUOUS
 62
     7
  5
399
 10
963357.265
 20
7287904.991
 30
0.0
 40
8.0
  1
1
 50
80.330717
  7
ROMANS
 72
     1
 11
963357.488892
 21
7287906.305063
 31
0.0
210
0.0
220
0.0
230
1.0
  0
TEXT
  8
11
  6
CONTINUOUS
 62
     7
  5
39A
 10
963358.651
 20
7287913.0
 30
0.0
 40
8.0
  1
.
 50
78.492519
  7
ROMANS
 72
     1
 11
963358.914734
 21
7287914.295426
 31
0.0
210
0.0
220
0.0
230
1.0
  0
TEXT
  8
11
  6
CONTINUOUS
 62
     7
  5
39B
 10
963360.041
 20
7287919.819
 30
0.0
 40
8.0
  1
8
 50
78.492519
  7
ROMANS
 72
     1
 11
963360.506424
 21
7287922.105104
 31
0.0
210
0.0
220
0.0
230
1.0
  0
TEXT
  8
11
  6
CONTINUOUS
 62
     7
  5
39C
 10
963361.839
 20
7287928.647
 30
0.0
 40
8.0
  1
'
 50
78.492519
  7
ROMANS
 72
     1
 11
963362.104928
 21
7287929.953205
 31
0.0
210
0.0
220
0.0
230
1.0
  0
TEXT
  8
11
  6
CONTINUOUS
 62
     7
  5
39D
 10
963362.99
 20
7287933.974
 30
0.0
 40
8.0
  1
 
 50
76.654322
  7
ROMANS
 72
     1
 11
963363.605381
 21
7287936.568005
 31
0.0
210
0.0
220
0.0
230
1.0
  0
TEXT
  8
11
  6
CONTINUOUS
 62
     7
  5
39E
 10
963364.837
 20
7287941.757
 30
0.0
 40
8.0
  1
 
 50
76.654322
  7
ROMANS
 72
     1
 11
963365.452381
 21
7287944.351005
 31
0.0
210
0.0
220
0.0
230
1.0
  0
TEXT
  8
11
  6
CONTINUOUS
 62
     7
  5
39F
 10
963366.648
 20
7287949.65
 30
0.0
 40
8.0
  1
 
 50
74.816128
  7
ROMANS
 72
     1
 11
963367.346272
 21
7287952.222931
 31
0.0
210
0.0
220
0.0
230
1.0
  0
TEXT
  8
11
  6
CONTINUOUS
 62
     7
  5
3A0
 10
963369.174
 20
7287958.951
 30
0.0
 40
8.0
  1
2
 50
74.816128
  7
ROMANS
 72
     1
 11
963369.785054
 21
7287961.202556
 31
0.0
210
0.0
220
0.0
230
1.0
  0
TEXT
  8
11
  6
CONTINUOUS
 62
     7
  5
3A1
 10
963371.269
 20
7287966.671
 30
0.0
 40
8.0
  1
3
 50
74.816128
  7
ROMANS
 72
     1
 11
963371.880054
 21
7287968.922556
 31
0.0
210
0.0
220
0.0
230
1.0
  0
TEXT
  8
11
  6
CONTINUOUS
 62
     7
  5
3A2
 10
963373.802
 20
7287975.415
 30
0.0
 40
8.0
  1
1
 50
72.977931
  7
ROMANS
 72
     1
 11
963374.192222
 21
7287976.689604
 31
0.0
210
0.0
220
0.0
230
1.0
  0
TEXT
  8
11
  6
CONTINUOUS
 62
     7
  5
3A3
 10
963376.153
 20
7287983.094
 30
0.0
 40
8.0
  1
.
 50
72.977931
  7
ROMANS
 72
     1
 11
963376.540002
 21
7287984.358086
 31
0.0
210
0.0
220
0.0
230
1.0
  0
TEXT
  8
11
  6
CONTINUOUS
 62
     7
  5
3A4
 10
963378.216
 20
7287989.844
 30
0.0
 40
8.0
  1
7
 50
71.139733
  7
ROMANS
 72
     1
 11
963378.970168
 21
7287992.051741
 31
0.0
210
0.0
220
0.0
230
1.0
  0
TEXT
  8
11
  6
CONTINUOUS
 62
     7
  5
3A5
 10
963381.127
 20
7287998.367
 30
0.0
 40
8.0
  1
1
 50
71.139733
  7
ROMANS
 72
     1
 11
963381.557907
 21
7287999.628431
 31
0.0
210
0.0
220
0.0
230
1.0
  0
TEXT
  8
11
  6
CONTINUOUS
 62
     7
  5
3A6
 10
963383.714
 20
7288005.938
 30
0.0
 40
8.0
  1
'
 50
71.139733
  7
ROMANS
 72
     1
 11
963384.144907
 21
7288007.199431
 31
0.0
210
0.0
220
0.0
230
1.0
  0
TEXT
  8
11
  6
CONTINUOUS
 62
     7
  5
3A7
 10
961487.435
 20
7287198.789
 30
0.0
 40
8.0
  1
 
 50
28.796544
  7
ROMANS
 72
     1
 11
961485.917704
 21
7287207.0839
 31
0.0
210
0.0
220
0.0
230
1.0
 73
     3
  0
TEXT
  8
11
  6
CONTINUOUS
 62
     7
  5
3A8
 10
961494.444
 20
7287202.642
 30
0.0
 40
8.0
  1
 
 50
28.796544
  7
ROMANS
 72
     1
 11
961492.926704
 21
7287210.9369
 31
0.0
210
0.0
220
0.0
230
1.0
 73
     3
  0
TEXT
  8
11
  6
CONTINUOUS
 62
     7
  5
3A9
 10
961501.455
 20
7287206.496
 30
0.0
 40
8.0
  1
 
 50
28.796544
  7
ROMANS
 72
     1
 11
961499.937704
 21
7287214.7909
 31
0.0
210
0.0
220
0.0
230
1.0
 73
     3
  0
TEXT
  8
11
  6
CONTINUOUS
 62
     7
  5
3AA
 10
960979.996
 20
7286952.846
 30
0.0
 40
8.0
  1
5
 50
24.029847
  7
ROMANS
 72
     1
 11
960978.879154
 21
7286961.107174
 31
0.0
210
0.0
220
0.0
230
1.0
 73
     3
  0
TEXT
  8
11
  6
CONTINUOUS
 62
     7
  5
3AB
 10
960987.302
 20
7286956.104
 30
0.0
 40
8.0
  1
7
 50
24.029847
  7
ROMANS
 72
     1
 11
960986.175107
 21
7286964.360694
 31
0.0
210
0.0
220
0.0
230
1.0
 73
     3
  0
TEXT
  8
11
  6
CONTINUOUS
 62
     7
  5
3AC
 10
960995.529
 20
7286959.773
 30
0.0
 40
8.0
  1
1
 50
24.029847
  7
ROMANS
 72
     1
 11
960993.488774
 21
7286967.622482
 31
0.0
210
0.0
220
0.0
230
1.0
 73
     3
  0
TEXT
  8
11
  6
CONTINUOUS
 62
     7
  5
3AD
 10
961002.864
 20
7286963.042
 30
0.0
 40
8.0
  1
.
 50
24.029847
  7
ROMANS
 72
     1
 11
961000.813727
 21
7286970.887003
 31
0.0
210
0.0
220
0.0
230
1.0
 73
     3
  0
TEXT
  8
11
  6
CONTINUOUS
 62
     7
  5
3AE
 10
961009.222
 20
7286965.878
 30
0.0
 40
8.0
  1
3
 50
24.029847
  7
ROMANS
 72
     1
 11
961008.095107
 21
7286974.134694
 31
0.0
210
0.0
220
0.0
230
1.0
 73
     3
  0
TEXT
  8
11
  6
CONTINUOUS
 62
     7
  5
3AF
 10
961017.448
 20
7286969.545
 30
0.0
 40
8.0
  1
'
 50
24.029847
  7
ROMANS
 72
     1
 11
961015.407774
 21
7286977.394482
 31
0.0
210
0.0
220
0.0
230
1.0
 73
     3
  0
TEXT
  8
11
  6
CONTINUOUS
 62
     7
  5
3B0
 10
961022.34
 20
7286971.725
 30
0.0
 40
8.0
  1
 
 50
24.029847
  7
ROMANS
 72
     1
 11
961021.517247
 21
7286980.117296
 31
0.0
210
0.0
220
0.0
230
1.0
 73
     3
  0
TEXT
  8
11
  6
CONTINUOUS
 62
     7
  5
3B1
 10
961029.646
 20
7286974.983
 30
0.0
 40
8.0
  1
 
 50
24.029847
  7
ROMANS
 72
     1
 11
961028.823247
 21
7286983.375296
 31
0.0
210
0.0
220
0.0
230
1.0
 73
     3
  0
TEXT
  8
11
  6
CONTINUOUS
 62
     7
  5
3B2
 10
962002.757
 20
7287428.173
 30
0.0
 40
8.0
  1
1
 50
23.174183
  7
ROMANS
 72
     1
 11
962000.834222
 21
7287436.052074
 31
0.0
210
0.0
220
0.0
230
1.0
 73
     3
  0
TEXT
  8
11
  6
CONTINUOUS
 62
     7
  5
3B3
 10
962008.896
 20
7287430.801
 30
0.0
 40
8.0
  1
0
 50
23.174183
  7
ROMANS
 72
     1
 11
962008.184876
 21
7287439.198744
 31
0.0
210
0.0
220
0.0
230
1.0
 73
     3
  0
TEXT
  8
11
  6
CONTINUOUS
 62
     7
  5
3B4
 10
962016.25
 20
7287433.949
 30
0.0
 40
8.0
  1
0
 50
23.174183
  7
ROMANS
 72
     1
 11
962015.538876
 21
7287442.346744
 31
0.0
210
0.0
220
0.0
230
1.0
 73
     3
  0
TEXT
  8
11
  6
CONTINUOUS
 62
     7
  5
3B5
 10
962023.72
 20
7287437.147
 30
0.0
 40
8.0
  1
6
 50
23.174183
  7
ROMANS
 72
     1
 11
962022.888446
 21
7287445.493192
 31
0.0
210
0.0
220
0.0
230
1.0
 73
     3
  0
TEXT
  8
11
  6
CONTINUOUS
 62
     7
  5
3B6
 10
962032.203
 20
7287440.778
 30
0.0
 40
8.0
  1
.
 50
23.174183
  7
ROMANS
 72
     1
 11
962030.27011
 21
7287448.652746
 31
0.0
210
0.0
220
0.0
230
1.0
 73
     3
  0
TEXT
  8
11
  6
CONTINUOUS
 62
     7
  5
3B7
 10
962038.43
 20
7287443.444
 30
0.0
 40
8.0
  1
6
 50
23.174183
  7
ROMANS
 72
     1
 11
962037.598446
 21
7287451.790192
 31
0.0
210
0.0
220
0.0
230
1.0
 73
     3
  0
TEXT
  8
11
  6
CONTINUOUS
 62
     7
  5
3B8
 10
962045.958
 20
7287446.666
 30
0.0
 40
8.0
  1
7
 50
23.174183
  7
ROMANS
 72
     1
 11
962044.954535
 21
7287454.938602
 31
0.0
210
0.0
220
0.0
230
1.0
 73
     3
  0
TEXT
  8
11
  6
CONTINUOUS
 62
     7
  5
3B9
 10
962054.24
 20
7287450.211
 30
0.0
 40
8.0
  1
'
 50
23.174183
  7
ROMANS
 72
     1
 11
962052.317222
 21
7287458.090074
 31
0.0
210
0.0
220
0.0
230
1.0
 73
     3
  0
TEXT
  8
11
  6
CONTINUOUS
 62
     7
  5
3BA
 10
962429.855
 20
7287465.351
 30
0.0
 40
8.0
  1
R
 50
84.007108
  7
ROMANS
 72
     1
 11
962430.118101
 21
7287467.857228
 31
0.0
210
0.0
220
0.0
230
1.0
  0
TEXT
  8
11
  6
CONTINUOUS
 62
     7
  5
3BB
 10
962430.615
 20
7287472.62
 30
0.0
 40
8.0
  1
=
 50
82.168914
  7
ROMANS
 72
     1
 11
962431.069132
 21
7287475.921917
 31
0.0
210
0.0
220
0.0
230
1.0
  0
TEXT
  8
11
  6
CONTINUOUS
 62
     7
  5
3BC
 10
962431.813
 20
7287481.326
 30
0.0
 40
8.0
  1
6
 50
82.168914
  7
ROMANS
 72
     1
 11
962432.156358
 21
7287483.822499
 31
0.0
210
0.0
220
0.0
230
1.0
  0
TEXT
  8
11
  6
CONTINUOUS
 62
     7
  5
3BD
 10
962432.928
 20
7287489.438
 30
0.0
 40
8.0
  1
2
 50
82.168914
  7
ROMANS
 72
     1
 11
962433.245878
 21
7287491.749243
 31
0.0
210
0.0
220
0.0
230
1.0
  0
TEXT
  8
11
  6
CONTINUOUS
 62
     7
  5
3BE
 10
962434.358
 20
7287498.429
 30
0.0
 40
8.0
  1
1
 50
80.330717
  7
ROMANS
 72
     1
 11
962434.581892
 21
7287499.743063
 31
0.0
210
0.0
220
0.0
230
1.0
  0
TEXT
  8
11
  6
CONTINUOUS
 62
     7
  5
3BF
 10
962435.706
 20
7287506.346
 30
0.0
 40
8.0
  1
.
 50
80.330717
  7
ROMANS
 72
     1
 11
962435.928044
 21
7287507.649219
 31
0.0
210
0.0
220
0.0
230
1.0
  0
TEXT
  8
11
  6
CONTINUOUS
 62
     7
  5
3C0
 10
962436.924
 20
7287513.296
 30
0.0
 40
8.0
  1
8
 50
78.492519
  7
ROMANS
 72
     1
 11
962437.389424
 21
7287515.582104
 31
0.0
210
0.0
220
0.0
230
1.0
  0
TEXT
  8
11
  6
CONTINUOUS
 62
     7
  5
3C1
 10
962438.457
 20
7287520.827
 30
0.0
 40
8.0
  1
0
 50
78.492519
  7
ROMANS
 72
     1
 11
962438.985864
 21
7287523.424711
 31
0.0
210
0.0
220
0.0
230
1.0
  0
TEXT
  8
11
  6
CONTINUOUS
 62
     7
  5
3C2
 10
962440.317
 20
7287529.963
 30
0.0
 40
8.0
  1
'
 50
78.492519
  7
ROMANS
 72
     1
 11
962440.582928
 21
7287531.269205
 31
0.0
210
0.0
220
0.0
230
1.0
  0
TEXT
  8
11
  6
CONTINUOUS
 62
     7
  5
3C3
 10
962441.51
 20
7287535.28
 30
0.0
 40
8.0
  1
 
 50
76.654322
  7
ROMANS
 72
     1
 11
962442.125381
 21
7287537.874005
 31
0.0
210
0.0
220
0.0
230
1.0
  0
TEXT
  8
11
  6
CONTINUOUS
 62
     7
  5
3C4
 10
962443.356
 20
7287543.064
 30
0.0
 40
8.0
  1
 
 50
76.654322
  7
ROMANS
 72
     1
 11
962443.971381
 21
7287545.658005
 31
0.0
210
0.0
220
0.0
230
1.0
  0
TEXT
  8
11
  6
CONTINUOUS
 62
     7
  5
3C5
 10
962445.638
 20
7287552.526
 30
0.0
 40
8.0
  1
2
 50
74.816128
  7
ROMANS
 72
     1
 11
962446.249054
 21
7287554.777556
 31
0.0
210
0.0
220
0.0
230
1.0
  0
TEXT
  8
11
  6
CONTINUOUS
 62
     7
  5
3C6
 10
962447.734
 20
7287560.247
 30
0.0
 40
8.0
  1
4
 50
74.816128
  7
ROMANS
 72
     1
 11
962448.345054
 21
7287562.498556
 31
0.0
210
0.0
220
0.0
230
1.0
  0
TEXT
  8
11
  6
CONTINUOUS
 62
     7
  5
3C7
 10
962449.83
 20
7287567.967
 30
0.0
 40
8.0
  1
2
 50
74.816128
  7
ROMANS
 72
     1
 11
962450.441054
 21
7287570.218556
 31
0.0
210
0.0
220
0.0
230
1.0
  0
TEXT
  8
11
  6
CONTINUOUS
 62
     7
  5
3C8
 10
962452.412
 20
7287576.729
 30
0.0
 40
8.0
  1
.
 50
72.977931
  7
ROMANS
 72
     1
 11
962452.799002
 21
7287577.993086
 31
0.0
210
0.0
220
0.0
230
1.0
  0
TEXT
  8
11
  6
CONTINUOUS
 62
     7
  5
3C9
 10
962454.45
 20
7287583.386
 30
0.0
 40
8.0
  1
5
 50
72.977931
  7
ROMANS
 72
     1
 11
962455.136183
 21
7287585.627314
 31
0.0
210
0.0
220
0.0
230
1.0
  0
TEXT
  8
11
  6
CONTINUOUS
 62
     7
  5
3CA
 10
962456.857
 20
7287591.116
 30
0.0
 40
8.0
  1
7
 50
71.139733
  7
ROMANS
 72
     1
 11
962457.611168
 21
7287593.323741
 31
0.0
210
0.0
220
0.0
230
1.0
  0
TEXT
  8
11
  6
CONTINUOUS
 62
     7
  5
3CB
 10
962459.768
 20
7287599.639
 30
0.0
 40
8.0
  1
'
 50
71.139733
  7
ROMANS
 72
     1
 11
962460.198907
 21
7287600.900431
 31
0.0
210
0.0
220
0.0
230
1.0
  0
TEXT
  8
11
  6
CONTINUOUS
 62
     7
  5
3CC
 10
962209.915
 20
7287736.877
 30
0.0
 40
8.0
  1
2
 50
23.2241
  7
ROMANS
 72
     1
 11
962212.058956
 21
7287737.796968
 31
0.0
210
0.0
220
0.0
230
1.0
  0
TEXT
  8
11
  6
CONTINUOUS
 62
     7
  5
3CD
 10
962217.093
 20
7287739.958
 30
0.0
 40
8.0
  1
6
 50
23.2241
  7
ROMANS
 72
     1
 11
962219.408803
 21
7287740.951708
 31
0.0
210
0.0
220
0.0
230
1.0
  0
TEXT
  8
11
  6
CONTINUOUS
 62
     7
  5
3CE
 10
962224.618
 20
7287743.187
 30
0.0
 40
8.0
  1
5
 50
23.2241
  7
ROMANS
 72
     1
 11
962226.772065
 21
7287744.111306
 31
0.0
210
0.0
220
0.0
230
1.0
  0
TEXT
  8
11
  6
CONTINUOUS
 62
     7
  5
3CF
 10
962231.971
 20
7287746.341
 30
0.0
 40
8.0
  1
2
 50
23.2241
  7
ROMANS
 72
     1
 11
962234.114956
 21
7287747.260968
 31
0.0
210
0.0
220
0.0
230
1.0
  0
TEXT
  8
11
  6
CONTINUOUS
 62
     7
  5
3D0
 10
962240.277
 20
7287749.906
 30
0.0
 40
8.0
  1
.
 50
23.2241
  7
ROMANS
 72
     1
 11
962241.491878
 21
7287750.427302
 31
0.0
210
0.0
220
0.0
230
1.0
  0
TEXT
  8
11
  6
CONTINUOUS
 62
     7
  5
3D1
 10
962246.674
 20
7287752.651
 30
0.0
 40
8.0
  1
7
 50
23.2241
  7
ROMANS
 72
     1
 11
962248.817956
 21
7287753.570968
 31
0.0
210
0.0
220
0.0
230
1.0
  0
TEXT
  8
11
  6
CONTINUOUS
 62
     7
  5
3D2
 10
962254.025
 20
7287755.805
 30
0.0
 40
8.0
  1
2
 50
23.2241
  7
ROMANS
 72
     1
 11
962256.168956
 21
7287756.724968
 31
0.0
210
0.0
220
0.0
230
1.0
  0
TEXT
  8
11
  6
CONTINUOUS
 62
     7
  5
3D3
 10
962262.304
 20
7287759.358
 30
0.0
 40
8.0
  1
'
 50
23.2241
  7
ROMANS
 72
     1
 11
962263.528986
 21
7287759.88364
 31
0.0
210
0.0
220
0.0
230
1.0
  0
TEXT
  8
11
  6
CONTINUOUS
 62
     7
  5
3D4
 10
963464.325
 20
7288652.949
 30
0.0
 40
8.0
  1
3
 50
358.6026
  7
ROMANS
 72
     1
 11
963466.852401
 21
7288660.889726
 31
0.0
210
0.0
220
0.0
230
1.0
 73
     3
  0
TEXT
  8
11
  6
CONTINUOUS
 62
     7
  5
3D5
 10
963472.323
 20
7288652.753
 30
0.0
 40
8.0
  1
8
 50
358.6026
  7
ROMANS
 72
     1
 11
963474.850401
 21
7288660.693726
 31
0.0
210
0.0
220
0.0
230
1.0
 73
     3
  0
TEXT
  8
11
  6
CONTINUOUS
 62
     7
  5
3D6
 10
963480.32
 20
7288652.559
 30
0.0
 40
8.0
  1
2
 50
358.6026
  7
ROMANS
 72
     1
 11
963482.847401
 21
7288660.499726
 31
0.0
210
0.0
220
0.0
230
1.0
 73
     3
  0
TEXT
  8
11
  6
CONTINUOUS
 62
     7
  5
3D7
 10
963489.358
 20
7288652.338
 30
0.0
 40
8.0
  1
.
 50
358.6026
  7
ROMANS
 72
     1
 11
963490.874701
 21
7288660.303381
 31
0.0
210
0.0
220
0.0
230
1.0
 73
     3
  0
TEXT
  8
11
  6
CONTINUOUS
 62
     7
  5
3D8
 10
963496.316
 20
7288652.168
 30
0.0
 40
8.0
  1
5
 50
358.6026
  7
ROMANS
 72
     1
 11
963498.854397
 21
7288660.108458
 31
0.0
210
0.0
220
0.0
230
1.0
 73
     3
  0
TEXT
  8
11
  6
CONTINUOUS
 62
     7
  5
3D9
 10
963503.998
 20
7288651.981
 30
0.0
 40
8.0
  1
0
 50
358.6026
  7
ROMANS
 72
     1
 11
963506.843306
 21
7288659.913971
 31
0.0
210
0.0
220
0.0
230
1.0
 73
     3
  0
TEXT
  8
11
  6
CONTINUOUS
 62
     7
  5
3DA
 10
963513.319
 20
7288651.754
 30
0.0
 40
8.0
  1
'
 50
358.6026
  7
ROMANS
 72
     1
 11
963514.846698
 21
7288659.719113
 31
0.0
210
0.0
220
0.0
230
1.0
 73
     3
  0
TEXT
  8
11
  6
CONTINUOUS
 62
     7
  5
3DB
 10
963671.682
 20
7288560.635
 30
0.0
 40
8.0
  1
2
 50
268.6026
  7
ROMANS
 72
     1
 11
963679.622726
 21
7288558.107599
 31
0.0
210
0.0
220
0.0
230
1.0
 73
     3
  0
TEXT
  8
11
  6
CONTINUOUS
 62
     7
  5
3DC
 10
963671.487
 20
7288552.637
 30
0.0
 40
8.0
  1
7
 50
268.6026
  7
ROMANS
 72
     1
 11
963679.427726
 21
7288550.109599
 31
0.0
210
0.0
220
0.0
230
1.0
 73
     3
  0
TEXT
  8
11
  6
CONTINUOUS
 62
     7
  5
3DD
 10
963671.293
 20
7288544.639
 30
0.0
 40
8.0
  1
5
 50
268.6026
  7
ROMANS
 72
     1
 11
963679.233458
 21
7288542.100603
 31
0.0
210
0.0
220
0.0
230
1.0
 73
     3
  0
TEXT
  8
11
  6
CONTINUOUS
 62
     7
  5
3DE
 10
963671.072
 20
7288535.602
 30
0.0
 40
8.0
  1
.
 50
268.6026
  7
ROMANS
 72
     1
 11
963679.037381
 21
7288534.085299
 31
0.0
210
0.0
220
0.0
230
1.0
 73
     3
  0
TEXT
  8
11
  6
CONTINUOUS
 62
     7
  5
3DF
 10
963670.91
 20
7288528.959
 30
0.0
 40
8.0
  1
0
 50
268.6026
  7
ROMANS
 72
     1
 11
963678.842971
 21
7288526.113694
 31
0.0
210
0.0
220
0.0
230
1.0
 73
     3
  0
TEXT
  8
11
  6
CONTINUOUS
 62
     7
  5
3E0
 10
963670.707
 20
7288520.646
 30
0.0
 40
8.0
  1
8
 50
268.6026
  7
ROMANS
 72
     1
 11
963678.647726
 21
7288518.118599
 31
0.0
210
0.0
220
0.0
230
1.0
 73
     3
  0
TEXT
  8
11
  6
CONTINUOUS
 62
     7
  5
3E1
 10
963670.488
 20
7288511.641
 30
0.0
 40
8.0
  1
'
 50
268.6026
  7
ROMANS
 72
     1
 11
963678.453113
 21
7288510.113302
 31
0.0
210
0.0
220
0.0
230
1.0
 73
     3
  0
TEXT
  8
11
  6
CONTINUOUS
 62
     7
  5
3E2
 10
963479.619
 20
7288299.467
 30
0.0
 40
8.0
  1
4
 50
23.2241
  7
ROMANS
 72
     1
 11
963481.762956
 21
7288300.386968
 31
0.0
210
0.0
220
0.0
230
1.0
  0
TEXT
  8
11
  6
CONTINUOUS
 62
     7
  5
3E3
 10
963486.969
 20
7288302.622
 30
0.0
 40
8.0
  1
2
 50
23.2241
  7
ROMANS
 72
     1
 11
963489.112956
 21
7288303.541968
 31
0.0
210
0.0
220
0.0
230
1.0
  0
TEXT
  8
11
  6
CONTINUOUS
 62
     7
  5
3E4
 10
963495.248
 20
7288306.175
 30
0.0
 40
8.0
  1
1
 50
23.2241
  7
ROMANS
 72
     1
 11
963496.472986
 21
7288306.70064
 31
0.0
210
0.0
220
0.0
230
1.0
  0
TEXT
  8
11
  6
CONTINUOUS
 62
     7
  5
3E5
 10
963502.629
 20
7288309.341
 30
0.0
 40
8.0
  1
.
 50
23.2241
  7
ROMANS
 72
     1
 11
963503.843878
 21
7288309.862302
 31
0.0
210
0.0
220
0.0
230
1.0
  0
TEXT
  8
11
  6
CONTINUOUS
 62
     7
  5
3E6
 10
963509.025
 20
7288312.086
 30
0.0
 40
8.0
  1
4
 50
23.2241
  7
ROMANS
 72
     1
 11
963511.168956
 21
7288313.005968
 31
0.0
210
0.0
220
0.0
230
1.0
  0
TEXT
  8
11
  6
CONTINUOUS
 62
     7
  5
3E7
 10
963516.377
 20
7288315.241
 30
0.0
 40
8.0
  1
7
 50
23.2241
  7
ROMANS
 72
     1
 11
963518.520956
 21
7288316.160968
 31
0.0
210
0.0
220
0.0
230
1.0
  0
TEXT
  8
11
  6
CONTINUOUS
 62
     7
  5
3E8
 10
963524.655
 20
7288318.793
 30
0.0
 40
8.0
  1
'
 50
23.2241
  7
ROMANS
 72
     1
 11
963525.879986
 21
7288319.31864
 31
0.0
210
0.0
220
0.0
230
1.0
  0
TEXT
  8
11
  6
CONTINUOUS
 62
     7
  5
3E9
 10
963300.465
 20
7288453.708
 30
0.0
 40
8.0
  1
4
 50
268.6026
  7
ROMANS
 72
     1
 11
963300.408106
 21
7288451.375694
 31
0.0
210
0.0
220
0.0
230
1.0
  0
TEXT
  8
11
  6
CONTINUOUS
 62
     7
  5
3EA
 10
963300.269
 20
7288445.711
 30
0.0
 40
8.0
  1
5
 50
268.6026
  7
ROMANS
 72
     1
 11
963300.211837
 21
7288443.367697
 31
0.0
210
0.0
220
0.0
230
1.0
  0
TEXT
  8
11
  6
CONTINUOUS
 62
     7
  5
3EB
 10
963300.05
 20
7288436.706
 30
0.0
 40
8.0
  1
1
 50
268.6026
  7
ROMANS
 72
     1
 11
963300.017492
 21
7288435.373396
 31
0.0
210
0.0
220
0.0
230
1.0
  0
TEXT
  8
11
  6
CONTINUOUS
 62
     7
  5
3EC
 10
963299.854
 20
7288428.676
 30
0.0
 40
8.0
  1
.
 50
268.6026
  7
ROMANS
 72
     1
 11
963299.821761
 21
7288427.354393
 31
0.0
210
0.0
220
0.0
230
1.0
  0
TEXT
  8
11
  6
CONTINUOUS
 62
     7
  5
3ED
 10
963299.684
 20
7288421.718
 30
0.0
 40
8.0
  1
3
 50
268.6026
  7
ROMANS
 72
     1
 11
963299.627106
 21
7288419.385694
 31
0.0
210
0.0
220
0.0
230
1.0
  0
TEXT
  8
11
  6
CONTINUOUS
 62
     7
  5
3EE
 10
963299.489
 20
7288413.72
 30
0.0
 40
8.0
  1
2
 50
268.6026
  7
ROMANS
 72
     1
 11
963299.432106
 21
7288411.387694
 31
0.0
210
0.0
220
0.0
230
1.0
  0
TEXT
  8
11
  6
CONTINUOUS
 62
     7
  5
3EF
 10
963299.27
 20
7288404.715
 30
0.0
 40
8.0
  1
'
 50
268.6026
  7
ROMANS
 72
     1
 11
963299.237492
 21
7288403.382396
 31
0.0
210
0.0
220
0.0
230
1.0
  0
TEXT
  8
11
  6
CONTINUOUS
 62
     7
  5
3F0
 10
963676.057
 20
7288368.524
 30
0.0
 40
8.0
  1
4
 50
23.2241
  7
ROMANS
 72
     1
 11
963675.046328
 21
7288376.795725
 31
0.0
210
0.0
220
0.0
230
1.0
 73
     3
  0
TEXT
  8
11
  6
CONTINUOUS
 62
     7
  5
3F1
 10
963684.335
 20
7288372.077
 30
0.0
 40
8.0
  1
1
 50
23.2241
  7
ROMANS
 72
     1
 11
963682.405359
 21
7288379.954396
 31
0.0
210
0.0
220
0.0
230
1.0
 73
     3
  0
TEXT
  8
11
  6
CONTINUOUS
 62
     7
  5
3F2
 10
963691.717
 20
7288375.244
 30
0.0
 40
8.0
  1
.
 50
23.2241
  7
ROMANS
 72
     1
 11
963689.77725
 21
7288383.117059
 31
0.0
210
0.0
220
0.0
230
1.0
 73
     3
  0
TEXT
  8
11
  6
CONTINUOUS
 62
     7
  5
3F3
 10
963698.112
 20
7288377.988
 30
0.0
 40
8.0
  1
3
 50
23.2241
  7
ROMANS
 72
     1
 11
963697.101328
 21
7288386.259725
 31
0.0
210
0.0
220
0.0
230
1.0
 73
     3
  0
TEXT
  8
11
  6
CONTINUOUS
 62
     7
  5
3F4
 10
963705.465
 20
7288381.143
 30
0.0
 40
8.0
  1
2
 50
23.2241
  7
ROMANS
 72
     1
 11
963704.454328
 21
7288389.414725
 31
0.0
210
0.0
220
0.0
230
1.0
 73
     3
  0
TEXT
  8
11
  6
CONTINUOUS
 62
     7
  5
3F5
 10
963713.742
 20
7288384.695
 30
0.0
 40
8.0
  1
'
 50
23.2241
  7
ROMANS
 72
     1
 11
963711.812359
 21
7288392.572396
 31
0.0
210
0.0
220
0.0
230
1.0
 73
     3
  0
TEXT
  8
11
  6
CONTINUOUS
 62
     7
  5
3F6
 10
963687.23
 20
7288642.777
 30
0.0
 40
8.0
  1
37.5'
 50
358.6026
  7
ROMANS
210
0.0
220
0.0
230
1.0
  0
TEXT
  8
15
  6
CONTINUOUS
 62
    30
  5
3F7
 10
958907.366
 20
7287085.487
 30
0.0
 40
50.0
  1

 50
28.6026
  7
ROMANC
 72
     4
 11
958907.366
 21
7287085.487
 31
0.0
210
0.0
220
0.0
230
1.0
  0
TEXT
  8
15
  6
CONTINUOUS
 62
    30
  5
3F8
 10
963432.392
 20
7288342.135
 30
0.0
 40
30.0
  1

 50
28.6026
  7
ROMANC
 72
     4
 11
963432.392
 21
7288342.135
 31
0.0
210
0.0
220
0.0
230
1.0
  0
TEXT
  8
19
  6
CONTINUOUS
 62
     1
  5
3F9
 10
958364.458
 20
7283600.338
 30
0.0
 40
24.0
  1
NORTH MARTIN LUTHER KING, JR. BOULEVARD
 50
88.6026
  7
ROMANC
 72
     4
 11
958364.475293
 21
7284093.116132
 31
0.0
210
0.0
220
0.0
230
1.0
  0
TEXT
  8
11
  6
CONTINUOUS
 62
     7
  5
3FA
 10
958518.044
 20
7288097.362
 30
0.0
 40
8.0
  1
1016.54'
 50
88.6026
  7
ROMANS
 72
     4
 11
958514.760528
 21
7288126.783824
 31
0.0
210
0.0
220
0.0
230
1.0
  0
TEXT
  8
11
  6
CONTINUOUS
 62
     7
  5
3FB
 10
959558.386
 20
7286790.775
 30
0.0
 40
8.0
  1
4
 50
343.569297
  7
ROMANS
 72
     1
 11
959560.623726
 21
7286790.115098
 31
0.0
210
0.0
220
0.0
230
1.0
  0
TEXT
  8
11
  6
CONTINUOUS
 62
     7
  5
3FC
 10
959565.999
 20
7286788.53
 30
0.0
 40
8.0
  1
1
 50
343.569297
  7
ROMANS
 72
     1
 11
959567.277564
 21
7286788.152954
 31
0.0
210
0.0
220
0.0
230
1.0
  0
TEXT
  8
11
  6
CONTINUOUS
 62
     7
  5
3FD
 10
959573.612
 20
7286786.285
 30
0.0
 40
8.0
  1
8
 50
343.569297
  7
ROMANS
 72
     1
 11
959575.849726
 21
7286785.625098
 31
0.0
210
0.0
220
0.0
230
1.0
  0
TEXT
  8
11
  6
CONTINUOUS
 62
     7
  5
3FE
 10
959581.224
 20
7286784.04
 30
0.0
 40
8.0
  1
'
 50
343.569297
  7
ROMANS
 72
     1
 11
959582.502564
 21
7286783.662954
 31
0.0
210
0.0
220
0.0
230
1.0
  0
TEXT
  8
11
  6
CONTINUOUS
 62
     7
  5
3FF
 10
958539.205
 20
7288745.603
 30
0.0
 40
8.0
  1
60'
 50
88.6026
  7
ROMANS
 72
     4
 11
958535.433792
 21
7288755.030772
 31
0.0
210
0.0
220
0.0
230
1.0
  0
TEXT
  8
11
  6
CONTINUOUS
 62
     7
  5
400
 10
958962.506
 20
7288702.029
 30
0.0
 40
8.0
  1
919.69'
 50
358.6026
  7
ROMANS
 72
     4
 11
958987.929013
 21
7288705.410019
 31
0.0
210
0.0
220
0.0
230
1.0
  0
TEXT
  8
11
  6
CONTINUOUS
 62
     7
  5
401
 10
961010.511
 20
7288703.449
 30
0.0
 40
8.0
  1
4781.15'
 50
358.6026
  7
ROMANS
 72
     4
 11
961039.932824
 21
7288706.732472
 31
0.0
210
0.0
220
0.0
230
1.0
  0
TEXT
  8
11
  6
CONTINUOUS
 62
     7
  5
402
 10
960047.363
 20
7286713.852
 30
0.0
 40
8.0
  1
2
 50
23.227972
  7
ROMANS
 72
     1
 11
960046.351769
 21
7286722.123656
 31
0.0
210
0.0
220
0.0
230
1.0
 73
     3
  0
TEXT
  8
11
  6
CONTINUOUS
 62
     7
  5
403
 10
960054.658
 20
7286716.983
 30
0.0
 40
8.0
  1
1
 50
23.227972
  7
ROMANS
 72
     1
 11
960052.727826
 21
7286724.860266
 31
0.0
210
0.0
220
0.0
230
1.0
 73
     3
  0
TEXT
  8
11
  6
CONTINUOUS
 62
     7
  5
404
 10
960061.951
 20
7286720.113
 30
0.0
 40
8.0
  1
8
 50
23.227972
  7
ROMANS
 72
     1
 11
960060.939769
 21
7286728.384656
 31
0.0
210
0.0
220
0.0
230
1.0
 73
     3
  0
TEXT
  8
11
  6
CONTINUOUS
 62
     7
  5
405
 10
960069.246
 20
7286723.245
 30
0.0
 40
8.0
  1
.
 50
23.227972
  7
ROMANS
 72
     1
 11
960067.305718
 21
7286731.117928
 31
0.0
210
0.0
220
0.0
230
1.0
 73
     3
  0
TEXT
  8
11
  6
CONTINUOUS
 62
     7
  5
406
 10
960076.537
 20
7286726.374
 30
0.0
 40
8.0
  1
4
 50
23.227972
  7
ROMANS
 72
     1
 11
960075.525769
 21
7286734.645656
 31
0.0
210
0.0
220
0.0
230
1.0
 73
     3
  0
TEXT
  8
11
  6
CONTINUOUS
 62
     7
  5
407
 10
960083.832
 20
7286729.504
 30
0.0
 40
8.0
  1
2
 50
23.227972
  7
ROMANS
 72
     1
 11
960082.820769
 21
7286737.775656
 31
0.0
210
0.0
220
0.0
230
1.0
 73
     3
  0
TEXT
  8
11
  6
CONTINUOUS
 62
     7
  5
408
 10
960091.126
 20
7286732.634
 30
0.0
 40
8.0
  1
'
 50
23.227972
  7
ROMANS
 72
     1
 11
960089.195826
 21
7286740.511266
 31
0.0
210
0.0
220
0.0
230
1.0
 73
     3
  0
TEXT
  8
11
  6
CONTINUOUS
 62
     7
  5
409
 10
960034.173
 20
7286821.033
 30
0.0
 40
8.0
  1
1
 50
23.224092
  7
ROMANS
 72
     1
 11
960035.397986
 21
7286821.55864
 31
0.0
210
0.0
220
0.0
230
1.0
  0
TEXT
  8
11
  6
CONTINUOUS
 62
     7
  5
40A
 10
960041.468
 20
7286824.162
 30
0.0
 40
8.0
  1
5
 50
23.224092
  7
ROMANS
 72
     1
 11
960043.622065
 21
7286825.086306
 31
0.0
210
0.0
220
0.0
230
1.0
  0
TEXT
  8
11
  6
CONTINUOUS
 62
     7
  5
40B
 10
960048.763
 20
7286827.291
 30
0.0
 40
8.0
  1
7
 50
23.224092
  7
ROMANS
 72
     1
 11
960050.906956
 21
7286828.210968
 31
0.0
210
0.0
220
0.0
230
1.0
  0
TEXT
  8
11
  6
CONTINUOUS
 62
     7
  5
40C
 10
960056.056
 20
7286830.422
 30
0.0
 40
8.0
  1
.
 50
23.224092
  7
ROMANS
 72
     1
 11
960057.270878
 21
7286830.943302
 31
0.0
210
0.0
220
0.0
230
1.0
  0
TEXT
  8
11
  6
CONTINUOUS
 62
     7
  5
40D
 10
960063.349
 20
7286833.552
 30
0.0
 40
8.0
  1
4
 50
23.224092
  7
ROMANS
 72
     1
 11
960065.492956
 21
7286834.471968
 31
0.0
210
0.0
220
0.0
230
1.0
  0
TEXT
  8
11
  6
CONTINUOUS
 62
     7
  5
40E
 10
960070.644
 20
7286836.68
 30
0.0
 40
8.0
  1
4
 50
23.224092
  7
ROMANS
 72
     1
 11
960072.787956
 21
7286837.599968
 31
0.0
210
0.0
220
0.0
230
1.0
  0
TEXT
  8
11
  6
CONTINUOUS
 62
     7
  5
40F
 10
960077.937
 20
7286839.81
 30
0.0
 40
8.0
  1
'
 50
23.224092
  7
ROMANS
 72
     1
 11
960079.161986
 21
7286840.33564
 31
0.0
210
0.0
220
0.0
230
1.0
  0
TEXT
  8
11
  6
CONTINUOUS
 62
     7
  5
410
 10
963519.498
 20
7288204.02
 30
0.0
 40
8.0
  1
4
 50
23.227953
  7
ROMANS
 72
     1
 11
963518.486772
 21
7288212.291657
 31
0.0
210
0.0
220
0.0
230
1.0
 73
     3
  0
TEXT
  8
11
  6
CONTINUOUS
 62
     7
  5
411
 10
963526.792
 20
7288207.15
 30
0.0
 40
8.0
  1
0
 50
23.227953
  7
ROMANS
 72
     1
 11
963526.072996
 21
7288215.547073
 31
0.0
210
0.0
220
0.0
230
1.0
 73
     3
  0
TEXT
  8
11
  6
CONTINUOUS
 62
     7
  5
412
 10
963534.086
 20
7288210.28
 30
0.0
 40
8.0
  1
7
 50
23.227953
  7
ROMANS
 72
     1
 11
963533.074772
 21
7288218.551657
 31
0.0
210
0.0
220
0.0
230
1.0
 73
     3
  0
TEXT
  8
11
  6
CONTINUOUS
 62
     7
  5
413
 10
963541.381
 20
7288213.412
 30
0.0
 40
8.0
  1
.
 50
23.227953
  7
ROMANS
 72
     1
 11
963539.44072
 21
7288221.284928
 31
0.0
210
0.0
220
0.0
230
1.0
 73
     3
  0
TEXT
  8
11
  6
CONTINUOUS
 62
     7
  5
414
 10
963548.672
 20
7288216.541
 30
0.0
 40
8.0
  1
4
 50
23.227953
  7
ROMANS
 72
     1
 11
963547.660772
 21
7288224.812657
 31
0.0
210
0.0
220
0.0
230
1.0
 73
     3
  0
TEXT
  8
11
  6
CONTINUOUS
 62
     7
  5
415
 10
963555.967
 20
7288219.671
 30
0.0
 40
8.0
  1
'
 50
23.227953
  7
ROMANS
 72
     1
 11
963554.036829
 21
7288227.548267
 31
0.0
210
0.0
220
0.0
230
1.0
 73
     3
  0
TEXT
  8
11
  6
CONTINUOUS
 62
     7
  5
417
 10
958438.941
 20
7285144.742
 30
0.0
 40
10.0
  1
1373.89'
 50
88.6026
  7
MONOTXT
 11
958428.943974
 21
7285144.985868
 31
0.0
210
0.0
220
0.0
230
1.0
 73
     3
  0
TEXT
  8
11
  6
CONTINUOUS
 62
     7
  5
418
 10
963669.237
 20
7286363.029
 30
0.0
 40
8.0
  1
4064.65'
 50
88.6026
  7
ROMANS
 72
     4
 11
963665.953528
 21
7286392.450824
 31
0.0
210
0.0
220
0.0
230
1.0
  0
LINE
  8
21
  6
DASHDOT
 62
     7
  5
41A
 10
963664.58
 20
7288659.067
 30
0.0
 11
963659.366
 21
7288445.31
 31
0.0
  0
LINE
  8
21
  6
DASHDOT
 62
     7
  5
41B
 10
963659.366
 20
7288445.31
 30
0.0
 11
961021.088
 21
7287313.228
 31
0.0
  0
LINE
  8
21
  6
DASHDOT
 62
     7
  5
41C
 10
961021.088
 20
7287313.228
 30
0.0
 11
960994.494
 21
7287375.202
 31
0.0
  0
LINE
  8
21
  6
DASHDOT
 62
     7
  5
41D
 10
960994.494
 20
7287375.202
 30
0.0
 11
959968.888
 21
7286935.115
 31
0.0
  0
LINE
  8
21
  6
DASHDOT
 62
     7
  5
41E
 10
960586.501
 20
7287079.688
 30
0.0
 11
960569.96
 21
7287118.238
 31
0.0
  0
LINE
  8
21
  6
DASHDOT
 62
     7
  5
41F
 10
960569.96
 20
7287118.238
 30
0.0
 11
959988.915
 21
7286868.919
 31
0.0
  0
LINE
  8
21
  6
DASHDOT
 62
     7
  5
420
 10
959968.888
 20
7286935.115
 30
0.0
 11
959988.915
 21
7286868.919
 31
0.0
  0
LINE
  8
21
  6
DASHDOT
 62
     7
  5
421
 10
963691.364
 20
7288289.751
 30
0.0
 11
963635.007
 21
7285979.447
 31
0.0
  0
LINE
  8
21
  6
DASHDOT
 62
     7
  5
422
 10
963659.017
 20
7288275.868
 30
0.0
 11
963602.236
 21
7285948.236
 31
0.0
  0
LINE
  8
21
  6
DASHDOT
 62
     7
  5
423
 10
963635.007
 20
7285979.447
 30
0.0
 11
963662.918
 21
7285978.765
 31
0.0
  0
LINE
  8
21
  6
DASHDOT
 62
     7
  5
424
 10
963602.236
 20
7285948.236
 30
0.0
 11
963662.138
 21
7285946.775
 31
0.0
  0
ARC
  8
21
  6
DASHDOT
 62
     7
  5
425
 10
963972.670534
 20
7287797.486639
 30
0.0
 40
641.8
 50
159.06625
 51
178.6026
210
0.0
220
0.0
230
1.0
  0
LINE
  8
21
  6
DASHDOT
 62
     7
  5
426
 10
963323.504
 20
7287503.327
 30
0.0
 11
963331.062
 21
7287813.138
 31
0.0
  0
POLYLINE
  8
21
  6
DASHDOT
 62
     7
  5
427
 66
     1
 10
0.0
 20
0.0
 30
0.0
  0
VERTEX
  8
21
  6
DASHDOT
 62
     7
  5
428
 10
963030.23
 20
7286953.549
 30
0.0
  0
VERTEX
  8
21
  6
DASHDOT
 62
     7
  5
429
 10
962942.086
 20
7287138.05
 30
0.0
  0
VERTEX
  8
21
  6
DASHDOT
 62
     7
  5
42A
 10
962946.9
 20
7287335.417
 30
0.0
  0
VERTEX
  8
21
  6
DASHDOT
 62
     7
  5
42B
 10
963323.504
 20
7287503.327
 30
0.0
  0
SEQEND
  8
21
  6
DASHDOT
 62
     7
  5
42C
  0
ARC
  8
21
  6
DASHDOT
 62
     7
  5
42D
 10
963323.243259
 20
7286719.521511
 30
0.0
 40
375.0
 50
141.385886
 51
178.6026
210
0.0
220
0.0
230
1.0
  0
LINE
  8
21
  6
DASHDOT
 62
     7
  5
42E
 10
962943.233
 20
7286518.729
 30
0.0
 11
962948.355
 21
7286728.666
 31
0.0
  0
ARC
  8
21
  6
DASHDOT
 62
     7
  5
42F
 10
962381.756997
 20
7286530.064461
 30
0.0
 40
561.59
 50
335.652617
 51
358.808631
210
0.0
220
0.0
230
1.0
  0
LINE
  8
21
  6
DASHDOT
 62
     7
  5
430
 10
962893.401
 20
7286298.54
 30
0.0
 11
962835.684
 21
7286170.991
 31
0.0
  0
POLYLINE
  8
21
  6
DASHDOT
 62
     7
  5
431
 66
     1
 10
0.0
 20
0.0
 30
0.0
  0
VERTEX
  8
21
  6
DASHDOT
 62
     7
  5
432
 10
962835.684
 20
7286170.991
 30
0.0
  0
VERTEX
  8
21
  6
DASHDOT
 62
     7
  5
433
 10
962354.187
 20
7286388.875
 30
0.0
  0
VERTEX
  8
21
  6
DASHDOT
 62
     7
  5
434
 10
962377.604
 20
7286440.624
 30
0.0
  0
SEQEND
  8
21
  6
DASHDOT
 62
     7
  5
435
  0
POLYLINE
  8
21
  6
DASHDOT
 62
     7
  5
436
 66
     1
 10
0.0
 20
0.0
 30
0.0
  0
VERTEX
  8
21
  6
DASHDOT
 62
     7
  5
437
 10
962335.966
 20
7286397.12
 30
0.0
  0
VERTEX
  8
21
  6
DASHDOT
 62
     7
  5
438
 10
962261.715
 20
7286430.721
 30
0.0
  0
VERTEX
  8
21
  6
DASHDOT
 62
     7
  5
439
 10
962112.577
 20
7286101.144
 30
0.0
  0
VERTEX
  8
21
  6
DASHDOT
 62
     7
  5
43A
 10
961644.454
 20
7286112.564
 30
0.0
  0
VERTEX
  8
21
  6
DASHDOT
 62
     7
  5
43B
 10
961771.468
 20
7286393.248
 30
0.0
  0
VERTEX
  8
21
  6
DASHDOT
 62
     7
  5
43C
 10
961423.87
 20
7287174.486
 30
0.0
  0
SEQEND
  8
21
  6
DASHDOT
 62
     7
  5
43D
  0
LINE
  8
21
  6
DASHDOT
 62
     7
  5
43E
 10
961644.454
 20
7286112.564
 30
0.0
 11
961525.577
 21
7285849.858
 31
0.0
  0
TEXT
  8
22
  6
CONTINUOUS
 62
     3
  5
440
 10
961803.44
 20
7287608.744
 30
0.0
 40
8.0
  1
C.R.M.W.A.   EASEMENT
 50
22.916756
  7
ROMANS
210
0.0
220
0.0
230
1.0
  0
TEXT
  8
22
  6
CONTINUOUS
 62
     3
  5
441
 10
962916.899
 20
7286381.02
 30
0.0
 40
8.0
  1
 
 50
74.35665
  7
ROMANS
 72
     1
 11
962917.617883
 21
7286383.587248
 31
0.0
210
0.0
220
0.0
230
1.0
  0
TEXT
  8
22
  6
CONTINUOUS
 62
     3
  5
442
 10
962919.029
 20
7286388.522
 30
0.0
 40
8.0
  1
 
 50
76.290881
  7
ROMANS
 72
     1
 11
962919.660823
 21
7286391.112049
 31
0.0
210
0.0
220
0.0
230
1.0
  0
TEXT
  8
22
  6
CONTINUOUS
 62
     3
  5
443
 10
962920.925
 20
7286396.294
 30
0.0
 40
8.0
  1
 
 50
76.290881
  7
ROMANS
 72
     1
 11
962921.556823
 21
7286398.884049
 31
0.0
210
0.0
220
0.0
230
1.0
  0
TEXT
  8
22
  6
CONTINUOUS
 62
     3
  5
444
 10
962922.896
 20
7286403.841
 30
0.0
 40
8.0
  1
 
 50
78.225111
  7
ROMANS
 72
     1
 11
962923.440043
 21
7286406.450899
 31
0.0
210
0.0
220
0.0
230
1.0
  0
TEXT
  8
22
  6
CONTINUOUS
 62
     3
  5
445
 10
962958.689
 20
7286829.978
 30
0.0
 40
8.0
  1
 
 50
73.216872
  7
ROMANS
 72
     1
 11
962959.458807
 21
7286832.530441
 31
0.0
210
0.0
220
0.0
230
1.0
  0
TEXT
  8
22
  6
CONTINUOUS
 62
     3
  5
446
 10
962961.105
 20
7286837.862
 30
0.0
 40
8.0
  1
 
 50
70.849836
  7
ROMANS
 72
     1
 11
962961.979568
 21
7286840.380469
 31
0.0
210
0.0
220
0.0
230
1.0
  0
TEXT
  8
22
  6
CONTINUOUS
 62
     3
  5
447
 10
962963.729
 20
7286845.419
 30
0.0
 40
8.0
  1
 
 50
70.849836
  7
ROMANS
 72
     1
 11
962964.603568
 21
7286847.937469
 31
0.0
210
0.0
220
0.0
230
1.0
  0
TEXT
  8
22
  6
CONTINUOUS
 62
     3
  5
448
 10
962966.488
 20
7286853.192
 30
0.0
 40
8.0
  1
 
 50
68.4828
  7
ROMANS
 72
     1
 11
962967.465837
 21
7286855.6722
 31
0.0
210
0.0
220
0.0
230
1.0
  0
TEXT
  8
22
  6
CONTINUOUS
 62
     3
  5
449
 10
962218.59
 20
7286301.461
 30
0.0
 40
8.0
  1
 
 50
65.652658
  7
ROMANS
 72
     1
 11
962212.400601
 21
7286307.188032
 31
0.0
210
0.0
220
0.0
230
1.0
 73
     3
  0
TEXT
  8
22
  6
CONTINUOUS
 62
     3
  5
44A
 10
962221.887
 20
7286308.75
 30
0.0
 40
8.0
  1
 
 50
65.652658
  7
ROMANS
 72
     1
 11
962215.697601
 21
7286314.477032
 31
0.0
210
0.0
220
0.0
230
1.0
 73
     3
  0
TEXT
  8
22
  6
CONTINUOUS
 62
     3
  5
44B
 10
962225.186
 20
7286316.037
 30
0.0
 40
8.0
  1
 
 50
65.652658
  7
ROMANS
 72
     1
 11
962218.996601
 21
7286321.764032
 31
0.0
210
0.0
220
0.0
230
1.0
 73
     3
  0
TEXT
  8
22
  6
CONTINUOUS
 62
     3
  5
44C
 10
961851.492
 20
7286093.509
 30
0.0
 40
8.0
  1
 
 50
358.6026
  7
ROMANS
 72
     1
 11
961854.352302
 21
7286101.441606
 31
0.0
210
0.0
220
0.0
230
1.0
 73
     3
  0
TEXT
  8
22
  6
CONTINUOUS
 62
     3
  5
44D
 10
961859.49
 20
7286093.313
 30
0.0
 40
8.0
  1
 
 50
358.6026
  7
ROMANS
 72
     1
 11
961862.350302
 21
7286101.245606
 31
0.0
210
0.0
220
0.0
230
1.0
 73
     3
  0
TEXT
  8
22
  6
CONTINUOUS
 62
     3
  5
44E
 10
961867.487
 20
7286093.118
 30
0.0
 40
8.0
  1
 
 50
358.6026
  7
ROMANS
 72
     1
 11
961870.347302
 21
7286101.050606
 31
0.0
210
0.0
220
0.0
230
1.0
 73
     3
  0
TEXT
  8
22
  6
CONTINUOUS
 62
     3
  5
44F
 10
961875.485
 20
7286092.924
 30
0.0
 40
8.0
  1
 
 50
358.6026
  7
ROMANS
 72
     1
 11
961878.345302
 21
7286100.856606
 31
0.0
210
0.0
220
0.0
230
1.0
 73
     3
  0
TEXT
  8
22
  6
CONTINUOUS
 62
     3
  5
450
 10
961542.66
 20
7285902.164
 30
0.0
 40
8.0
  1
 
 50
65.652553
  7
ROMANS
 72
     1
 11
961543.759109
 21
7285904.592892
 31
0.0
210
0.0
220
0.0
230
1.0
  0
TEXT
  8
22
  6
CONTINUOUS
 62
     3
  5
451
 10
961545.958
 20
7285909.452
 30
0.0
 40
8.0
  1
 
 50
65.652553
  7
ROMANS
 72
     1
 11
961547.057109
 21
7285911.880892
 31
0.0
210
0.0
220
0.0
230
1.0
  0
TEXT
  8
22
  6
CONTINUOUS
 62
     3
  5
452
 10
961549.255
 20
7285916.739
 30
0.0
 40
8.0
  1
 
 50
65.652553
  7
ROMANS
 72
     1
 11
961550.354109
 21
7285919.167892
 31
0.0
210
0.0
220
0.0
230
1.0
  0
TEXT
  8
22
  6
CONTINUOUS
 62
     3
  5
453
 10
961720.227
 20
7286294.565
 30
0.0
 40
8.0
  1
 
 50
65.6526
  7
ROMANS
 72
     1
 11
961721.326107
 21
7286296.993893
 31
0.0
210
0.0
220
0.0
230
1.0
  0
TEXT
  8
22
  6
CONTINUOUS
 62
     3
  5
454
 10
961723.524
 20
7286301.852
 30
0.0
 40
8.0
  1
 
 50
65.6526
  7
ROMANS
 72
     1
 11
961724.623107
 21
7286304.280893
 31
0.0
210
0.0
220
0.0
230
1.0
  0
TEXT
  8
22
  6
CONTINUOUS
 62
     3
  5
455
 10
961726.822
 20
7286309.141
 30
0.0
 40
8.0
  1
 
 50
65.6526
  7
ROMANS
 72
     1
 11
961727.921107
 21
7286311.569893
 31
0.0
210
0.0
220
0.0
230
1.0
  0
TEXT
  8
22
  6
CONTINUOUS
 62
     3
  5
456
 10
961644.734
 20
7286643.646
 30
0.0
 40
8.0
  1
 
 50
293.985878
  7
ROMANS
 72
     1
 11
961653.126925
 21
7286644.462312
 31
0.0
210
0.0
220
0.0
230
1.0
 73
     3
  0
TEXT
  8
22
  6
CONTINUOUS
 62
     3
  5
457
 10
961647.986
 20
7286636.337
 30
0.0
 40
8.0
  1
 
 50
293.985878
  7
ROMANS
 72
     1
 11
961656.378925
 21
7286637.153312
 31
0.0
210
0.0
220
0.0
230
1.0
 73
     3
  0
TEXT
  8
22
  6
CONTINUOUS
 62
     3
  5
458
 10
961651.238
 20
7286629.028
 30
0.0
 40
8.0
  1
 
 50
293.985878
  7
ROMANS
 72
     1
 11
961659.630925
 21
7286629.844312
 31
0.0
210
0.0
220
0.0
230
1.0
 73
     3
  0
TEXT
  8
22
  6
CONTINUOUS
 62
     3
  5
459
 10
961493.34
 20
7286983.91
 30
0.0
 40
8.0
  1
 
 50
293.985878
  7
ROMANS
 72
     1
 11
961501.732925
 21
7286984.726312
 31
0.0
210
0.0
220
0.0
230
1.0
 73
     3
  0
TEXT
  8
22
  6
CONTINUOUS
 62
     3
  5
45A
 10
961496.591
 20
7286976.601
 30
0.0
 40
8.0
  1
 
 50
293.985878
  7
ROMANS
 72
     1
 11
961504.983925
 21
7286977.417312
 31
0.0
210
0.0
220
0.0
230
1.0
 73
     3
  0
LINE
  8
21
  6
DASHDOT
 62
     7
  5
45B
 10
961489.178
 20
7287148.825
 30
0.0
 11
961425.92
 21
7287120.679
 31
0.0
  0
LINE
  8
21
  6
DASHDOT
 62
     7
  5
45C
 10
961489.178
 20
7287148.825
 30
0.0
 11
961467.171
 21
7287198.286
 31
0.0
  0
LINE
  8
21
  6
DASHDOT
 62
     7
  5
45D
 10
962734.348
 20
7285898.538
 30
0.0
 11
961886.56
 21
7286282.173
 31
0.0
  0
LINE
  8
21
  6
DASHDOT
 62
     7
  5
45E
 10
961886.56
 20
7286282.173
 30
0.0
 11
961475.952
 21
7287205.029
 31
0.0
  0
LINE
  8
21
  6
DASHDOT
 62
     7
  5
45F
 10
962693.121
 20
7285807.431
 30
0.0
 11
961762.747
 21
7286228.437
 31
0.0
  0
LINE
  8
21
  6
DASHDOT
 62
     7
  5
460
 10
961762.747
 20
7286228.437
 30
0.0
 11
961580.24
 21
7285825.123
 31
0.0
  0
TEXT
  8
22
  6
CONTINUOUS
 62
     3
  5
461
 10
962216.261
 20
7286247.803
 30
0.0
 40
8.0
  1
2
 50
65.652639
  7
ROMANS
 72
     1
 11
962209.934318
 21
7286253.22665
 31
0.0
210
0.0
220
0.0
230
1.0
 73
     3
  0
TEXT
  8
22
  6
CONTINUOUS
 62
     3
  5
462
 10
962219.559
 20
7286255.092
 30
0.0
 40
8.0
  1
7
 50
65.652639
  7
ROMANS
 72
     1
 11
962213.232318
 21
7286260.51565
 31
0.0
210
0.0
220
0.0
230
1.0
 73
     3
  0
TEXT
  8
22
  6
CONTINUOUS
 62
     3
  5
463
 10
962222.728
 20
7286262.093
 30
0.0
 40
8.0
  1
0
 50
65.652639
  7
ROMANS
 72
     1
 11
962216.532419
 21
7286267.806368
 31
0.0
210
0.0
220
0.0
230
1.0
 73
     3
  0
TEXT
  8
22
  6
CONTINUOUS
 62
     3
  5
464
 10
962226.571
 20
7286270.587
 30
0.0
 40
8.0
  1
'
 50
65.652639
  7
ROMANS
 72
     1
 11
962219.83205
 21
7286275.099587
 31
0.0
210
0.0
220
0.0
230
1.0
 73
     3
  0
TEXT
  8
22
  6
CONTINUOUS
 62
     3
  5
465
 10
961501.152
 20
7287058.484
 30
0.0
 40
8.0
  1
 
 50
293.985878
  7
ROMANS
 72
     1
 11
961502.23576
 21
7287056.048221
 31
0.0
210
0.0
220
0.0
230
1.0
  0
TEXT
  8
22
  6
CONTINUOUS
 62
     3
  5
466
 10
961504.406
 20
7287051.175
 30
0.0
 40
8.0
  1
 
 50
293.985878
  7
ROMANS
 72
     1
 11
961505.48976
 21
7287048.739221
 31
0.0
210
0.0
220
0.0
230
1.0
  0
LINE
  8
21
  6
DASHDOT
 62
     7
  5
467
 10
962344.574
 20
7286371.272
 30
0.0
 11
961998.116
 21
7285605.638
 31
0.0
  0
LINE
  8
21
  6
DASHDOT
 62
     7
  5
468
 10
962352.319
 20
7286367.769
 30
0.0
 11
962046.937
 21
7285692.911
 31
0.0
  0
LINE
  8
21
  6
DASHDOT
 62
     7
  5
469
 10
962336.83
 20
7286374.776
 30
0.0
 11
962031.451
 21
7285699.919
 31
0.0
  0
LINE
  8
21
  6
DASHDOT
 62
     7
  5
46A
 10
962031.451
 20
7285699.919
 30
0.0
 11
962046.937
 21
7285692.911
 31
0.0
  0
LINE
  8
21
  6
DASHDOT
 62
     7
  5
46B
 10
962099.274
 20
7286113.076
 30
0.0
 11
963665.264
 21
7286074.875
 31
0.0
  0
LINE
  8
21
  6
DASHDOT
 62
     7
  5
46C
 10
958387.424
 20
7286172.402
 30
0.0
 11
963665.854
 21
7286043.64
 31
0.0
  0
LINE
  8
21
  6
DASHDOT
 62
     7
  5
46D
 10
958388.157
 20
7286202.393
 30
0.0
 11
961632.474
 21
7286123.252
 31
0.0
  0
POLYLINE
  8
21
  6
DASHDOT
 62
     7
  5
46E
 66
     1
 10
0.0
 20
0.0
 30
0.0
 70
     1
  0
VERTEX
  8
21
  6
DASHDOT
 62
     7
  5
46F
 10
962914.362
 20
7286864.664
 30
0.0
  0
VERTEX
  8
21
  6
DASHDOT
 62
     7
  5
470
 10
962874.374
 20
7286865.639
 30
0.0
  0
VERTEX
  8
21
  6
DASHDOT
 62
     7
  5
471
 10
962873.398
 20
7286825.651
 30
0.0
  0
VERTEX
  8
21
  6
DASHDOT
 62
     7
  5
472
 10
962913.386
 20
7286824.676
 30
0.0
  0
SEQEND
  8
21
  6
DASHDOT
 62
     7
  5
473
  0
CIRCLE
  8
21
  6
DASHDOT
 62
     7
  5
474
 10
962893.879431
 20
7286845.157691
 30
0.0
 40
5.670729
210
0.0
220
0.0
230
1.0
  0
LINE
  8
21
  6
DASHDOT
 62
     7
  5
475
 10
962914.362
 20
7286864.664
 30
0.0
 11
962976.824
 21
7286863.112
 31
0.0
  0
LINE
  8
21
  6
DASHDOT
 62
     7
  5
476
 10
962913.865
 20
7286844.67
 30
0.0
 11
962969.258
 21
7286843.294
 31
0.0
  0
LINE
  8
21
  6
DASHDOT
 62
     7
  5
477
 10
958500.281
 20
7287715.251
 30
0.0
 11
959834.288
 21
7287321.854
 31
0.0
  0
LINE
  8
21
  6
DASHDOT
 62
     7
  5
478
 10
958497.199
 20
7287695.307
 30
0.0
 11
959840.777
 21
7287299.088
 31
0.0
  0
LINE
  8
21
  6
DASHDOT
 62
     7
  5
479
 10
959363.398
 20
7286866.001
 30
0.0
 11
958711.168
 21
7287058.342
 31
0.0
  0
LINE
  8
21
  6
DASHDOT
 62
     7
  5
47A
 10
958494.525
 20
7287585.695
 30
0.0
 11
958711.168
 21
7287058.342
 31
0.0
  0
LINE
  8
21
  6
DASHDOT
 62
     7
  5
47B
 10
958503.224
 20
7287511.889
 30
0.0
 11
958696.313
 21
7287041.872
 31
0.0
  0
TEXT
  8
22
  6
CONTINUOUS
 62
     3
  5
47C
 10
959100.685
 20
7287544.447
 30
0.0
 40
8.0
  1
 
 50
343.569272
  7
ROMANS
 72
     1
 11
959103.242127
 21
7287543.692906
 31
0.0
210
0.0
220
0.0
230
1.0
  0
TEXT
  8
22
  6
CONTINUOUS
 62
     3
  5
47D
 10
959108.358
 20
7287542.185
 30
0.0
 40
8.0
  1
 
 50
343.569272
  7
ROMANS
 72
     1
 11
959110.915127
 21
7287541.430906
 31
0.0
210
0.0
220
0.0
230
1.0
  0
TEXT
  8
22
  6
CONTINUOUS
 62
     3
  5
47E
 10
959177.417
 20
7287521.819
 30
0.0
 40
8.0
  1
 
 50
343.569272
  7
ROMANS
 72
     1
 11
959179.974127
 21
7287521.064906
 31
0.0
210
0.0
220
0.0
230
1.0
  0
TEXT
  8
22
  6
CONTINUOUS
 62
     3
  5
47F
 10
958927.943
 20
7287000.671
 30
0.0
 40
8.0
  1
 
 50
343.569269
  7
ROMANS
 72
     1
 11
958930.500127
 21
7286999.916906
 31
0.0
210
0.0
220
0.0
230
1.0
  0
TEXT
  8
22
  6
CONTINUOUS
 62
     3
  5
480
 10
959004.676
 20
7286978.042
 30
0.0
 40
8.0
  1
 
 50
343.569269
  7
ROMANS
 72
     1
 11
959007.233127
 21
7286977.287906
 31
0.0
210
0.0
220
0.0
230
1.0
  0
TEXT
  8
22
  6
CONTINUOUS
 62
     3
  5
481
 10
958572.606
 20
7287358.788
 30
0.0
 40
8.0
  1
 
 50
292.333486
  7
ROMANS
 72
     1
 11
958581.018974
 21
7287359.361957
 31
0.0
210
0.0
220
0.0
230
1.0
 73
     3
  0
TEXT
  8
22
  6
CONTINUOUS
 62
     3
  5
482
 10
958627.325
 20
7287225.59
 30
0.0
 40
8.0
  1
 
 50
292.333486
  7
ROMANS
 72
     1
 11
958635.737974
 21
7287226.163957
 31
0.0
210
0.0
220
0.0
230
1.0
 73
     3
  0
LINE
  8
21
  6
DASHDOT
 62
     7
  5
483
 10
958450.788
 20
7286115.12
 30
0.0
 11
958581.371
 21
7286604.768
 31
0.0
  0
LINE
  8
21
  6
DASHDOT
 62
     7
  5
484
 10
958474.163
 20
7286125.15
 30
0.0
 11
958600.625
 21
7286599.349
 31
0.0
  0
TEXT
  8
22
  6
CONTINUOUS
 62
     3
  5
485
 10
958518.413
 20
7286314.361
 30
0.0
 40
8.0
  1
 
 50
75.067483
  7
ROMANS
 72
     1
 11
958519.099978
 21
7286316.936969
 31
0.0
210
0.0
220
0.0
230
1.0
  0
TEXT
  8
22
  6
CONTINUOUS
 62
     3
  5
486
 10
958520.475
 20
7286322.09
 30
0.0
 40
8.0
  1
 
 50
75.067483
  7
ROMANS
 72
     1
 11
958521.161978
 21
7286324.665969
 31
0.0
210
0.0
220
0.0
230
1.0
  0
TEXT
  8
22
  6
CONTINUOUS
 62
     3
  5
487
 10
958522.536
 20
7286329.82
 30
0.0
 40
8.0
  1
 
 50
75.067483
  7
ROMANS
 72
     1
 11
958523.222978
 21
7286332.395969
 31
0.0
210
0.0
220
0.0
230
1.0
  0
TEXT
  8
22
  6
CONTINUOUS
 62
     3
  5
488
 10
958536.967
 20
7286383.928
 30
0.0
 40
8.0
  1
 
 50
75.067483
  7
ROMANS
 72
     1
 11
958537.653978
 21
7286386.503969
 31
0.0
210
0.0
220
0.0
230
1.0
  0
TEXT
  8
22
  6
CONTINUOUS
 62
     3
  5
489
 10
958539.027
 20
7286391.658
 30
0.0
 40
8.0
  1
 
 50
75.067483
  7
ROMANS
 72
     1
 11
958539.713978
 21
7286394.233969
 31
0.0
210
0.0
220
0.0
230
1.0
  0
LINE
  8
21
  6
DASHDOT
 62
     7
  5
48A
 10
958386.937
 20
7286152.408
 30
0.0
 11
961588.376
 21
7286074.312
 31
0.0
  0
LINE
  8
21
  6
DASHDOT
 62
     7
  5
48B
 10
958386.45
 20
7286132.414
 30
0.0
 11
961579.423
 21
7286054.525
 31
0.0
  0
TEXT
  8
22
  6
CONTINUOUS
 62
     3
  5
48C
 10
961012.775
 20
7286273.246
 30
0.0
 40
8.0
  1
 
 50
293.985897
  7
ROMANS
 72
     1
 11
961021.167925
 21
7286274.062315
 31
0.0
210
0.0
220
0.0
230
1.0
 73
     3
  0
LINE
  8
21
  6
DASHDOT
 62
     7
  5
48D
 10
960719.347
 20
7286860.487
 30
0.0
 11
961045.613
 21
7286127.197
 31
0.0
  0
LINE
  8
21
  6
DASHDOT
 62
     7
  5
48E
 10
960663.614
 20
7286835.69
 30
0.0
 11
960997.636
 21
7286084.97
 31
0.0
  0
LINE
  8
21
  6
DASHDOT
 62
     7
  5
48F
 10
960672.751
 20
7286839.755
 30
0.0
 11
961005.501
 21
7286091.893
 31
0.0
  0
TEXT
  8
22
  6
CONTINUOUS
 62
     3
  5
490
 10
960931.524
 20
7286349.174
 30
0.0
 40
8.0
  1
 
 50
293.985936
  7
ROMANS
 72
     1
 11
960939.916924
 21
7286349.990321
 31
0.0
210
0.0
220
0.0
230
1.0
 73
     3
  0
TEXT
  8
22
  6
CONTINUOUS
 62
     3
  5
491
 10
960789.185
 20
7286669.086
 30
0.0
 40
8.0
  1
 
 50
293.985936
  7
ROMANS
 72
     1
 11
960797.577924
 21
7286669.902321
 31
0.0
210
0.0
220
0.0
230
1.0
 73
     3
  0
TEXT
  8
22
  6
CONTINUOUS
 62
     3
  5
492
 10
960792.436
 20
7286661.776
 30
0.0
 40
8.0
  1
 
 50
293.985936
  7
ROMANS
 72
     1
 11
960800.828924
 21
7286662.592321
 31
0.0
210
0.0
220
0.0
230
1.0
 73
     3
  0
LINE
  8
21
  6
DASHDOT
 62
     7
  5
493
 10
963664.58
 20
7288659.067
 30
0.0
 11
963659.366
 21
7288445.31
 31
0.0
  0
LINE
  8
21
  6
DASHDOT
 62
     7
  5
494
 10
963659.366
 20
7288445.31
 30
0.0
 11
961021.088
 21
7287313.228
 31
0.0
  0
LINE
  8
21
  6
DASHDOT
 62
     7
  5
495
 10
961021.088
 20
7287313.228
 30
0.0
 11
960994.494
 21
7287375.202
 31
0.0
  0
LINE
  8
21
  6
DASHDOT
 62
     7
  5
496
 10
960994.494
 20
7287375.202
 30
0.0
 11
959968.888
 21
7286935.115
 31
0.0
  0
LINE
  8
21
  6
DASHDOT
 62
     7
  5
497
 10
960586.501
 20
7287079.688
 30
0.0
 11
960569.96
 21
7287118.238
 31
0.0
  0
LINE
  8
21
  6
DASHDOT
 62
     7
  5
498
 10
960569.96
 20
7287118.238
 30
0.0
 11
959988.915
 21
7286868.919
 31
0.0
  0
LINE
  8
21
  6
DASHDOT
 62
     7
  5
499
 10
959968.888
 20
7286935.115
 30
0.0
 11
959988.915
 21
7286868.919
 31
0.0
  0
LINE
  8
21
  6
DASHDOT
 62
     7
  5
49A
 10
963691.364
 20
7288289.751
 30
0.0
 11
963635.007
 21
7285979.447
 31
0.0
  0
LINE
  8
21
  6
DASHDOT
 62
     7
  5
49B
 10
963659.017
 20
7288275.868
 30
0.0
 11
963602.236
 21
7285948.236
 31
0.0
  0
LINE
  8
21
  6
DASHDOT
 62
     7
  5
49C
 10
963635.007
 20
7285979.447
 30
0.0
 11
963662.918
 21
7285978.765
 31
0.0
  0
LINE
  8
21
  6
DASHDOT
 62
     7
  5
49D
 10
963602.236
 20
7285948.236
 30
0.0
 11
963662.138
 21
7285946.775
 31
0.0
  0
ARC
  8
21
  6
DASHDOT
 62
     7
  5
49E
 10
963972.670534
 20
7287797.486639
 30
0.0
 40
641.8
 50
159.06625
 51
178.6026
210
0.0
220
0.0
230
1.0
  0
LINE
  8
21
  6
DASHDOT
 62
     7
  5
49F
 10
963323.504
 20
7287503.327
 30
0.0
 11
963331.062
 21
7287813.138
 31
0.0
  0
POLYLINE
  8
21
  6
DASHDOT
 62
     7
  5
4A0
 66
     1
 10
0.0
 20
0.0
 30
0.0
  0
VERTEX
  8
21
  6
DASHDOT
 62
     7
  5
4A1
 10
963030.23
 20
7286953.549
 30
0.0
  0
VERTEX
  8
21
  6
DASHDOT
 62
     7
  5
4A2
 10
962942.086
 20
7287138.05
 30
0.0
  0
VERTEX
  8
21
  6
DASHDOT
 62
     7
  5
4A3
 10
962946.9
 20
7287335.417
 30
0.0
  0
VERTEX
  8
21
  6
DASHDOT
 62
     7
  5
4A4
 10
963323.504
 20
7287503.327
 30
0.0
  0
SEQEND
  8
21
  6
DASHDOT
 62
     7
  5
4A5
  0
ARC
  8
21
  6
DASHDOT
 62
     7
  5
4A6
 10
963323.243259
 20
7286719.521511
 30
0.0
 40
375.0
 50
141.385886
 51
178.6026
210
0.0
220
0.0
230
1.0
  0
LINE
  8
21
  6
DASHDOT
 62
     7
  5
4A7
 10
962943.233
 20
7286518.729
 30
0.0
 11
962948.355
 21
7286728.666
 31
0.0
  0
ARC
  8
21
  6
DASHDOT
 62
     7
  5
4A8
 10
962381.756997
 20
7286530.064461
 30
0.0
 40
561.59
 50
335.652617
 51
358.808631
210
0.0
220
0.0
230
1.0
  0
LINE
  8
21
  6
DASHDOT
 62
     7
  5
4A9
 10
962893.401
 20
7286298.54
 30
0.0
 11
962835.684
 21
7286170.991
 31
0.0
  0
POLYLINE
  8
21
  6
DASHDOT
 62
     7
  5
4AA
 66
     1
 10
0.0
 20
0.0
 30
0.0
  0
VERTEX
  8
21
  6
DASHDOT
 62
     7
  5
4AB
 10
962835.684
 20
7286170.991
 30
0.0
  0
VERTEX
  8
21
  6
DASHDOT
 62
     7
  5
4AC
 10
962354.187
 20
7286388.875
 30
0.0
  0
VERTEX
  8
21
  6
DASHDOT
 62
     7
  5
4AD
 10
962377.604
 20
7286440.624
 30
0.0
  0
SEQEND
  8
21
  6
DASHDOT
 62
     7
  5
4AE
  0
POLYLINE
  8
21
  6
DASHDOT
 62
     7
  5
4AF
 66
     1
 10
0.0
 20
0.0
 30
0.0
  0
VERTEX
  8
21
  6
DASHDOT
 62
     7
  5
4B0
 10
962335.966
 20
7286397.12
 30
0.0
  0
VERTEX
  8
21
  6
DASHDOT
 62
     7
  5
4B1
 10
962261.715
 20
7286430.721
 30
0.0
  0
VERTEX
  8
21
  6
DASHDOT
 62
     7
  5
4B2
 10
962112.577
 20
7286101.144
 30
0.0
  0
VERTEX
  8
21
  6
DASHDOT
 62
     7
  5
4B3
 10
961644.454
 20
7286112.564
 30
0.0
  0
VERTEX
  8
21
  6
DASHDOT
 62
     7
  5
4B4
 10
961771.468
 20
7286393.248
 30
0.0
  0
VERTEX
  8
21
  6
DASHDOT
 62
     7
  5
4B5
 10
961423.87
 20
7287174.486
 30
0.0
  0
SEQEND
  8
21
  6
DASHDOT
 62
     7
  5
4B6
  0
LINE
  8
21
  6
DASHDOT
 62
     7
  5
4B7
 10
961644.454
 20
7286112.564
 30
0.0
 11
961525.577
 21
7285849.858
 31
0.0
  0
TEXT
  8
22
  6
CONTINUOUS
 62
     3
  5
4B8
 10
961803.44
 20
7287608.744
 30
0.0
 40
8.0
  1
C.R.M.W.A.   EASEMENT
 50
22.916756
  7
ROMANS
210
0.0
220
0.0
230
1.0
  0
TEXT
  8
22
  6
CONTINUOUS
 62
     3
  5
4B9
 10
963654.474
 20
7286440.004
 30
0.0
 40
6.0
  1
2323.79'
 50
88.6026
  7
ROMANS
 72
     4
 11
963652.011402
 21
7286462.070618
 31
0.0
210
0.0
220
0.0
230
1.0
  0
TEXT
  8
22
  6
CONTINUOUS
 62
     3
  5
4BA
 10
962686.501
 20
7286223.132
 30
0.0
 40
8.0
  1
 
 50
335.652686
  7
ROMANS
 72
     1
 11
962692.228029
 21
7286229.321402
 31
0.0
210
0.0
220
0.0
230
1.0
 73
     3
  0
TEXT
  8
22
  6
CONTINUOUS
 62
     3
  5
4BB
 10
962693.789
 20
7286219.833
 30
0.0
 40
8.0
  1
 
 50
335.652686
  7
ROMANS
 72
     1
 11
962699.516029
 21
7286226.022402
 31
0.0
210
0.0
220
0.0
230
1.0
 73
     3
  0
TEXT
  8
22
  6
CONTINUOUS
 62
     3
  5
4BC
 10
962701.078
 20
7286216.535
 30
0.0
 40
8.0
  1
 
 50
335.652686
  7
ROMANS
 72
     1
 11
962706.805029
 21
7286222.724402
 31
0.0
210
0.0
220
0.0
230
1.0
 73
     3
  0
TEXT
  8
22
  6
CONTINUOUS
 62
     3
  5
4BD
 10
962916.899
 20
7286381.02
 30
0.0
 40
8.0
  1
 
 50
74.35665
  7
ROMANS
 72
     1
 11
962917.617883
 21
7286383.587248
 31
0.0
210
0.0
220
0.0
230
1.0
  0
TEXT
  8
22
  6
CONTINUOUS
 62
     3
  5
4BE
 10
962919.029
 20
7286388.522
 30
0.0
 40
8.0
  1
 
 50
76.290881
  7
ROMANS
 72
     1
 11
962919.660823
 21
7286391.112049
 31
0.0
210
0.0
220
0.0
230
1.0
  0
TEXT
  8
22
  6
CONTINUOUS
 62
     3
  5
4BF
 10
962920.925
 20
7286396.294
 30
0.0
 40
8.0
  1
 
 50
76.290881
  7
ROMANS
 72
     1
 11
962921.556823
 21
7286398.884049
 31
0.0
210
0.0
220
0.0
230
1.0
  0
TEXT
  8
22
  6
CONTINUOUS
 62
     3
  5
4C0
 10
962922.896
 20
7286403.841
 30
0.0
 40
8.0
  1
 
 50
78.225111
  7
ROMANS
 72
     1
 11
962923.440043
 21
7286406.450899
 31
0.0
210
0.0
220
0.0
230
1.0
  0
TEXT
  8
22
  6
CONTINUOUS
 62
     3
  5
4C1
 10
962958.689
 20
7286829.978
 30
0.0
 40
8.0
  1
 
 50
73.216872
  7
ROMANS
 72
     1
 11
962959.458807
 21
7286832.530441
 31
0.0
210
0.0
220
0.0
230
1.0
  0
TEXT
  8
22
  6
CONTINUOUS
 62
     3
  5
4C2
 10
962961.105
 20
7286837.862
 30
0.0
 40
8.0
  1
 
 50
70.849836
  7
ROMANS
 72
     1
 11
962961.979568
 21
7286840.380469
 31
0.0
210
0.0
220
0.0
230
1.0
  0
TEXT
  8
22
  6
CONTINUOUS
 62
     3
  5
4C3
 10
962963.729
 20
7286845.419
 30
0.0
 40
8.0
  1
 
 50
70.849836
  7
ROMANS
 72
     1
 11
962964.603568
 21
7286847.937469
 31
0.0
210
0.0
220
0.0
230
1.0
  0
TEXT
  8
22
  6
CONTINUOUS
 62
     3
  5
4C4
 10
962966.488
 20
7286853.192
 30
0.0
 40
8.0
  1
 
 50
68.4828
  7
ROMANS
 72
     1
 11
962967.465837
 21
7286855.6722
 31
0.0
210
0.0
220
0.0
230
1.0
  0
TEXT
  8
22
  6
CONTINUOUS
 62
     3
  5
4C5
 10
962218.59
 20
7286301.461
 30
0.0
 40
8.0
  1
 
 50
65.652658
  7
ROMANS
 72
     1
 11
962212.400601
 21
7286307.188032
 31
0.0
210
0.0
220
0.0
230
1.0
 73
     3
  0
TEXT
  8
22
  6
CONTINUOUS
 62
     3
  5
4C6
 10
962221.887
 20
7286308.75
 30
0.0
 40
8.0
  1
 
 50
65.652658
  7
ROMANS
 72
     1
 11
962215.697601
 21
7286314.477032
 31
0.0
210
0.0
220
0.0
230
1.0
 73
     3
  0
TEXT
  8
22
  6
CONTINUOUS
 62
     3
  5
4C7
 10
962225.186
 20
7286316.037
 30
0.0
 40
8.0
  1
 
 50
65.652658
  7
ROMANS
 72
     1
 11
962218.996601
 21
7286321.764032
 31
0.0
210
0.0
220
0.0
230
1.0
 73
     3
  0
TEXT
  8
22
  6
CONTINUOUS
 62
     3
  5
4C8
 10
962228.484
 20
7286323.326
 30
0.0
 40
8.0
  1
 
 50
65.652658
  7
ROMANS
 72
     1
 11
962222.294601
 21
7286329.053032
 31
0.0
210
0.0
220
0.0
230
1.0
 73
     3
  0
TEXT
  8
22
  6
CONTINUOUS
 62
     3
  5
4C9
 10
961851.492
 20
7286093.509
 30
0.0
 40
8.0
  1
 
 50
358.6026
  7
ROMANS
 72
     1
 11
961854.352302
 21
7286101.441606
 31
0.0
210
0.0
220
0.0
230
1.0
 73
     3
  0
TEXT
  8
22
  6
CONTINUOUS
 62
     3
  5
4CA
 10
961859.49
 20
7286093.313
 30
0.0
 40
8.0
  1
 
 50
358.6026
  7
ROMANS
 72
     1
 11
961862.350302
 21
7286101.245606
 31
0.0
210
0.0
220
0.0
230
1.0
 73
     3
  0
TEXT
  8
22
  6
CONTINUOUS
 62
     3
  5
4CB
 10
961867.487
 20
7286093.118
 30
0.0
 40
8.0
  1
 
 50
358.6026
  7
ROMANS
 72
     1
 11
961870.347302
 21
7286101.050606
 31
0.0
210
0.0
220
0.0
230
1.0
 73
     3
  0
TEXT
  8
22
  6
CONTINUOUS
 62
     3
  5
4CC
 10
961875.485
 20
7286092.924
 30
0.0
 40
8.0
  1
 
 50
358.6026
  7
ROMANS
 72
     1
 11
961878.345302
 21
7286100.856606
 31
0.0
210
0.0
220
0.0
230
1.0
 73
     3
  0
TEXT
  8
22
  6
CONTINUOUS
 62
     3
  5
4CD
 10
961542.66
 20
7285902.164
 30
0.0
 40
8.0
  1
 
 50
65.652553
  7
ROMANS
 72
     1
 11
961543.759109
 21
7285904.592892
 31
0.0
210
0.0
220
0.0
230
1.0
  0
TEXT
  8
22
  6
CONTINUOUS
 62
     3
  5
4CE
 10
961545.958
 20
7285909.452
 30
0.0
 40
8.0
  1
 
 50
65.652553
  7
ROMANS
 72
     1
 11
961547.057109
 21
7285911.880892
 31
0.0
210
0.0
220
0.0
230
1.0
  0
TEXT
  8
22
  6
CONTINUOUS
 62
     3
  5
4CF
 10
961549.255
 20
7285916.739
 30
0.0
 40
8.0
  1
 
 50
65.652553
  7
ROMANS
 72
     1
 11
961550.354109
 21
7285919.167892
 31
0.0
210
0.0
220
0.0
230
1.0
  0
TEXT
  8
22
  6
CONTINUOUS
 62
     3
  5
4D0
 10
961552.554
 20
7285924.028
 30
0.0
 40
8.0
  1
 
 50
65.652553
  7
ROMANS
 72
     1
 11
961553.653109
 21
7285926.456892
 31
0.0
210
0.0
220
0.0
230
1.0
  0
TEXT
  8
22
  6
CONTINUOUS
 62
     3
  5
4D1
 10
961566.85
 20
7285955.621
 30
0.0
 40
8.0
  1
.
 50
65.652553
  7
ROMANS
 72
     1
 11
961567.39502
 21
7285956.825424
 31
0.0
210
0.0
220
0.0
230
1.0
  0
TEXT
  8
22
  6
CONTINUOUS
 62
     3
  5
4D2
 10
961569.655
 20
7285961.819
 30
0.0
 40
8.0
  1
E
 50
65.652553
  7
ROMANS
 72
     1
 11
961570.685672
 21
7285964.096655
 31
0.0
210
0.0
220
0.0
230
1.0
  0
TEXT
  8
22
  6
CONTINUOUS
 62
     3
  5
4D3
 10
961573.445
 20
7285970.199
 30
0.0
 40
8.0
  1
.
 50
65.652553
  7
ROMANS
 72
     1
 11
961573.99002
 21
7285971.403424
 31
0.0
210
0.0
220
0.0
230
1.0
  0
TEXT
  8
22
  6
CONTINUOUS
 62
     3
  5
4D4
 10
961720.227
 20
7286294.565
 30
0.0
 40
8.0
  1
 
 50
65.6526
  7
ROMANS
 72
     1
 11
961721.326107
 21
7286296.993893
 31
0.0
210
0.0
220
0.0
230
1.0
  0
TEXT
  8
22
  6
CONTINUOUS
 62
     3
  5
4D5
 10
961723.524
 20
7286301.852
 30
0.0
 40
8.0
  1
 
 50
65.6526
  7
ROMANS
 72
     1
 11
961724.623107
 21
7286304.280893
 31
0.0
210
0.0
220
0.0
230
1.0
  0
TEXT
  8
22
  6
CONTINUOUS
 62
     3
  5
4D6
 10
961726.822
 20
7286309.141
 30
0.0
 40
8.0
  1
 
 50
65.6526
  7
ROMANS
 72
     1
 11
961727.921107
 21
7286311.569893
 31
0.0
210
0.0
220
0.0
230
1.0
  0
TEXT
  8
22
  6
CONTINUOUS
 62
     3
  5
4D7
 10
961730.121
 20
7286316.43
 30
0.0
 40
8.0
  1
 
 50
65.6526
  7
ROMANS
 72
     1
 11
961731.220107
 21
7286318.858893
 31
0.0
210
0.0
220
0.0
230
1.0
  0
TEXT
  8
22
  6
CONTINUOUS
 62
     3
  5
4D8
 10
961644.734
 20
7286643.646
 30
0.0
 40
8.0
  1
 
 50
293.985878
  7
ROMANS
 72
     1
 11
961653.126925
 21
7286644.462312
 31
0.0
210
0.0
220
0.0
230
1.0
 73
     3
  0
TEXT
  8
22
  6
CONTINUOUS
 62
     3
  5
4D9
 10
961647.986
 20
7286636.337
 30
0.0
 40
8.0
  1
 
 50
293.985878
  7
ROMANS
 72
     1
 11
961656.378925
 21
7286637.153312
 31
0.0
210
0.0
220
0.0
230
1.0
 73
     3
  0
TEXT
  8
22
  6
CONTINUOUS
 62
     3
  5
4DA
 10
961651.238
 20
7286629.028
 30
0.0
 40
8.0
  1
 
 50
293.985878
  7
ROMANS
 72
     1
 11
961659.630925
 21
7286629.844312
 31
0.0
210
0.0
220
0.0
230
1.0
 73
     3
  0
TEXT
  8
22
  6
CONTINUOUS
 62
     3
  5
4DB
 10
961654.491
 20
7286621.718
 30
0.0
 40
8.0
  1
 
 50
293.985878
  7
ROMANS
 72
     1
 11
961662.883925
 21
7286622.534312
 31
0.0
210
0.0
220
0.0
230
1.0
 73
     3
  0
TEXT
  8
22
  6
CONTINUOUS
 62
     3
  5
4DC
 10
961490.087
 20
7286991.22
 30
0.0
 40
8.0
  1
 
 50
293.985878
  7
ROMANS
 72
     1
 11
961498.479925
 21
7286992.036312
 31
0.0
210
0.0
220
0.0
230
1.0
 73
     3
  0
TEXT
  8
22
  6
CONTINUOUS
 62
     3
  5
4DD
 10
961493.34
 20
7286983.91
 30
0.0
 40
8.0
  1
 
 50
293.985878
  7
ROMANS
 72
     1
 11
961501.732925
 21
7286984.726312
 31
0.0
210
0.0
220
0.0
230
1.0
 73
     3
  0
TEXT
  8
22
  6
CONTINUOUS
 62
     3
  5
4DE
 10
961496.591
 20
7286976.601
 30
0.0
 40
8.0
  1
 
 50
293.985878
  7
ROMANS
 72
     1
 11
961504.983925
 21
7286977.417312
 31
0.0
210
0.0
220
0.0
230
1.0
 73
     3
  0
LINE
  8
21
  6
DASHDOT
 62
     7
  5
4DF
 10
961489.178
 20
7287148.825
 30
0.0
 11
961425.92
 21
7287120.679
 31
0.0
  0
LINE
  8
21
  6
DASHDOT
 62
     7
  5
4E0
 10
961489.178
 20
7287148.825
 30
0.0
 11
961467.171
 21
7287198.286
 31
0.0
  0
LINE
  8
21
  6
DASHDOT
 62
     7
  5
4E1
 10
962734.348
 20
7285898.538
 30
0.0
 11
961886.56
 21
7286282.173
 31
0.0
  0
LINE
  8
21
  6
DASHDOT
 62
     7
  5
4E2
 10
961886.56
 20
7286282.173
 30
0.0
 11
961475.952
 21
7287205.029
 31
0.0
  0
LINE
  8
21
  6
DASHDOT
 62
     7
  5
4E3
 10
962693.121
 20
7285807.431
 30
0.0
 11
961762.747
 21
7286228.437
 31
0.0
  0
LINE
  8
21
  6
DASHDOT
 62
     7
  5
4E4
 10
961762.747
 20
7286228.437
 30
0.0
 11
961580.24
 21
7285825.123
 31
0.0
  0
TEXT
  8
22
  6
CONTINUOUS
 62
     3
  5
4E5
 10
962216.261
 20
7286247.803
 30
0.0
 40
8.0
  1
2
 50
65.652639
  7
ROMANS
 72
     1
 11
962209.934318
 21
7286253.22665
 31
0.0
210
0.0
220
0.0
230
1.0
 73
     3
  0
TEXT
  8
22
  6
CONTINUOUS
 62
     3
  5
4E6
 10
962219.559
 20
7286255.092
 30
0.0
 40
8.0
  1
7
 50
65.652639
  7
ROMANS
 72
     1
 11
962213.232318
 21
7286260.51565
 31
0.0
210
0.0
220
0.0
230
1.0
 73
     3
  0
TEXT
  8
22
  6
CONTINUOUS
 62
     3
  5
4E7
 10
962222.728
 20
7286262.093
 30
0.0
 40
8.0
  1
0
 50
65.652639
  7
ROMANS
 72
     1
 11
962216.532419
 21
7286267.806368
 31
0.0
210
0.0
220
0.0
230
1.0
 73
     3
  0
TEXT
  8
22
  6
CONTINUOUS
 62
     3
  5
4E8
 10
962226.571
 20
7286270.587
 30
0.0
 40
8.0
  1
'
 50
65.652639
  7
ROMANS
 72
     1
 11
962219.83205
 21
7286275.099587
 31
0.0
210
0.0
220
0.0
230
1.0
 73
     3
  0
TEXT
  8
22
  6
CONTINUOUS
 62
     3
  5
4E9
 10
961632.167
 20
7286021.494
 30
0.0
 40
8.0
  1
 
 50
65.652406
  7
ROMANS
 72
     1
 11
961633.266115
 21
7286023.922889
 31
0.0
210
0.0
220
0.0
230
1.0
  0
TEXT
  8
22
  6
CONTINUOUS
 62
     3
  5
4EA
 10
961698.002
 20
7286616.51
 30
0.0
 40
8.0
  1
 
 50
293.985878
  7
ROMANS
 72
     1
 11
961699.08576
 21
7286614.074221
 31
0.0
210
0.0
220
0.0
230
1.0
  0
TEXT
  8
22
  6
CONTINUOUS
 62
     3
  5
4EB
 10
961730.523
 20
7286543.418
 30
0.0
 40
8.0
  1
 
 50
293.985878
  7
ROMANS
 72
     1
 11
961731.60676
 21
7286540.982221
 31
0.0
210
0.0
220
0.0
230
1.0
  0
TEXT
  8
22
  6
CONTINUOUS
 62
     3
  5
4EC
 10
961501.152
 20
7287058.484
 30
0.0
 40
8.0
  1
 
 50
293.985878
  7
ROMANS
 72
     1
 11
961502.23576
 21
7287056.048221
 31
0.0
210
0.0
220
0.0
230
1.0
  0
TEXT
  8
22
  6
CONTINUOUS
 62
     3
  5
4ED
 10
961504.406
 20
7287051.175
 30
0.0
 40
8.0
  1
 
 50
293.985878
  7
ROMANS
 72
     1
 11
961505.48976
 21
7287048.739221
 31
0.0
210
0.0
220
0.0
230
1.0
  0
LINE
  8
21
  6
DASHDOT
 62
     7
  5
4EE
 10
962344.574
 20
7286371.272
 30
0.0
 11
961998.116
 21
7285605.638
 31
0.0
  0
LINE
  8
21
  6
DASHDOT
 62
     7
  5
4EF
 10
962352.319
 20
7286367.769
 30
0.0
 11
962046.937
 21
7285692.911
 31
0.0
  0
LINE
  8
21
  6
DASHDOT
 62
     7
  5
4F0
 10
962336.83
 20
7286374.776
 30
0.0
 11
962031.451
 21
7285699.919
 31
0.0
  0
LINE
  8
21
  6
DASHDOT
 62
     7
  5
4F1
 10
962031.451
 20
7285699.919
 30
0.0
 11
962046.937
 21
7285692.911
 31
0.0
  0
LINE
  8
21
  6
DASHDOT
 62
     7
  5
4F2
 10
962099.274
 20
7286113.076
 30
0.0
 11
963665.264
 21
7286074.875
 31
0.0
  0
LINE
  8
21
  6
DASHDOT
 62
     7
  5
4F3
 10
958387.424
 20
7286172.402
 30
0.0
 11
963665.854
 21
7286043.64
 31
0.0
  0
LINE
  8
21
  6
DASHDOT
 62
     7
  5
4F4
 10
958388.157
 20
7286202.393
 30
0.0
 11
961632.474
 21
7286123.252
 31
0.0
  0
POLYLINE
  8
21
  6
DASHDOT
 62
     7
  5
4F5
 66
     1
 10
0.0
 20
0.0
 30
0.0
 70
     1
  0
VERTEX
  8
21
  6
DASHDOT
 62
     7
  5
4F6
 10
962914.362
 20
7286864.664
 30
0.0
  0
VERTEX
  8
21
  6
DASHDOT
 62
     7
  5
4F7
 10
962874.374
 20
7286865.639
 30
0.0
  0
VERTEX
  8
21
  6
DASHDOT
 62
     7
  5
4F8
 10
962873.398
 20
7286825.651
 30
0.0
  0
VERTEX
  8
21
  6
DASHDOT
 62
     7
  5
4F9
 10
962913.386
 20
7286824.676
 30
0.0
  0
SEQEND
  8
21
  6
DASHDOT
 62
     7
  5
4FA
  0
CIRCLE
  8
21
  6
DASHDOT
 62
     7
  5
4FB
 10
962893.879431
 20
7286845.157691
 30
0.0
 40
5.670729
210
0.0
220
0.0
230
1.0
  0
LINE
  8
21
  6
DASHDOT
 62
     7
  5
4FC
 10
962914.362
 20
7286864.664
 30
0.0
 11
962976.824
 21
7286863.112
 31
0.0
  0
LINE
  8
21
  6
DASHDOT
 62
     7
  5
4FD
 10
962913.865
 20
7286844.67
 30
0.0
 11
962969.258
 21
7286843.294
 31
0.0
  0
TEXT
  8
22
  6
CONTINUOUS
 62
     3
  5
4FE
 10
962874.73
 20
7286854.208
 30
0.0
 40
8.0
  1
40'x40' ESMT.
 50
358.6026
  7
ROMANS
210
0.0
220
0.0
230
1.0
  0
TEXT
  8
22
  6
CONTINUOUS
 62
     3
  5
4FF
 10
962914.933
 20
7286671.066
 30
0.0
 40
8.0
  1
77.3'
 50
358.6026
  7
ROMANS
210
0.0
220
0.0
230
1.0
  0
LINE
  8
21
  6
DASHDOT
 62
     7
  5
500
 10
958500.281
 20
7287715.251
 30
0.0
 11
959834.288
 21
7287321.854
 31
0.0
  0
LINE
  8
21
  6
DASHDOT
 62
     7
  5
501
 10
958497.199
 20
7287695.307
 30
0.0
 11
959840.777
 21
7287299.088
 31
0.0
  0
LINE
  8
21
  6
DASHDOT
 62
     7
  5
502
 10
959363.398
 20
7286866.001
 30
0.0
 11
958711.168
 21
7287058.342
 31
0.0
  0
LINE
  8
21
  6
DASHDOT
 62
     7
  5
503
 10
958494.525
 20
7287585.695
 30
0.0
 11
958711.168
 21
7287058.342
 31
0.0
  0
LINE
  8
21
  6
DASHDOT
 62
     7
  5
504
 10
958503.224
 20
7287511.889
 30
0.0
 11
958696.313
 21
7287041.872
 31
0.0
  0
TEXT
  8
22
  6
CONTINUOUS
 62
     3
  5
505
 10
959100.685
 20
7287544.447
 30
0.0
 40
8.0
  1
 
 50
343.569272
  7
ROMANS
 72
     1
 11
959103.242127
 21
7287543.692906
 31
0.0
210
0.0
220
0.0
230
1.0
  0
TEXT
  8
22
  6
CONTINUOUS
 62
     3
  5
506
 10
959108.358
 20
7287542.185
 30
0.0
 40
8.0
  1
 
 50
343.569272
  7
ROMANS
 72
     1
 11
959110.915127
 21
7287541.430906
 31
0.0
210
0.0
220
0.0
230
1.0
  0
TEXT
  8
22
  6
CONTINUOUS
 62
     3
  5
507
 10
959177.417
 20
7287521.819
 30
0.0
 40
8.0
  1
 
 50
343.569272
  7
ROMANS
 72
     1
 11
959179.974127
 21
7287521.064906
 31
0.0
210
0.0
220
0.0
230
1.0
  0
TEXT
  8
22
  6
CONTINUOUS
 62
     3
  5
508
 10
958927.943
 20
7287000.671
 30
0.0
 40
8.0
  1
 
 50
343.569269
  7
ROMANS
 72
     1
 11
958930.500127
 21
7286999.916906
 31
0.0
210
0.0
220
0.0
230
1.0
  0
TEXT
  8
22
  6
CONTINUOUS
 62
     3
  5
509
 10
959004.676
 20
7286978.042
 30
0.0
 40
8.0
  1
 
 50
343.569269
  7
ROMANS
 72
     1
 11
959007.233127
 21
7286977.287906
 31
0.0
210
0.0
220
0.0
230
1.0
  0
TEXT
  8
22
  6
CONTINUOUS
 62
     3
  5
50A
 10
959104.428
 20
7286948.625
 30
0.0
 40
8.0
  1
 
 50
343.569269
  7
ROMANS
 72
     1
 11
959106.985127
 21
7286947.870906
 31
0.0
210
0.0
220
0.0
230
1.0
  0
TEXT
  8
22
  6
CONTINUOUS
 62
     3
  5
50B
 10
959142.795
 20
7286937.312
 30
0.0
 40
8.0
  1
 
 50
343.569269
  7
ROMANS
 72
     1
 11
959145.352127
 21
7286936.557906
 31
0.0
210
0.0
220
0.0
230
1.0
  0
TEXT
  8
22
  6
CONTINUOUS
 62
     3
  5
50C
 10
958542.205
 20
7287432.787
 30
0.0
 40
8.0
  1
 
 50
292.333486
  7
ROMANS
 72
     1
 11
958550.617974
 21
7287433.360957
 31
0.0
210
0.0
220
0.0
230
1.0
 73
     3
  0
TEXT
  8
22
  6
CONTINUOUS
 62
     3
  5
50D
 10
958572.606
 20
7287358.788
 30
0.0
 40
8.0
  1
 
 50
292.333486
  7
ROMANS
 72
     1
 11
958581.018974
 21
7287359.361957
 31
0.0
210
0.0
220
0.0
230
1.0
 73
     3
  0
TEXT
  8
22
  6
CONTINUOUS
 62
     3
  5
50E
 10
958627.325
 20
7287225.59
 30
0.0
 40
8.0
  1
 
 50
292.333486
  7
ROMANS
 72
     1
 11
958635.737974
 21
7287226.163957
 31
0.0
210
0.0
220
0.0
230
1.0
 73
     3
  0
LINE
  8
21
  6
DASHDOT
 62
     7
  5
50F
 10
958450.788
 20
7286115.12
 30
0.0
 11
958581.371
 21
7286604.768
 31
0.0
  0
LINE
  8
21
  6
DASHDOT
 62
     7
  5
510
 10
958474.163
 20
7286125.15
 30
0.0
 11
958600.625
 21
7286599.349
 31
0.0
  0
TEXT
  8
22
  6
CONTINUOUS
 62
     3
  5
511
 10
958518.413
 20
7286314.361
 30
0.0
 40
8.0
  1
 
 50
75.067483
  7
ROMANS
 72
     1
 11
958519.099978
 21
7286316.936969
 31
0.0
210
0.0
220
0.0
230
1.0
  0
TEXT
  8
22
  6
CONTINUOUS
 62
     3
  5
512
 10
958520.475
 20
7286322.09
 30
0.0
 40
8.0
  1
 
 50
75.067483
  7
ROMANS
 72
     1
 11
958521.161978
 21
7286324.665969
 31
0.0
210
0.0
220
0.0
230
1.0
  0
TEXT
  8
22
  6
CONTINUOUS
 62
     3
  5
513
 10
958522.536
 20
7286329.82
 30
0.0
 40
8.0
  1
 
 50
75.067483
  7
ROMANS
 72
     1
 11
958523.222978
 21
7286332.395969
 31
0.0
210
0.0
220
0.0
230
1.0
  0
TEXT
  8
22
  6
CONTINUOUS
 62
     3
  5
514
 10
958536.967
 20
7286383.928
 30
0.0
 40
8.0
  1
 
 50
75.067483
  7
ROMANS
 72
     1
 11
958537.653978
 21
7286386.503969
 31
0.0
210
0.0
220
0.0
230
1.0
  0
TEXT
  8
22
  6
CONTINUOUS
 62
     3
  5
515
 10
958539.027
 20
7286391.658
 30
0.0
 40
8.0
  1
 
 50
75.067483
  7
ROMANS
 72
     1
 11
958539.713978
 21
7286394.233969
 31
0.0
210
0.0
220
0.0
230
1.0
  0
LINE
  8
21
  6
DASHDOT
 62
     7
  5
516
 10
958386.937
 20
7286152.408
 30
0.0
 11
961588.376
 21
7286074.312
 31
0.0
  0
LINE
  8
21
  6
DASHDOT
 62
     7
  5
517
 10
958386.45
 20
7286132.414
 30
0.0
 11
961579.423
 21
7286054.525
 31
0.0
  0
TEXT
  8
22
  6
CONTINUOUS
 62
     3
  5
518
 10
961012.775
 20
7286273.246
 30
0.0
 40
8.0
  1
 
 50
293.985897
  7
ROMANS
 72
     1
 11
961021.167925
 21
7286274.062315
 31
0.0
210
0.0
220
0.0
230
1.0
 73
     3
  0
TEXT
  8
22
  6
CONTINUOUS
 62
     3
  5
519
 10
961016.029
 20
7286265.938
 30
0.0
 40
8.0
  1
 
 50
293.985897
  7
ROMANS
 72
     1
 11
961024.421925
 21
7286266.754315
 31
0.0
210
0.0
220
0.0
230
1.0
 73
     3
  0
LINE
  8
21
  6
DASHDOT
 62
     7
  5
51A
 10
960719.347
 20
7286860.487
 30
0.0
 11
961045.613
 21
7286127.197
 31
0.0
  0
LINE
  8
21
  6
DASHDOT
 62
     7
  5
51B
 10
960663.614
 20
7286835.69
 30
0.0
 11
960997.636
 21
7286084.97
 31
0.0
  0
LINE
  8
21
  6
DASHDOT
 62
     7
  5
51C
 10
960672.751
 20
7286839.755
 30
0.0
 11
961005.501
 21
7286091.893
 31
0.0
  0
TEXT
  8
22
  6
CONTINUOUS
 62
     3
  5
51D
 10
960931.524
 20
7286349.174
 30
0.0
 40
8.0
  1
 
 50
293.985936
  7
ROMANS
 72
     1
 11
960939.916924
 21
7286349.990321
 31
0.0
210
0.0
220
0.0
230
1.0
 73
     3
  0
TEXT
  8
22
  6
CONTINUOUS
 62
     3
  5
51E
 10
960934.776
 20
7286341.864
 30
0.0
 40
8.0
  1
 
 50
293.985936
  7
ROMANS
 72
     1
 11
960943.168924
 21
7286342.680321
 31
0.0
210
0.0
220
0.0
230
1.0
 73
     3
  0
TEXT
  8
22
  6
CONTINUOUS
 62
     3
  5
51F
 10
960954.288
 20
7286298.009
 30
0.0
 40
8.0
  1
 
 50
293.985936
  7
ROMANS
 72
     1
 11
960962.680924
 21
7286298.825321
 31
0.0
210
0.0
220
0.0
230
1.0
 73
     3
  0
TEXT
  8
22
  6
CONTINUOUS
 62
     3
  5
520
 10
960789.185
 20
7286669.086
 30
0.0
 40
8.0
  1
 
 50
293.985936
  7
ROMANS
 72
     1
 11
960797.577924
 21
7286669.902321
 31
0.0
210
0.0
220
0.0
230
1.0
 73
     3
  0
TEXT
  8
22
  6
CONTINUOUS
 62
     3
  5
521
 10
960792.436
 20
7286661.776
 30
0.0
 40
8.0
  1
 
 50
293.985936
  7
ROMANS
 72
     1
 11
960800.828924
 21
7286662.592321
 31
0.0
210
0.0
220
0.0
230
1.0
 73
     3
  0
TEXT
  8
22
  6
CONTINUOUS
 62
     3
  5
522
 10
960811.948
 20
7286617.922
 30
0.0
 40
8.0
  1
 
 50
293.985936
  7
ROMANS
 72
     1
 11
960820.340924
 21
7286618.738321
 31
0.0
210
0.0
220
0.0
230
1.0
 73
     3
  0
TEXT
  8
22
  6
CONTINUOUS
 62
     3
  5
523
 10
960724.963
 20
7286663.368
 30
0.0
 40
8.0
  1
'
 50
293.985961
  7
ROMANS
 72
     1
 11
960732.814042
 21
7286665.402213
 31
0.0
210
0.0
220
0.0
230
1.0
 73
     3
  0
TEXT
  8
22
  6
CONTINUOUS
 62
     3
  5
524
 10
960730.391
 20
7286651.168
 30
0.0
 40
8.0
  1
 
 50
293.985961
  7
ROMANS
 72
     1
 11
960738.783924
 21
7286651.984325
 31
0.0
210
0.0
220
0.0
230
1.0
 73
     3
  0
POLYLINE
  8
1
  6
HIDDEN
 62
   253
  5
526
 66
     1
 10
0.0
 20
0.0
 30
0.0
  0
VERTEX
  8
1
  6
HIDDEN
 62
   253
  5
527
 10
958354.864
 20
7288863.685
 30
0.0
  0
VERTEX
  8
1
  6
HIDDEN
 62
   253
  5
528
 10
963652.498
 20
7288704.514
 30
0.0
  0
VERTEX
  8
1
  6
HIDDEN
 62
   253
  5
529
 10
963511.04
 20
7283456.452
 30
0.0
  0
VERTEX
  8
1
  6
HIDDEN
 62
   253
  5
52A
 10
958210.325
 20
7283617.328
 30
0.0
  0
VERTEX
  8
1
  6
HIDDEN
 62
   253
  5
52B
 10
958354.864
 20
7288863.685
 30
0.0
  0
SEQEND
  8
1
  6
HIDDEN
 62
   253
  5
52C
  0
TEXT
  8
19
  6
CONTINUOUS
 62
     1
  5
52D
 10
959937.826
 20
7283481.227
 30
0.0
 40
24.0
  1
ERSKINE ST
 50
358.6026
  7
ROMANC
 72
     4
 11
960060.626197
 21
7283490.234974
 31
0.0
210
0.0
220
0.0
230
1.0
  0
TEXT
  8
19
  6
CONTINUOUS
 62
     1
  5
52E
 10
961946.662
 20
7283427.45
 30
0.0
 40
24.0
  1
ERSKINE ST
 50
358.6026
  7
ROMANC
 72
     4
 11
962069.462197
 21
7283436.457974
 31
0.0
210
0.0
220
0.0
230
1.0
  0
TEXT
  8
10
  6
CONTINUOUS
 62
   134
  5
530
 10
960485.487
 20
7284646.872
 30
0.0
 40
13.999
  1
CITY PROPERTY
 50
358.6026
  7
ROMANS
 11
960485.828391
 21
7284660.866837
 31
0.0
210
0.0
220
0.0
230
1.0
 73
     3
  0
TEXT
  8
10
  6
CONTINUOUS
 62
   134
  5
531
 10
961776.882
 20
7285906.163
 30
0.0
 40
13.999
  1
LOT 6
 50
358.6026
  7
ROMANS
 11
961777.223391
 21
7285920.157837
 31
0.0
210
0.0
220
0.0
230
1.0
 73
     3
  0
TEXT
  8
10
  6
CONTINUOUS
 62
   134
  5
532
 10
958588.575
 20
7286291.211
 30
0.0
 40
13.999
  1
LOT 1
 50
358.6026
  7
ROMANS
 11
958588.916391
 21
7286305.205837
 31
0.0
210
0.0
220
0.0
230
1.0
 73
     3
  0
TEXT
  8
10
  6
CONTINUOUS
 62
   134
  5
533
 10
958709.537
 20
7286460.231
 30
0.0
 40
13.999
  1
TR D
 50
358.6026
  7
ROMANS
 11
958709.878391
 21
7286474.225837
 31
0.0
210
0.0
220
0.0
230
1.0
 73
     3
  0
TEXT
  8
10
  6
CONTINUOUS
 62
   134
  5
534
 10
958906.529
 20
7287268.992
 30
0.0
 40
13.999
  1
LOT 1
 50
358.6026
  7
ROMANS
 11
958906.870391
 21
7287282.986837
 31
0.0
210
0.0
220
0.0
230
1.0
 73
     3
  0
TEXT
  8
10
  6
CONTINUOUS
 62
   134
  5
535
 10
959126.104
 20
7287949.823
 30
0.0
 40
13.999
  1
CITY PROPERTY
 50
358.6026
  7
ROMANS
 11
959126.445391
 21
7287963.817837
 31
0.0
210
0.0
220
0.0
230
1.0
 73
     3
  0
TEXT
  8
10
  6
CONTINUOUS
 62
   134
  5
536
 10
960516.476
 20
7286479.97
 30
0.0
 40
13.999
  1
LOT 1
 50
358.6026
  7
ROMANS
 11
960516.817391
 21
7286493.964837
 31
0.0
210
0.0
220
0.0
230
1.0
 73
     3
  0
TEXT
  8
10
  6
CONTINUOUS
 62
   134
  5
537
 10
961251.505
 20
7288138.52
 30
0.0
 40
13.999
  1
CITY PROPERTY
 50
358.6026
  7
ROMANS
 11
961251.846391
 21
7288152.514837
 31
0.0
210
0.0
220
0.0
230
1.0
 73
     3
  0
TEXT
  8
10
  6
CONTINUOUS
 62
   134
  5
538
 10
961227.993
 20
7286531.636
 30
0.0
 40
13.999
  1
STATE PROPERTY
 50
358.6026
  7
ROMANS
 11
961228.334391
 21
7286545.630837
 31
0.0
210
0.0
220
0.0
230
1.0
 73
     3
  0
TEXT
  8
10
  6
CONTINUOUS
 62
   134
  5
539
 10
962355.799
 20
7285860.245
 30
0.0
 40
13.999
  1
LOT 7
 50
358.6026
  7
ROMANS
 11
962356.140391
 21
7285874.239837
 31
0.0
210
0.0
220
0.0
230
1.0
 73
     3
  0
TEXT
  8
10
  6
CONTINUOUS
 62
   134
  5
53A
 10
962549.902
 20
7286436.516
 30
0.0
 40
13.999
  1
       LOT 8
 50
358.6026
  7
ROMANS
 11
962550.243391
 21
7286450.510837
 31
0.0
210
0.0
220
0.0
230
1.0
 73
     3
  0
TEXT
  8
10
  6
CONTINUOUS
 62
   134
  5
53B
 10
961988.977
 20
7286783.341
 30
0.0
 40
13.999
  1
LOT 5
 50
358.6026
  7
ROMANS
 11
961989.318391
 21
7286797.335837
 31
0.0
210
0.0
220
0.0
230
1.0
 73
     3
  0
TEXT
  8
10
  6
CONTINUOUS
 62
   134
  5
53C
 10
963315.698
 20
7286429.425
 30
0.0
 40
13.999
  1
CITY PROPERTY
 50
358.6026
  7
ROMANS
 11
963316.039391
 21
7286443.419837
 31
0.0
210
0.0
220
0.0
230
1.0
 73
     3
  0
TEXT
  8
10
  6
CONTINUOUS
 62
   134
  5
53D
 10
962710.239
 20
7286914.52
 30
0.0
 40
13.999
  1
LOT 9
 50
358.6026
  7
ROMANS
 11
962710.580391
 21
7286928.514837
 31
0.0
210
0.0
220
0.0
230
1.0
 73
     3
  0
TEXT
  8
10
  6
CONTINUOUS
 62
   134
  5
53E
 10
962686.693
 20
7287472.797
 30
0.0
 40
13.999
  1
LOT 10
 50
358.6026
  7
ROMANS
 11
962687.034391
 21
7287486.791837
 31
0.0
210
0.0
220
0.0
230
1.0
 73
     3
  0
TEXT
  8
10
  6
CONTINUOUS
 62
   134
  5
53F
 10
963114.172
 20
7287666.86
 30
0.0
 40
13.999
  1
LOT 11
 50
358.6026
  7
ROMANS
 11
963114.513391
 21
7287680.854837
 31
0.0
210
0.0
220
0.0
230
1.0
 73
     3
  0
TEXT
  8
10
  6
CONTINUOUS
 62
   134
  5
540
 10
963449.189
 20
7288477.73
 30
0.0
 40
13.999
  1
TRACT 1
 50
358.6026
  7
ROMANS
 11
963449.530391
 21
7288491.724837
 31
0.0
210
0.0
220
0.0
230
1.0
 73
     3
  0
TEXT
  8
22
  6
CONTINUOUS
 62
     3
  5
542
 10
962980.898
 20
7286884.039
 30
0.0
 40
8.0
  1
20'UUE
 50
65.6026
  7
txt
 72
     4
 11
962985.55528
 21
7286903.990907
 31
0.0
210
0.0
220
0.0
230
1.0
  0
TEXT
  8
11
  6
CONTINUOUS
 62
     7
  5
543
 10
959701.565
 20
7287799.298
 30
0.0
 40
8.0
  1
1981.7'
 50
285.907786
  7
ROMANS
 72
     1
 11
959708.50852
 21
7287774.935151
 31
0.0
210
0.0
220
0.0
230
1.0
  0
LINE
  8
6
  6
CONTINUOUS
 62
     7
  5
544
 10
960128.764
 20
7286858.356
 30
0.0
 11
959773.086
 21
7286705.479
 31
0.0
  0
LINE
  8
6
  6
CONTINUOUS
 62
     7
  5
545
 10
959082.544
 20
7286384.009
 30
0.0
 11
958449.674
 21
7286097.072
 31
0.0
  0
LINE
  8
6
  6
CONTINUOUS
 62
     7
  5
546
 10
959250.405
 20
7286250.756
 30
0.0
 11
958450.955
 21
7285889.108
 31
0.0
  0
LINE
  8
6
  6
CONTINUOUS
 62
     7
  5
547
 10
958445.818
 20
7286025.343
 30
0.0
 11
958444.5
 21
7285995.945
 31
0.0
  0
TEXT
  8
19
  6
CONTINUOUS
 62
     1
  5
548
 10
958485.979
 20
7287937.845
 30
0.0
 40
24.0
  1
N MARTIN LUTHER KING, JR BLVD
 50
88.6026
  7
ROMANC
 72
     4
 11
958483.005543
 21
7288308.021605
 31
0.0
210
0.0
220
0.0
230
1.0
  0
LINE
  8
6
  6
CONTINUOUS
 62
     7
  5
549
 10
963573.461
 20
7283423.745
 30
0.0
 11
958375.873
 21
7283559.397
 31
0.0
  0
LINE
  8
6
  6
CONTINUOUS
 62
     7
  5
54A
 10
963582.164
 20
7283835.162
 30
0.0
 11
963573.461
 21
7283423.745
 31
0.0
  0
LINE
  8
6
  6
CONTINUOUS
 62
     7
  5
54B
 10
963590.048
 20
7284271.582
 30
0.0
 11
963672.2
 21
7288154.772
 31
0.0
  0
TEXT
  8
19
  6
CONTINUOUS
 62
     1
  5
54C
 10
963644.185
 20
7284681.947
 30
0.0
 40
24.0
  1
N. GUAVA
 50
88.6026
  7
ROMANC
 72
     4
 11
963634.501902
 21
7284777.07143
 31
0.0
210
0.0
220
0.0
230
1.0
  0
TEXT
  8
19
  6
CONTINUOUS
 62
     1
  5
54D
 10
958687.43
 20
7286794.796
 30
0.0
 40
24.0
  1
LOOP 289
 50
343.279028
  7
ROMANC
 72
     4
 11
958784.539618
 21
7286778.152763
 31
0.0
210
0.0
220
0.0
230
1.0
  0
TEXT
  8
19
  6
CONTINUOUS
 62
     1
  5
54E
 10
959917.658
 20
7286331.381
 30
0.0
 40
24.0
  1
LOOP 289
 50
343.279028
  7
ROMANC
 72
     4
 11
960014.767618
 21
7286314.737763
 31
0.0
210
0.0
220
0.0
230
1.0
  0
TEXT
  8
19
  6
CONTINUOUS
 62
     1
  5
54F
 10
963114.641
 20
7284564.798
 30
0.0
 40
24.0
  1
LOOP 289
 50
313.279028
  7
ROMANC
 72
     4
 11
963190.418778
 21
7284501.829725
 31
0.0
210
0.0
220
0.0
230
1.0
  0
TEXT
  8
19
  6
CONTINUOUS
 62
     1
  5
550
 10
960428.623
 20
7286782.52
 30
0.0
 40
24.0
  1
MUNICIPAL DR
 50
24.279028
  7
ROMANC
 72
     4
 11
960561.232279
 21
7286855.501295
 31
0.0
210
0.0
220
0.0
230
1.0
  0
TEXT
  8
19
  6
CONTINUOUS
 62
     1
  5
551
 10
962157.258
 20
7287548.529
 30
0.0
 40
24.0
  1
MUNICIPAL DR
 50
24.279028
  7
ROMANC
 72
     4
 11
962289.867279
 21
7287621.510295
 31
0.0
210
0.0
220
0.0
230
1.0
  0
TEXT
  8
22
  6
CONTINUOUS
 62
     3
  5
552
 10
962093.789
 20
7285759.762
 30
0.0
 40
6.0
  1
17'  RAILROAD SPUR  EASEMENT
 50
66.665339
  7
txt
 72
     4
 11
962120.61877
 21
7285829.53026
 31
0.0
210
0.0
220
0.0
230
1.0
  0
TEXT
  8
11
  6
CONTINUOUS
 62
     7
  5
553
 10
960046.323
 20
7286650.397
 30
0.0
 40
8.0
  1
160'
 50
288.261614
  7
txt
 72
     4
 11
960053.881505
 21
7286640.255747
 31
0.0
210
0.0
220
0.0
230
1.0
  0
TEXT
  8
11
  6
CONTINUOUS
 62
     7
  5
554
 10
960240.639
 20
7286879.39
 30
0.0
 40
8.0
  1
150'
 50
288.261614
  7
txt
 72
     4
 11
960248.256729
 21
7286869.069266
 31
0.0
210
0.0
220
0.0
230
1.0
  0
TEXT
  8
11
  6
CONTINUOUS
 62
     7
  5
555
 10
960773.531
 20
7287104.231
 30
0.0
 40
8.0
  1
150'
 50
288.261614
  7
txt
 72
     4
 11
960781.148729
 21
7287093.910266
 31
0.0
210
0.0
220
0.0
230
1.0
  0
TEXT
  8
11
  6
CONTINUOUS
 62
     7
  5
556
 10
959792.019
 20
7286680.316
 30
0.0
 40
8.0
  1
100'
 50
288.261614
  7
txt
 72
     4
 11
959799.626702
 21
7286670.025655
 31
0.0
210
0.0
220
0.0
230
1.0
  0
TEXT
  8
22
  6
CONTINUOUS
 62
     3
  5
557
 10
960900.146
 20
7286333.43
 30
0.0
 40
6.0
  1
10'WATER EASEMENT
 50
294.261614
  7
txt
 72
     4
 11
960922.370197
 21
7286291.421787
 31
0.0
210
0.0
220
0.0
230
1.0
  0
TEXT
  8
22
  6
CONTINUOUS
 62
     3
  5
558
 10
960881.151
 20
7286470.046
 30
0.0
 40
6.0
  1
10'SEWER EASEMENT
 50
294.261614
  7
txt
 72
     4
 11
960903.375197
 21
7286428.037787
 31
0.0
210
0.0
220
0.0
230
1.0
  0
TEXT
  8
22
  6
CONTINUOUS
 62
     3
  5
559
 10
960969.601
 20
7286347.242
 30
0.0
 40
6.0
  1
DRAINAGE CHANNEL
 50
294.261614
  7
txt
 72
     4
 11
960990.864504
 21
7286307.365292
 31
0.0
210
0.0
220
0.0
230
1.0
  0
TEXT
  8
22
  6
CONTINUOUS
 62
     3
  5
55A
 10
960696.959
 20
7286842.216
 30
0.0
 40
6.0
  1
71'
 50
28.261614
  7
txt
 72
     4
 11
960700.988863
 21
7286847.788391
 31
0.0
210
0.0
220
0.0
230
1.0
  0
TEXT
  8
22
  6
CONTINUOUS
 62
     3
  5
55B
 10
958561.359
 20
7286484.179
 30
0.0
 40
6.0
  1
20'LPL ESMT
 50
73.261614
  7
txt
 72
     4
 11
958566.982751
 21
7286513.295
 31
0.0
210
0.0
220
0.0
230
1.0
  0
TEXT
  8
22
  6
CONTINUOUS
 62
     3
  5
55C
 10
958667.3
 20
7286149.595
 30
0.0
 40
6.0
  1
20'
 50
88.6026
  7
txt
 72
     4
 11
958664.476575
 21
7286156.870018
 31
0.0
210
0.0
220
0.0
230
1.0
  0
TEXT
  8
22
  6
CONTINUOUS
 62
     3
  5
55D
 10
958809.477
 20
7286134.077
 30
0.0
 40
6.0
  1
20' SWPS EASEMENT
 50
358.6026
  7
txt
 72
     4
 11
958856.542181
 21
7286135.929781
 31
0.0
210
0.0
220
0.0
230
1.0
  0
TEXT
  8
22
  6
CONTINUOUS
 62
     3
  5
55E
 10
958729.536
 20
7286179.843
 30
0.0
 40
6.0
  1
30' SWPS POWER LINE EASEMENT
 50
358.6026
  7
txt
 72
     4
 11
958808.620655
 21
7286180.914696
 31
0.0
210
0.0
220
0.0
230
1.0
  0
TEXT
  8
11
  6
CONTINUOUS
 62
     7
  5
55F
 10
958762.121
 20
7286240.695
 30
0.0
 40
8.0
  1
520.28'
 50
24.261614
  7
txt
 72
     4
 11
958782.013061
 21
7286254.048081
 31
0.0
210
0.0
220
0.0
230
1.0
  0
TEXT
  8
11
  6
CONTINUOUS
 62
     7
  5
560
 10
958505.183
 20
7286578.088
 30
0.0
 40
8.0
  1
130.3'
 50
43.261614
  7
txt
 72
     4
 11
958515.698414
 21
7286593.476687
 31
0.0
210
0.0
220
0.0
230
1.0
  0
TEXT
  8
11
  6
CONTINUOUS
 62
     7
  5
561
 10
958515.068
 20
7286566.455
 30
0.0
 40
8.0
  1
R=75'
 50
43.261614
  7
txt
 72
     4
 11
958524.665842
 21
7286580.98017
 31
0.0
210
0.0
220
0.0
230
1.0
  0
TEXT
  8
22
  6
CONTINUOUS
 62
     3
  5
562
 10
959069.642
 20
7287516.553
 30
0.0
 40
6.0
  1
20'ELECTRIC TRANSMISSION LINE ESMT
 50
343.261614
  7
txt
 72
     4
 11
959160.986697
 21
7287492.214293
 31
0.0
210
0.0
220
0.0
230
1.0
  0
TEXT
  8
22
  6
CONTINUOUS
 62
     3
  5
563
 10
958717.92
 20
7287062.673
 30
0.0
 40
6.0
  1
20'ELECTRIC TRANSMISSION LINE ESMT
 50
343.261614
  7
txt
 72
     4
 11
958809.264697
 21
7287038.334293
 31
0.0
210
0.0
220
0.0
230
1.0
  0
TEXT
  8
22
  6
CONTINUOUS
 62
     3
  5
564
 10
958529.407
 20
7287515.244
 30
0.0
 40
6.0
  1
20'ELECTRIC TRANSMISSION LINE ESMT
 50
293.261614
  7
txt
 72
     4
 11
958569.477708
 21
7287429.625283
 31
0.0
210
0.0
220
0.0
230
1.0
  0
TEXT
  8
22
  6
CONTINUOUS
 62
     3
  5
565
 10
958880.254
 20
7287354.432
 30
0.0
 40
6.0
  1
10'UUE
 50
73.261614
  7
txt
 72
     4
 11
958881.415445
 21
7287368.710484
 31
0.0
210
0.0
220
0.0
230
1.0
  0
TEXT
  8
22
  6
CONTINUOUS
 62
     3
  5
566
 10
960075.402
 20
7286116.552
 30
0.0
 40
6.0
  1
20'
 50
88.6026
  7
txt
 72
     4
 11
960072.578575
 21
7286123.827018
 31
0.0
210
0.0
220
0.0
230
1.0
  0
TEXT
  8
22
  6
CONTINUOUS
 62
     3
  5
567
 10
959934.091
 20
7286155.98
 30
0.0
 40
6.0
  1
30' SWPS POWER LINE EASEMENT
 50
358.6026
  7
txt
 72
     4
 11
960013.175655
 21
7286157.051696
 31
0.0
210
0.0
220
0.0
230
1.0
  0
TEXT
  8
22
  6
CONTINUOUS
 62
     3
  5
568
 10
960088.48
 20
7286094.64
 30
0.0
 40
6.0
  1
20' SWPS EASEMENT
 50
358.6026
  7
txt
 72
     4
 11
960135.545181
 21
7286096.492781
 31
0.0
210
0.0
220
0.0
230
1.0
  0
TEXT
  8
22
  6
CONTINUOUS
 62
     3
  5
569
 10
961171.4
 20
7286124.902
 30
0.0
 40
6.0
  1
30' SWPS POWER LINE EASEMENT
 50
358.6026
  7
txt
 72
     4
 11
961250.484655
 21
7286125.973696
 31
0.0
210
0.0
220
0.0
230
1.0
  0
TEXT
  8
22
  6
CONTINUOUS
 62
     3
  5
56A
 10
961300.601
 20
7286065.039
 30
0.0
 40
6.0
  1
20' SWPS EASEMENT
 50
358.6026
  7
txt
 72
     4
 11
961347.666181
 21
7286066.891781
 31
0.0
210
0.0
220
0.0
230
1.0
  0
TEXT
  8
22
  6
CONTINUOUS
 62
     3
  5
56B
 10
961257.783
 20
7286086.732
 30
0.0
 40
6.0
  1
20'
 50
88.6026
  7
txt
 72
     4
 11
961254.959575
 21
7286094.007018
 31
0.0
210
0.0
220
0.0
230
1.0
  0
TEXT
  8
22
  6
CONTINUOUS
 62
     3
  5
56C
 10
961595.921
 20
7286013.832
 30
0.0
 40
6.0
  1
20'UUE
 50
64.261614
  7
txt
 72
     4
 11
961599.76298
 21
7286028.709637
 31
0.0
210
0.0
220
0.0
230
1.0
  0
TEXT
  8
22
  6
CONTINUOUS
 62
     3
  5
56D
 10
961722.072
 20
7286291.564
 30
0.0
 40
6.0
  1
20'UUE
 50
64.261614
  7
txt
 72
     4
 11
961725.91398
 21
7286306.441637
 31
0.0
210
0.0
220
0.0
230
1.0
  0
TEXT
  8
22
  6
CONTINUOUS
 62
     3
  5
56E
 10
961607.553
 20
7285937.581
 30
0.0
 40
6.0
  1
80' DRAINAGE EASEMENT
 50
65.261614
  7
txt
 72
     4
 11
961628.541657
 21
7285990.302076
 31
0.0
210
0.0
220
0.0
230
1.0
  0
TEXT
  8
22
  6
CONTINUOUS
 62
     3
  5
56F
 10
962090.015
 20
7285915.481
 30
0.0
 40
6.0
  1
80' DRAINAGE EASEMENT
 50
63.261614
  7
txt
 72
     4
 11
962112.83081
 21
7285967.437466
 31
0.0
210
0.0
220
0.0
230
1.0
  0
TEXT
  8
22
  6
CONTINUOUS
 62
     3
  5
570
 10
962122.391
 20
7286129.615
 30
0.0
 40
6.0
  1
20'UUE
 50
63.261614
  7
txt
 72
     4
 11
962126.492045
 21
7286144.42332
 31
0.0
210
0.0
220
0.0
230
1.0
  0
TEXT
  8
22
  6
CONTINUOUS
 62
     3
  5
571
 10
961910.019
 20
7286092.223
 30
0.0
 40
6.0
  1
20'UUE
 50
358.261614
  7
txt
 72
     4
 11
961925.173072
 21
7286094.764457
 31
0.0
210
0.0
220
0.0
230
1.0
  0
TEXT
  8
22
  6
CONTINUOUS
 62
     3
  5
572
 10
962254.828
 20
7286204.284
 30
0.0
 40
6.0
  1
17'  RAILROAD SPUR  EASEMENT
 50
66.665339
  7
txt
 72
     4
 11
962281.65777
 21
7286274.05226
 31
0.0
210
0.0
220
0.0
230
1.0
  0
TEXT
  8
22
  6
CONTINUOUS
 62
     3
  5
573
 10
962362.964
 20
7286095.446
 30
0.0
 40
6.0
  1
30' SWPS POWER LINE EASEMENT
 50
358.6026
  7
txt
 72
     4
 11
962442.048655
 21
7286096.517696
 31
0.0
210
0.0
220
0.0
230
1.0
  0
TEXT
  8
22
  6
CONTINUOUS
 62
     3
  5
574
 10
963274.778
 20
7286067.77
 30
0.0
 40
6.0
  1
30' SWPS POWER LINE EASEMENT
 50
358.6026
  7
txt
 72
     4
 11
963353.862655
 21
7286068.841696
 31
0.0
210
0.0
220
0.0
230
1.0
  0
TEXT
  8
22
  6
CONTINUOUS
 62
     3
  5
575
 10
962239.025
 20
7286055.848
 30
0.0
 40
8.0
  1
100'  UNRESTRICTED   DRAINAGE AREA
 50
335.393697
  7
ROMANS
210
0.0
220
0.0
230
1.0
  0
TEXT
  8
22
  6
CONTINUOUS
 62
     3
  5
576
 10
962839.098
 20
7286186.267
 30
0.0
 40
8.0
  1
20'UUE
 50
65.6026
  7
txt
 72
     4
 11
962843.75528
 21
7286206.218907
 31
0.0
210
0.0
220
0.0
230
1.0
  0
TEXT
  8
22
  6
CONTINUOUS
 62
     3
  5
577
 10
962429.908
 20
7286340.073
 30
0.0
 40
8.0
  1
20'UUE
 50
335.6026
  7
txt
 72
     4
 11
962449.859907
 21
7286335.41572
 31
0.0
210
0.0
220
0.0
230
1.0
  0
TEXT
  8
19
  6
CONTINUOUS
 62
     1
  5
578
 10
962726.5
 20
7285742.132
 30
0.0
 40
24.0
  1
N ELDER AVE
 50
66.261614
  7
ROMANC
 72
     4
 11
962774.393071
 21
7285880.846297
 31
0.0
210
0.0
220
0.0
230
1.0
  0
TEXT
  8
11
  6
CONTINUOUS
 62
     7
  5
579
 10
962396.987
 20
7285359.436
 30
0.0
 40
8.0
  1
R=40'
 50
358.261614
  7
txt
 72
     4
 11
962414.170487
 21
7285362.916325
 31
0.0
210
0.0
220
0.0
230
1.0
  0
TEXT
  8
11
  6
CONTINUOUS
 62
     7
  5
57A
 10
962494.419
 20
7285452.579
 30
0.0
 40
8.0
  1
160.14'
 50
53.261614
  7
txt
 72
     4
 11
962503.646899
 21
7285471.629031
 31
0.0
210
0.0
220
0.0
230
1.0
  0
TEXT
  8
11
  6
CONTINUOUS
 62
     7
  5
57B
 10
962543.295
 20
7285367.929
 30
0.0
 40
8.0
  1
200.47'
 50
55.261614
  7
txt
 72
     4
 11
962553.575607
 21
7285389.774485
 31
0.0
210
0.0
220
0.0
230
1.0
  0
TEXT
  8
15
  6
CONTINUOUS
 62
    30
  5
57C
 10
961819.991
 20
7286964.466
 30
0.0
 40
50.0
  1
LUBBOCK
 50
28.6026
  7
ROMANC
 72
     4
 11
961975.137364
 21
7287077.538738
 31
0.0
210
0.0
220
0.0
230
1.0
  0
TEXT
  8
15
  6
CONTINUOUS
 62
    30
  5
57D
 10
961803.01
 20
7286869.781
 30
0.0
 40
50.0
  1
INDUSTRIAL
 50
28.6026
  7
ROMANC
 72
     4
 11
962010.86389
 21
7287011.593917
 31
0.0
210
0.0
220
0.0
230
1.0
  0
TEXT
  8
15
  6
CONTINUOUS
 62
    30
  5
57E
 10
961963.351
 20
7286871.785
 30
0.0
 40
50.0
  1
PARK
 50
28.6026
  7
ROMANC
 72
     4
 11
962046.951424
 21
7286945.845413
 31
0.0
210
0.0
220
0.0
230
1.0
  0
TEXT
  8
11
  6
CONTINUOUS
 62
     7
  5
57F
 10
961350.658
 20
7287123.719
 30
0.0
 40
8.0
  1
128.7'
 50
28.261614
  7
txt
 72
     4
 11
961364.853485
 21
7287135.891571
 31
0.0
210
0.0
220
0.0
230
1.0
  0
TEXT
  8
11
  6
CONTINUOUS
 62
     7
  5
580
 10
961498.53
 20
7287206.326
 30
0.0
 40
8.0
  1
170.39'
 50
28.261614
  7
txt
 72
     4
 11
961516.054009
 21
7287220.287921
 31
0.0
210
0.0
220
0.0
230
1.0
  0
TEXT
  8
22
  6
CONTINUOUS
 62
     3
  5
581
 10
961481.386
 20
7287178.442
 30
0.0
 40
8.0
  1
CITY WELL ESMT.
 50
358.6026
  7
ROMANS
210
0.0
220
0.0
230
1.0
  0
TEXT
  8
22
  6
CONTINUOUS
 62
     3
  5
582
 10
961411.779
 20
7287173.698
 30
0.0
 40
6.0
  1
70.25'
 50
28.261614
  7
txt
 72
     4
 11
961423.34142
 21
7287183.319748
 31
0.0
210
0.0
220
0.0
230
1.0
  0
TEXT
  8
22
  6
CONTINUOUS
 62
     3
  5
583
 10
961462.316
 20
7287186.747
 30
0.0
 40
6.0
  1
55.89'
 50
298.261614
  7
txt
 72
     4
 11
961471.870511
 21
7287175.309652
 31
0.0
210
0.0
220
0.0
230
1.0
  0
TEXT
  8
22
  6
CONTINUOUS
 62
     3
  5
584
 10
961526.107
 20
7287047.716
 30
0.0
 40
6.0
  1
80' DRAINAGE EASEMENT
 50
295.261614
  7
txt
 72
     4
 11
961553.002438
 21
7286997.749302
 31
0.0
210
0.0
220
0.0
230
1.0
  0
TEXT
  8
22
  6
CONTINUOUS
 62
     3
  5
585
 10
961535.011
 20
7286891.022
 30
0.0
 40
6.0
  1
20'UUE
 50
295.261614
  7
txt
 72
     4
 11
961544.15526
 21
7286878.67342
 31
0.0
210
0.0
220
0.0
230
1.0
  0
TEXT
  8
22
  6
CONTINUOUS
 62
     3
  5
586
 10
961715.216
 20
7286622.174
 30
0.0
 40
6.0
  1
80' DRAINAGE EASEMENT
 50
295.261614
  7
txt
 72
     4
 11
961742.111438
 21
7286572.207302
 31
0.0
210
0.0
220
0.0
230
1.0
  0
TEXT
  8
22
  6
CONTINUOUS
 62
     3
  5
587
 10
961676.051
 20
7286571.628
 30
0.0
 40
6.0
  1
20'UUE
 50
295.261614
  7
txt
 72
     4
 11
961685.19526
 21
7286559.27942
 31
0.0
210
0.0
220
0.0
230
1.0
  0
TEXT
  8
22
  6
CONTINUOUS
 62
     3
  5
588
 10
960276.421
 20
7287072.045
 30
0.0
 40
6.0
  1
1116.04'
 50
22.916756
  7
ROMANS
 72
     4
 11
960295.516395
 21
7287083.374868
 31
0.0
210
0.0
220
0.0
230
1.0
  0
TEXT
  8
22
  6
CONTINUOUS
 62
     3
  5
589
 10
960301.124
 20
7287006.62
 30
0.0
 40
6.0
  1
612.09'
 50
22.916756
  7
ROMANS
 72
     4
 11
960317.45618
 21
7287016.781688
 31
0.0
210
0.0
220
0.0
230
1.0
  0
TEXT
  8
22
  6
CONTINUOUS
 62
     3
  5
58A
 10
959974.643
 20
7286919.794
 30
0.0
 40
6.0
  1
66.83'
 50
287.916756
  7
ROMANS
 72
     4
 11
959982.419672
 21
7286905.492833
 31
0.0
210
0.0
220
0.0
230
1.0
  0
TEXT
  8
22
  6
CONTINUOUS
 62
     3
  5
58B
 10
960256.348
 20
7287029.994
 30
0.0
 40
6.0
  1
CRMWA EASEMENT
 50
22.916756
  7
ROMANS
 72
     4
 11
960292.943754
 21
7287048.722341
 31
0.0
210
0.0
220
0.0
230
1.0
  0
TEXT
  8
22
  6
CONTINUOUS
 62
     3
  5
58C
 10
960794.962
 20
7287227.196
 30
0.0
 40
6.0
  1
CRMWA EASEMENT
 50
22.916756
  7
ROMANS
 72
     4
 11
960831.557754
 21
7287245.924341
 31
0.0
210
0.0
220
0.0
230
1.0
  0
TEXT
  8
11
  6
CONTINUOUS
 62
     7
  5
58D
 10
960640.131
 20
7287105.781
 30
0.0
 40
8.0
  1
1209.81'
 50
22.261614
  7
txt
 72
     4
 11
960661.379287
 21
7287118.801089
 31
0.0
210
0.0
220
0.0
230
1.0
  0
TEXT
  8
22
  6
CONTINUOUS
 62
     3
  5
58E
 10
960575.062
 20
7287115.668
 30
0.0
 40
6.0
  1
41.95'
 50
292.916756
  7
ROMANS
 72
     4
 11
960584.055508
 21
7287102.099035
 31
0.0
210
0.0
220
0.0
230
1.0
  0
TEXT
  8
22
  6
CONTINUOUS
 62
     3
  5
58F
 10
960764.752
 20
7287160.02
 30
0.0
 40
6.0
  1
701.86'
 50
22.916756
  7
ROMANS
 72
     4
 11
960781.08418
 21
7287170.181688
 31
0.0
210
0.0
220
0.0
230
1.0
  0
TEXT
  8
22
  6
CONTINUOUS
 62
     3
  5
590
 10
960992.64
 20
7287351.33
 30
0.0
 40
6.0
  1
67.44'
 50
292.916756
  7
ROMANS
 72
     4
 11
961001.633508
 21
7287337.761035
 31
0.0
210
0.0
220
0.0
230
1.0
  0
TEXT
  8
22
  6
CONTINUOUS
 62
     3
  5
591
 10
963610.729
 20
7286438.516
 30
0.0
 40
6.0
  1
2340.94'
 50
88.6026
  7
ROMANS
 72
     4
 11
963608.266402
 21
7286460.582618
 31
0.0
210
0.0
220
0.0
230
1.0
  0
TEXT
  8
22
  6
CONTINUOUS
 62
     3
  5
592
 10
963619.927
 20
7286038.91
 30
0.0
 40
6.0
  1
C.R.M.W.A.  EASEMENT
 50
88.6026
  7
ROMANS
 72
     4
 11
963618.366714
 21
7286097.965614
 31
0.0
210
0.0
220
0.0
230
1.0
  0
TEXT
  8
22
  6
CONTINUOUS
 62
     3
  5
593
 10
963640.288
 20
7285982.235
 30
0.0
 40
6.0
  1
27.9'
 50
358.6026
  7
ROMANS
 72
     4
 11
963653.357294
 21
7285984.917079
 31
0.0
210
0.0
220
0.0
230
1.0
  0
TEXT
  8
22
  6
CONTINUOUS
 62
     3
  5
594
 10
963660.399
 20
7285957.009
 30
0.0
 40
6.0
  1
32'
 50
88.6026
  7
ROMANS
 72
     4
 11
963657.5706
 21
7285964.080079
 31
0.0
210
0.0
220
0.0
230
1.0
  0
TEXT
  8
22
  6
CONTINUOUS
 62
     3
  5
595
 10
963611.502
 20
7285950.663
 30
0.0
 40
6.0
  1
60.07'
 50
358.6026
  7
ROMANS
 72
     4
 11
963627.570402
 21
7285953.271919
 31
0.0
210
0.0
220
0.0
230
1.0
  0
TEXT
  8
22
  6
CONTINUOUS
 62
     3
  5
596
 10
963640.695
 20
7286944.312
 30
0.0
 40
6.0
  1
C.R.M.W.A.  EASEMENT
 50
88.6026
  7
ROMANS
 72
     4
 11
963639.134714
 21
7287003.367614
 31
0.0
210
0.0
220
0.0
230
1.0
  0
TEXT
  8
22
  6
CONTINUOUS
 62
     3
  5
597
 10
963662.521
 20
7287884.581
 30
0.0
 40
6.0
  1
C.R.M.W.A.  EASEMENT
 50
88.6026
  7
ROMANS
 72
     4
 11
963660.960714
 21
7287943.636614
 31
0.0
210
0.0
220
0.0
230
1.0
  0
TEXT
  8
22
  6
CONTINUOUS
 62
     3
  5
598
 10
963669.908
 20
7288525.962
 30
0.0
 40
6.0
  1
C.R.M.W.A.  EASEMENT
 50
88.6026
  7
ROMANS
 72
     4
 11
963668.347714
 21
7288585.017614
 31
0.0
210
0.0
220
0.0
230
1.0
  0
TEXT
  8
22
  6
CONTINUOUS
 62
     3
  5
599
 10
963659.019
 20
7288272.093
 30
0.0
 40
6.0
  1
35.28'
 50
358.6026
  7
txt
 72
     4
 11
963673.827777
 21
7288274.732646
 31
0.0
210
0.0
220
0.0
230
1.0
  0
TEXT
  8
22
  6
CONTINUOUS
 62
     3
  5
59A
 10
963120.864
 20
7288177.293
 30
0.0
 40
8.0
  1
C.R.M.W.A.   EASEMENT
 50
22.916756
  7
ROMANS
210
0.0
220
0.0
230
1.0
  0
TEXT
  8
22
  6
CONTINUOUS
 62
     3
  5
59B
 10
963291.039
 20
7288230.308
 30
0.0
 40
8.0
  1
72.76'
 50
88.6026
  7
ROMANS
210
0.0
220
0.0
230
1.0
  0
TEXT
  8
22
  6
CONTINUOUS
 62
     3
  5
59C
 10
963344.748
 20
7287787.21
 30
0.0
 40
6.0
  1
20'UUE
 50
88.261614
  7
txt
 72
     4
 11
963342.206543
 21
7287802.364072
 31
0.0
210
0.0
220
0.0
230
1.0
  0
TEXT
  8
22
  6
CONTINUOUS
 62
     3
  5
59D
 10
962958.268
 20
7287258.005
 30
0.0
 40
6.0
  1
20'UUE
 50
88.261614
  7
txt
 72
     4
 11
962955.726543
 21
7287273.159072
 31
0.0
210
0.0
220
0.0
230
1.0
  0
TEXT
  8
22
  6
CONTINUOUS
 62
     3
  5
59E
 10
962848.134
 20
7288101.436
 30
0.0
 40
8.0
  1
2870.81'
 50
22.916756
  7
ROMANS
210
0.0
220
0.0
230
1.0
  0
SOLID
  8
25
  6
CONTINUOUS
 62
   212
  5
5A0
 10
958946.522
 20
7287573.228
 30
0.0
 11
958860.251
 21
7287280.684
 31
0.0
 12
958956.113
 22
7287570.4
 32
0.0
 13
958869.843
 23
7287277.856
 33
0.0
  0
TEXT
  8
22
  6
CONTINUOUS
 62
     3
  5
5A1
 10
958883.836
 20
7287287.277
 30
0.0
 40
8.0
  1
CLOSED PER ORDINANCE 2002-00045
 50
73.569433
  7
txt
 72
     1
 11
958909.960823
 21
7287404.150238
 31
0.0
210
0.0
220
0.0
230
1.0
 73
     3
  0
TEXT
  8
13
  6
CONTINUOUS
 62
    14
  5
5A3
 10
958889.889
 20
7287388.57
 30
0.0
 40
8.0
  1
V7644 P109
 50
73.569253
  7
txt
 72
     1
 11
958900.588319
 21
7287424.851274
 31
0.0
210
0.0
220
0.0
230
1.0
  0
TEXT
  8
28
  6
CONTINUOUS
 62
    32
  5
5A5
 10
959200.26
 20
7286390.675
 30
0.0
 40
24.0
  1
AT AND SANTA FE RR
 50
23.279028
  7
txt
 72
     4
 11
959386.110445
 21
7286483.697698
 31
0.0
210
0.0
220
0.0
230
1.0
  0
TEXT
  8
28
  6
CONTINUOUS
 62
    32
  5
5A6
 10
960859.32
 20
7287116.614
 30
0.0
 40
24.0
  1
AT AND SANTA FE RR
 50
23.279028
  7
txt
 72
     4
 11
961045.170445
 21
7287209.636698
 31
0.0
210
0.0
220
0.0
230
1.0
  0
TEXT
  8
28
  6
CONTINUOUS
 62
    32
  5
5A7
 10
963093.701
 20
7288092.942
 30
0.0
 40
24.0
  1
AT AND SANTA FE RR
 50
23.279028
  7
txt
 72
     4
 11
963279.551445
 21
7288185.964698
 31
0.0
210
0.0
220
0.0
230
1.0
  0
TEXT
  8
28
  6
CONTINUOUS
 62
    32
  5
5A8
 10
958760.735
 20
7286229.137
 30
0.0
 40
24.0
  1
 
 50
23.231186
  7
ROMANC
 72
     1
 11
958768.086366
 21
7286232.292537
 31
0.0
210
0.0
220
0.0
230
1.0
  0
ENDSEC
  0
EOF
