  0
SECTION
  2
HEADER
  9
$ACADVER
  1
AC1009
  9
$INSBASE
 10
0.0
 20
0.0
 30
0.0
  9
$EXTMIN
 10
942654.257
 20
7289139.398
 30
0.0
  9
$EXTMAX
 10
948115.954
 20
7294618.83
 30
0.0
  9
$LIMMIN
 10
0.0
 20
0.0
  9
$LIMMAX
 10
12.0
 20
9.0
  9
$ORTHOMODE
 70
     0
  9
$REGENMODE
 70
     1
  9
$FILLMODE
 70
     1
  9
$QTEXTMODE
 70
     0
  9
$MIRRTEXT
 70
     1
  9
$DRAGMODE
 70
     2
  9
$LTSCALE
 40
1.0
  9
$OSMODE
 70
     0
  9
$ATTMODE
 70
     1
  9
$TEXTSIZE
 40
0.2
  9
$TRACEWID
 40
0.05
  9
$TEXTSTYLE
  7
STANDARD
  9
$CLAYER
  8
0
  9
$CELTYPE
  6
CONTINUOUS
  9
$CECOLOR
 62
   256
  9
$DIMSCALE
 40
1.0
  9
$DIMASZ
 40
0.18
  9
$DIMEXO
 40
0.0625
  9
$DIMDLI
 40
0.38
  9
$DIMRND
 40
0.0
  9
$DIMDLE
 40
0.0
  9
$DIMEXE
 40
0.18
  9
$DIMTP
 40
0.0
  9
$DIMTM
 40
0.0
  9
$DIMTXT
 40
0.18
  9
$DIMCEN
 40
0.09
  9
$DIMTSZ
 40
0.0
  9
$DIMTOL
 70
     0
  9
$DIMLIM
 70
     0
  9
$DIMTIH
 70
     1
  9
$DIMTOH
 70
     1
  9
$DIMSE1
 70
     0
  9
$DIMSE2
 70
     0
  9
$DIMTAD
 70
     0
  9
$DIMZIN
 70
     0
  9
$DIMBLK
  1

  9
$DIMASO
 70
     1
  9
$DIMSHO
 70
     1
  9
$DIMPOST
  1

  9
$DIMAPOST
  1

  9
$DIMALT
 70
     0
  9
$DIMALTD
 70
     2
  9
$DIMALTF
 40
25.4
  9
$DIMLFAC
 40
1.0
  9
$DIMTOFL
 70
     0
  9
$DIMTVP
 40
0.0
  9
$DIMTIX
 70
     0
  9
$DIMSOXD
 70
     0
  9
$DIMSAH
 70
     0
  9
$DIMBLK1
  1

  9
$DIMBLK2
  1

  9
$DIMSTYLE
  2
STANDARD
  9
$DIMCLRD
 70
     0
  9
$DIMCLRE
 70
     0
  9
$DIMCLRT
 70
     0
  9
$DIMTFAC
 40
1.0
  9
$DIMGAP
 40
0.09
  9
$LUNITS
 70
     2
  9
$LUPREC
 70
     4
  9
$AXISMODE
 70
     0
  9
$AXISUNIT
 10
0.0
 20
0.0
  9
$SKETCHINC
 40
0.1
  9
$FILLETRAD
 40
0.0
  9
$AUNITS
 70
     0
  9
$AUPREC
 70
     0
  9
$MENU
  1
acad
  9
$ELEVATION
 40
0.0
  9
$PELEVATION
 40
0.0
  9
$THICKNESS
 40
0.0
  9
$LIMCHECK
 70
     0
  9
$BLIPMODE
 70
     1
  9
$CHAMFERA
 40
0.0
  9
$CHAMFERB
 40
0.0
  9
$SKPOLY
 70
     0
  9
$TDCREATE
 40
2453013.900277778
  9
$TDUPDATE
 40
2453013.900277778
  9
$TDINDWG
 40
0.0000000000
  9
$TDUSRTIMER
 40
0.0000000000
  9
$USRTIMER
 70
     1
  9
$ANGBASE
 50
0.0
  9
$ANGDIR
 70
     0
  9
$PDMODE
 70
     0
  9
$PDSIZE
 40
0.0
  9
$PLINEWID
 40
0.0
  9
$COORDS
 70
     0
  9
$SPLFRAME
 70
     0
  9
$SPLINETYPE
 70
     6
  9
$SPLINESEGS
 70
    10
  9
$ATTDIA
 70
     0
  9
$ATTREQ
 70
     1
  9
$HANDLING
 70
     1
  9
$HANDSEED
  5
2ED
  9
$SURFTAB1
 70
     6
  9
$SURFTAB2
 70
     6
  9
$SURFTYPE
 70
     6
  9
$SURFU
 70
     6
  9
$SURFV
 70
     6
  9
$UCSNAME
  2

  9
$UCSORG
 10
0.0
 20
0.0
 30
0.0
  9
$UCSXDIR
 10
1.0
 20
0.0
 30
0.0
  9
$UCSYDIR
 10
0.0
 20
1.0
 30
0.0
  9
$PUCSNAME
  2

  9
$PUCSORG
 10
0.0
 20
0.0
 30
0.0
  9
$PUCSXDIR
 10
1.0
 20
0.0
 30
0.0
  9
$PUCSYDIR
 10
0.0
 20
1.0
 30
0.0
  9
$USERI1
 70
     0
  9
$USERI2
 70
     0
  9
$USERI3
 70
     0
  9
$USERI4
 70
     0
  9
$USERI5
 70
     0
  9
$USERR1
 40
0.0
  9
$USERR2
 40
0.0
  9
$USERR3
 40
0.0
  9
$USERR4
 40
0.0
  9
$USERR5
 40
0.0
  9
$WORLDVIEW
 70
     1
  9
$SHADEDGE
 70
     3
  9
$SHADEDIF
 70
    70
  9
$TILEMODE
 70
     1
  9
$MAXACTVP
 70
    16
  9
$PINSBASE
 10
0.0
 20
0.0
 30
0.0
  9
$PLIMCHECK
 70
     0
  9
$PEXTMIN
 10
-1.000000E+20
 20
-1.000000E+20
 30
-1.000000E+20
  9
$PEXTMAX
 10
-1.000000E+20
 20
-1.000000E+20
 30
-1.000000E+20
  9
$PLIMMIN
 10
0.0
 20
0.0
  9
$PLIMMAX
 10
12.0
 20
9.0
  9
$UNITMODE
 70
     0
  9
$VISRETAIN
 70
     0
  9
$PLINEGEN
 70
     1
  9
$PSLTSCALE
 70
     0
  9
$TREEDEPTH
 70
  3020
  9
$DWGCODEPAGE
  3
ansi_1252
  0
ENDSEC
  0
SECTION
  2
TABLES
  0
TABLE
  2
VPORT
 70
     1
  0
VPORT
  2
*ACTIVE
 70
     0
 10
0.0
 20
0.0
 11
1.0
 21
1.0
 12
0.0
 22
0.0
 13
0.0
 23
0.0
 14
0.0
 24
0.0
 15
0.0
 25
0.0
 16
0.0
 26
0.0
 36
1.0
 17
945073.36297
 27
7291755.624441
 37
0.0
 40
5430.754
 41
1.231844
 42
50.0
 43
0.004
 44
0.0
 50
1.59186
 51
0.0
 71
     0
 72
   100
 73
     1
 74
     0
 75
     0
 76
     0
 77
     0
 78
     0
  0
ENDTAB
  0
TABLE
  2
LTYPE
 70
     7
  0
LTYPE
  2
CONTINUOUS
 70
     0
  3
Solid line
 72
    65
 73
     0
 40
0.0
  0
LTYPE
  2
DOT
 70
    64
  3
. . . . . . . . . . . . . . . . . . . . . . . . . . . . . . . . .
 72
    65
 73
     2
 40
0.25
 49
0.0
 49
-0.25
  0
LTYPE
  2
HIDDEN
 70
    64
  3
__ __ __ __ __ __ __ __ __ __ __ __ __ __ __ __ __ __ __ __ __ 
 72
    65
 73
     2
 40
0.375
 49
0.25
 49
-0.125
  0
LTYPE
  2
DASHED
 70
    64
  3
__ __ __ __ __ __ __ __ __ __ __ __ __ __ __ __ __ __ __ __ __
 72
    65
 73
     2
 40
0.75
 49
0.5
 49
-0.25
  0
LTYPE
  2
DASHDOT
 70
    64
  3
__ . __ . __ . __ . __ . __ . __ . __ . __ . __ . __ . __ . _
 72
    65
 73
     4
 40
1.0
 49
0.5
 49
-0.25
 49
0.0
 49
-0.25
  0
LTYPE
  2
DIVIDE
 70
    64
  3
____ . . ____ . . ____ . . ____ . . ____ . . ____ . . ____ . .
 72
    65
 73
     6
 40
1.25
 49
0.5
 49
-0.25
 49
0.0
 49
-0.25
 49
0.0
 49
-0.25
  0
LTYPE
  2
CENTER
 70
    64
  3
____ _ ____ _ ____ _ ____ _ ____ _ ____ _ ____ _ ____ _ ____ _
 72
    65
 73
     4
 40
2.0
 49
1.25
 49
-0.25
 49
0.25
 49
-0.25
  0
ENDTAB
  0
TABLE
  2
LAYER
 70
    16
  0
LAYER
  2
0
 70
     0
 62
     7
  6
CONTINUOUS
  0
LAYER
  2
CONSTRUCTION_CLASS
 70
     1
 62
     7
  6
CONTINUOUS
  0
LAYER
  2
PATTERN_CLASS
 70
     0
 62
     7
  6
CONTINUOUS
  0
LAYER
  2
7
 70
    64
 62
     7
  6
CONTINUOUS
  0
LAYER
  2
6
 70
    64
 62
     7
  6
CONTINUOUS
  0
LAYER
  2
10
 70
    64
 62
     7
  6
CONTINUOUS
  0
LAYER
  2
27
 70
    64
 62
     7
  6
CONTINUOUS
  0
LAYER
  2
19
 70
    64
 62
     7
  6
CONTINUOUS
  0
LAYER
  2
15
 70
    64
 62
     7
  6
CONTINUOUS
  0
LAYER
  2
11
 70
    64
 62
     7
  6
CONTINUOUS
  0
LAYER
  2
21
 70
    64
 62
     7
  6
CONTINUOUS
  0
LAYER
  2
22
 70
    64
 62
     7
  6
CONTINUOUS
  0
LAYER
  2
1
 70
    64
 62
     7
  6
CONTINUOUS
  0
LAYER
  2
8
 70
    64
 62
     7
  6
CONTINUOUS
  0
LAYER
  2
13
 70
    64
 62
     7
  6
CONTINUOUS
  0
LAYER
  2
28
 70
    64
 62
     7
  6
CONTINUOUS
  0
ENDTAB
  0
TABLE
  2
STYLE
 70
     5
  0
STYLE
  2
STANDARD
 70
     0
 40
0.0
 41
1.0
 50
0.0
 71
     0
 42
0.0
  3
txt
  4

  0
STYLE
  2
ROMANS
 70
     0
 40
0.2
 41
1.0
 50
0.0
 71
     0
 42
0.2
  3
ROMANS
  4

  0
STYLE
  2
ROMANC
 70
     0
 40
0.2
 41
1.0
 50
0.0
 71
     0
 42
0.2
  3
ROMANC
  4

  0
STYLE
  2
MONOTXT
 70
     0
 40
0.2
 41
1.0
 50
0.0
 71
     0
 42
0.2
  3
MONOTXT
  4

  0
STYLE
  2
txt
 70
     0
 40
0.2
 41
1.0
 50
0.0
 71
     0
 42
0.2
  3
TXT
  4

  0
ENDTAB
  0
TABLE
  2
VIEW
 70
     0
  0
ENDTAB
  0
TABLE
  2
UCS
 70
     0
  0
ENDTAB
  0
TABLE
  2
APPID
 70
     1
  0
APPID
  2
ACAD
 70
     0
  0
ENDTAB
  0
TABLE
  2
DIMSTYLE
 70
     1
  0
DIMSTYLE
  2
STANDARD
 70
     0
  3

  4

  5

  6

  7

 40
1.0
 41
0.18
 42
0.0625
 43
0.38
 44
0.18
 45
0.0
 46
0.0
 47
0.0
 48
0.0
140
0.18
141
0.09
142
0.0
143
25.4
144
1.0
145
0.0
146
1.0
147
0.09
 71
     0
 72
     0
 73
     1
 74
     1
 75
     0
 76
     0
 77
     0
 78
     0
170
     0
171
     2
172
     0
173
     0
174
     0
175
     0
176
     0
177
     0
178
     0
  0
ENDTAB
  0
ENDSEC
  0
SECTION
  2
BLOCKS
  0
ENDSEC
  0
SECTION
  2
ENTITIES
  0
LINE
  8
7
  6
CONTINUOUS
 62
     7
  5
29
 10
947639.394
 20
7289632.26
 30
0.0
 11
947635.561
 21
7289502.317
 31
0.0
  0
LINE
  8
7
  6
CONTINUOUS
 62
     7
  5
2A
 10
947739.35
 20
7289629.312
 30
0.0
 11
947735.518
 21
7289499.368
 31
0.0
  0
LINE
  8
7
  6
CONTINUOUS
 62
     7
  5
2B
 10
947839.307
 20
7289626.363
 30
0.0
 11
947835.473
 21
7289496.42
 31
0.0
  0
LINE
  8
7
  6
CONTINUOUS
 62
     7
  5
2C
 10
947643.67
 20
7289777.197
 30
0.0
 11
947639.836
 21
7289647.253
 31
0.0
  0
LINE
  8
7
  6
CONTINUOUS
 62
     7
  5
2D
 10
947743.626
 20
7289774.248
 30
0.0
 11
947739.793
 21
7289644.305
 31
0.0
  0
LINE
  8
7
  6
CONTINUOUS
 62
     7
  5
2E
 10
947843.583
 20
7289771.3
 30
0.0
 11
947839.749
 21
7289641.356
 31
0.0
  0
POLYLINE
  8
6
  6
CONTINUOUS
 62
     7
  5
30
 66
     1
 10
0.0
 20
0.0
 30
0.0
 70
     1
  0
VERTEX
  8
6
  6
CONTINUOUS
 62
     7
  5
31
 10
947939.706
 20
7289638.408
 30
0.0
  0
VERTEX
  8
6
  6
CONTINUOUS
 62
     7
  5
32
 10
947539.88
 20
7289650.202
 30
0.0
  0
VERTEX
  8
6
  6
CONTINUOUS
 62
     7
  5
33
 10
947543.713
 20
7289780.146
 30
0.0
  0
VERTEX
  8
6
  6
CONTINUOUS
 62
     7
  5
34
 10
947943.539
 20
7289768.351
 30
0.0
  0
SEQEND
  8
6
  6
CONTINUOUS
 62
     7
  5
35
  0
LINE
  8
7
  6
CONTINUOUS
 62
     7
  5
36
 10
947643.67
 20
7289777.197
 30
0.0
 11
947639.836
 21
7289647.253
 31
0.0
  0
LINE
  8
7
  6
CONTINUOUS
 62
     7
  5
37
 10
947743.626
 20
7289774.248
 30
0.0
 11
947739.793
 21
7289644.305
 31
0.0
  0
LINE
  8
7
  6
CONTINUOUS
 62
     7
  5
38
 10
947843.583
 20
7289771.3
 30
0.0
 11
947839.749
 21
7289641.356
 31
0.0
  0
TEXT
  8
10
  6
CONTINUOUS
 62
   134
  5
3B
 10
947885.19
 20
7289702.554
 30
0.0
 40
13.999
  1
1
 50
358.3103
  7
ROMANS
 11
947885.602782
 21
7289716.546913
 31
0.0
210
0.0
220
0.0
230
1.0
 73
     3
  0
TEXT
  8
10
  6
CONTINUOUS
 62
   134
  5
3C
 10
947788.453
 20
7289705.407
 30
0.0
 40
13.999
  1
2
 50
358.3103
  7
ROMANS
 11
947788.865782
 21
7289719.399913
 31
0.0
210
0.0
220
0.0
230
1.0
 73
     3
  0
TEXT
  8
10
  6
CONTINUOUS
 62
   134
  5
3D
 10
947686.753
 20
7289708.408
 30
0.0
 40
13.999
  1
3
 50
358.3103
  7
ROMANS
 11
947687.165782
 21
7289722.400913
 31
0.0
210
0.0
220
0.0
230
1.0
 73
     3
  0
TEXT
  8
10
  6
CONTINUOUS
 62
   134
  5
3E
 10
947587.535
 20
7289711.334
 30
0.0
 40
13.999
  1
4
 50
358.3103
  7
ROMANS
 11
947587.947782
 21
7289725.326913
 31
0.0
210
0.0
220
0.0
230
1.0
 73
     3
  0
TEXT
  8
10
  6
CONTINUOUS
 62
   134
  5
3F
 10
947585.622
 20
7289562.315
 30
0.0
 40
13.999
  1
5
 50
358.3103
  7
ROMANS
 11
947586.034782
 21
7289576.307913
 31
0.0
210
0.0
220
0.0
230
1.0
 73
     3
  0
TEXT
  8
10
  6
CONTINUOUS
 62
   134
  5
40
 10
947679.879
 20
7289559.535
 30
0.0
 40
13.999
  1
6
 50
358.3103
  7
ROMANS
 11
947680.291782
 21
7289573.527913
 31
0.0
210
0.0
220
0.0
230
1.0
 73
     3
  0
TEXT
  8
10
  6
CONTINUOUS
 62
   134
  5
41
 10
947784.058
 20
7289556.462
 30
0.0
 40
13.999
  1
7
 50
358.3103
  7
ROMANS
 11
947784.470782
 21
7289570.454913
 31
0.0
210
0.0
220
0.0
230
1.0
 73
     3
  0
TEXT
  8
10
  6
CONTINUOUS
 62
   134
  5
42
 10
947885.758
 20
7289553.462
 30
0.0
 40
13.999
  1
8
 50
358.3103
  7
ROMANS
 11
947886.170782
 21
7289567.454913
 31
0.0
210
0.0
220
0.0
230
1.0
 73
     3
  0
POLYLINE
  8
6
  6
CONTINUOUS
 62
     7
  5
43
 66
     1
 10
0.0
 20
0.0
 30
0.0
  0
VERTEX
  8
6
  6
CONTINUOUS
 62
     7
  5
44
 10
947534.135
 20
7289455.49
 30
0.0
  0
VERTEX
  8
6
  6
CONTINUOUS
 62
     7
  5
45
 10
947531.567
 20
7289368.425
 30
0.0
  0
VERTEX
  8
6
  6
CONTINUOUS
 62
     7
  5
46
 10
947929.715
 20
7289299.755
 30
0.0
  0
VERTEX
  8
6
  6
CONTINUOUS
 62
     7
  5
47
 10
947933.956
 20
7289443.493
 30
0.0
  0
VERTEX
  8
6
  6
CONTINUOUS
 62
     7
  5
48
 10
947534.135
 20
7289455.49
 30
0.0
  0
SEQEND
  8
6
  6
CONTINUOUS
 62
     7
  5
49
  0
LINE
  8
7
  6
CONTINUOUS
 62
     7
  5
4A
 10
947833.999
 20
7289446.441
 30
0.0
 11
947830.178
 21
7289316.923
 31
0.0
  0
LINE
  8
7
  6
CONTINUOUS
 62
     7
  5
4B
 10
947734.043
 20
7289449.39
 30
0.0
 11
947730.641
 21
7289334.09
 31
0.0
  0
LINE
  8
7
  6
CONTINUOUS
 62
     7
  5
4C
 10
947634.086
 20
7289452.339
 30
0.0
 11
947631.104
 21
7289351.257
 31
0.0
  0
LINE
  8
7
  6
CONTINUOUS
 62
     7
  5
4D
 10
947348.2
 20
7289680.868
 30
0.0
 11
947490.639
 21
7289676.666
 31
0.0
  0
LINE
  8
7
  6
CONTINUOUS
 62
     7
  5
4E
 10
947345.105
 20
7289575.913
 30
0.0
 11
947487.543
 21
7289571.712
 31
0.0
  0
LINE
  8
7
  6
CONTINUOUS
 62
     7
  5
4F
 10
947342.009
 20
7289470.959
 30
0.0
 11
947484.446
 21
7289466.757
 31
0.0
  0
LINE
  8
7
  6
CONTINUOUS
 62
     7
  5
50
 10
947355.72
 20
7289935.757
 30
0.0
 11
947498.158
 21
7289931.555
 31
0.0
  0
LINE
  8
7
  6
CONTINUOUS
 62
     7
  5
51
 10
947358.668
 20
7290035.713
 30
0.0
 11
947501.107
 21
7290031.512
 31
0.0
  0
LINE
  8
7
  6
CONTINUOUS
 62
     7
  5
52
 10
947361.617
 20
7290135.67
 30
0.0
 11
947504.055
 21
7290131.468
 31
0.0
  0
LINE
  8
7
  6
CONTINUOUS
 62
     7
  5
53
 10
947364.566
 20
7290235.626
 30
0.0
 11
947507.004
 21
7290231.425
 31
0.0
  0
LINE
  8
7
  6
CONTINUOUS
 62
     7
  5
54
 10
947367.514
 20
7290335.583
 30
0.0
 11
947509.952
 21
7290331.381
 31
0.0
  0
TEXT
  8
10
  6
CONTINUOUS
 62
   134
  5
55
 10
947437.782
 20
7290376.712
 30
0.0
 40
13.999
  1
1
 50
358.3103
  7
ROMANS
 11
947438.194782
 21
7290390.704913
 31
0.0
210
0.0
220
0.0
230
1.0
 73
     3
  0
TEXT
  8
10
  6
CONTINUOUS
 62
   134
  5
56
 10
947434.74
 20
7290273.589
 30
0.0
 40
13.999
  1
2
 50
358.3103
  7
ROMANS
 11
947435.152782
 21
7290287.581913
 31
0.0
210
0.0
220
0.0
230
1.0
 73
     3
  0
TEXT
  8
10
  6
CONTINUOUS
 62
   134
  5
57
 10
947431.753
 20
7290172.306
 30
0.0
 40
13.999
  1
3
 50
358.3103
  7
ROMANS
 11
947432.165782
 21
7290186.298913
 31
0.0
210
0.0
220
0.0
230
1.0
 73
     3
  0
TEXT
  8
10
  6
CONTINUOUS
 62
   134
  5
58
 10
947431.444
 20
7290068.182
 30
0.0
 40
13.999
  1
4
 50
358.3103
  7
ROMANS
 11
947431.856782
 21
7290082.174913
 31
0.0
210
0.0
220
0.0
230
1.0
 73
     3
  0
TEXT
  8
10
  6
CONTINUOUS
 62
   134
  5
59
 10
947428.592
 20
7289971.501
 30
0.0
 40
13.999
  1
5
 50
358.3103
  7
ROMANS
 11
947429.004782
 21
7289985.493913
 31
0.0
210
0.0
220
0.0
230
1.0
 73
     3
  0
TEXT
  8
10
  6
CONTINUOUS
 62
   134
  5
5A
 10
947425.604
 20
7289870.219
 30
0.0
 40
13.999
  1
6
 50
358.3103
  7
ROMANS
 11
947426.016782
 21
7289884.211913
 31
0.0
210
0.0
220
0.0
230
1.0
 73
     3
  0
LINE
  8
7
  6
CONTINUOUS
 62
     7
  5
5B
 10
947374.886
 20
7290585.474
 30
0.0
 11
947517.323
 21
7290581.272
 31
0.0
  0
LINE
  8
7
  6
CONTINUOUS
 62
     7
  5
5C
 10
947377.835
 20
7290685.431
 30
0.0
 11
947520.273
 21
7290681.228
 31
0.0
  0
LINE
  8
7
  6
CONTINUOUS
 62
     7
  5
5D
 10
947380.783
 20
7290785.387
 30
0.0
 11
947523.222
 21
7290781.185
 31
0.0
  0
LINE
  8
7
  6
CONTINUOUS
 62
     7
  5
5E
 10
947383.732
 20
7290885.344
 30
0.0
 11
947526.17
 21
7290881.141
 31
0.0
  0
LINE
  8
7
  6
CONTINUOUS
 62
     7
  5
5F
 10
947386.681
 20
7290985.301
 30
0.0
 11
947529.119
 21
7290981.098
 31
0.0
  0
TEXT
  8
10
  6
CONTINUOUS
 62
   134
  5
60
 10
947456.948
 20
7291026.429
 30
0.0
 40
13.999
  1
1
 50
358.3103
  7
ROMANS
 11
947457.360782
 21
7291040.421913
 31
0.0
210
0.0
220
0.0
230
1.0
 73
     3
  0
TEXT
  8
10
  6
CONTINUOUS
 62
   134
  5
61
 10
947453.907
 20
7290923.306
 30
0.0
 40
13.999
  1
2
 50
358.3103
  7
ROMANS
 11
947454.319782
 21
7290937.298913
 31
0.0
210
0.0
220
0.0
230
1.0
 73
     3
  0
TEXT
  8
10
  6
CONTINUOUS
 62
   134
  5
62
 10
947450.919
 20
7290822.024
 30
0.0
 40
13.999
  1
3
 50
358.3103
  7
ROMANS
 11
947451.331782
 21
7290836.016913
 31
0.0
210
0.0
220
0.0
230
1.0
 73
     3
  0
TEXT
  8
10
  6
CONTINUOUS
 62
   134
  5
63
 10
947450.61
 20
7290717.9
 30
0.0
 40
13.999
  1
4
 50
358.3103
  7
ROMANS
 11
947451.022782
 21
7290731.892913
 31
0.0
210
0.0
220
0.0
230
1.0
 73
     3
  0
TEXT
  8
10
  6
CONTINUOUS
 62
   134
  5
64
 10
947447.759
 20
7290621.219
 30
0.0
 40
13.999
  1
5
 50
358.3103
  7
ROMANS
 11
947448.171782
 21
7290635.211913
 31
0.0
210
0.0
220
0.0
230
1.0
 73
     3
  0
TEXT
  8
10
  6
CONTINUOUS
 62
   134
  5
65
 10
947444.771
 20
7290519.937
 30
0.0
 40
13.999
  1
6
 50
358.3103
  7
ROMANS
 11
947445.183782
 21
7290533.929913
 31
0.0
210
0.0
220
0.0
230
1.0
 73
     3
  0
LINE
  8
7
  6
CONTINUOUS
 62
     7
  5
66
 10
947394.053
 20
7291235.192
 30
0.0
 11
947536.49
 21
7291230.989
 31
0.0
  0
LINE
  8
7
  6
CONTINUOUS
 62
     7
  5
67
 10
947397.001
 20
7291335.148
 30
0.0
 11
947539.438
 21
7291330.946
 31
0.0
  0
LINE
  8
7
  6
CONTINUOUS
 62
     7
  5
68
 10
947399.95
 20
7291435.105
 30
0.0
 11
947542.387
 21
7291430.903
 31
0.0
  0
LINE
  8
7
  6
CONTINUOUS
 62
     7
  5
69
 10
947402.898
 20
7291535.061
 30
0.0
 11
947545.336
 21
7291530.859
 31
0.0
  0
LINE
  8
7
  6
CONTINUOUS
 62
     7
  5
6A
 10
947405.847
 20
7291635.017
 30
0.0
 11
947548.285
 21
7291630.816
 31
0.0
  0
TEXT
  8
10
  6
CONTINUOUS
 62
   134
  5
6B
 10
947476.115
 20
7291676.147
 30
0.0
 40
13.999
  1
1
 50
358.3103
  7
ROMANS
 11
947476.527782
 21
7291690.139913
 31
0.0
210
0.0
220
0.0
230
1.0
 73
     3
  0
TEXT
  8
10
  6
CONTINUOUS
 62
   134
  5
6C
 10
947473.073
 20
7291573.023
 30
0.0
 40
13.999
  1
2
 50
358.3103
  7
ROMANS
 11
947473.485782
 21
7291587.015913
 31
0.0
210
0.0
220
0.0
230
1.0
 73
     3
  0
TEXT
  8
10
  6
CONTINUOUS
 62
   134
  5
6D
 10
947470.085
 20
7291471.742
 30
0.0
 40
13.999
  1
3
 50
358.3103
  7
ROMANS
 11
947470.497782
 21
7291485.734913
 31
0.0
210
0.0
220
0.0
230
1.0
 73
     3
  0
TEXT
  8
10
  6
CONTINUOUS
 62
   134
  5
6E
 10
947469.777
 20
7291367.618
 30
0.0
 40
13.999
  1
4
 50
358.3103
  7
ROMANS
 11
947470.189782
 21
7291381.610913
 31
0.0
210
0.0
220
0.0
230
1.0
 73
     3
  0
TEXT
  8
10
  6
CONTINUOUS
 62
   134
  5
6F
 10
947466.925
 20
7291270.936
 30
0.0
 40
13.999
  1
5
 50
358.3103
  7
ROMANS
 11
947467.337782
 21
7291284.928913
 31
0.0
210
0.0
220
0.0
230
1.0
 73
     3
  0
TEXT
  8
10
  6
CONTINUOUS
 62
   134
  5
70
 10
947463.937
 20
7291169.655
 30
0.0
 40
13.999
  1
6
 50
358.3103
  7
ROMANS
 11
947464.349782
 21
7291183.647913
 31
0.0
210
0.0
220
0.0
230
1.0
 73
     3
  0
TEXT
  8
10
  6
CONTINUOUS
 62
   134
  5
71
 10
947420.476
 20
7289723.919
 30
0.0
 40
13.999
  1
1
 50
358.3103
  7
ROMANS
 11
947420.888782
 21
7289737.911913
 31
0.0
210
0.0
220
0.0
230
1.0
 73
     3
  0
TEXT
  8
10
  6
CONTINUOUS
 62
   134
  5
72
 10
947419.166
 20
7289617.058
 30
0.0
 40
13.999
  1
2
 50
358.3103
  7
ROMANS
 11
947419.578782
 21
7289631.050913
 31
0.0
210
0.0
220
0.0
230
1.0
 73
     3
  0
TEXT
  8
10
  6
CONTINUOUS
 62
   134
  5
73
 10
947416.07
 20
7289512.093
 30
0.0
 40
13.999
  1
3
 50
358.3103
  7
ROMANS
 11
947416.482782
 21
7289526.085913
 31
0.0
210
0.0
220
0.0
230
1.0
 73
     3
  0
TEXT
  8
10
  6
CONTINUOUS
 62
   134
  5
74
 10
947413.299
 20
7289418.177
 30
0.0
 40
13.999
  1
4
 50
358.3103
  7
ROMANS
 11
947413.711782
 21
7289432.169913
 31
0.0
210
0.0
220
0.0
230
1.0
 73
     3
  0
TEXT
  8
10
  6
CONTINUOUS
 62
   134
  5
75
 10
947881.622
 20
7289373.029
 30
0.0
 40
13.999
  1
1
 50
358.3103
  7
ROMANS
 11
947882.034782
 21
7289387.021913
 31
0.0
210
0.0
220
0.0
230
1.0
 73
     3
  0
TEXT
  8
10
  6
CONTINUOUS
 62
   134
  5
76
 10
947778.572
 20
7289376.069
 30
0.0
 40
13.999
  1
2
 50
358.3103
  7
ROMANS
 11
947778.984782
 21
7289390.061913
 31
0.0
210
0.0
220
0.0
230
1.0
 73
     3
  0
TEXT
  8
10
  6
CONTINUOUS
 62
   134
  5
77
 10
947675.522
 20
7289379.108
 30
0.0
 40
13.999
  1
3
 50
358.3103
  7
ROMANS
 11
947675.934782
 21
7289393.100913
 31
0.0
210
0.0
220
0.0
230
1.0
 73
     3
  0
TEXT
  8
10
  6
CONTINUOUS
 62
   134
  5
78
 10
947572.472
 20
7289382.148
 30
0.0
 40
13.999
  1
4
 50
358.3103
  7
ROMANS
 11
947572.884782
 21
7289396.140913
 31
0.0
210
0.0
220
0.0
230
1.0
 73
     3
  0
LINE
  8
6
  6
CONTINUOUS
 62
     7
  5
79
 10
947219.019
 20
7289198.27
 30
0.0
 11
947370.669
 21
7294402.138
 31
0.0
  0
LINE
  8
27
  6
CONTINUOUS
 62
    32
  5
7B
 10
947268.996
 20
7289196.769
 30
0.0
 11
947420.647
 21
7294400.664
 31
0.0
  0
LINE
  8
6
  6
CONTINUOUS
 62
     7
  5
7C
 10
942735.234
 20
7289906.335
 30
0.0
 11
942819.008
 21
7294516.841
 31
0.0
  0
LINE
  8
6
  6
CONTINUOUS
 62
     7
  5
7D
 10
943394.201
 20
7289407.704
 30
0.0
 11
946287.289
 21
7289316.148
 31
0.0
  0
LINE
  8
6
  6
CONTINUOUS
 62
     7
  5
7E
 10
946287.289
 20
7289316.148
 30
0.0
 11
947224.412
 21
7289414.987
 31
0.0
  0
LINE
  8
6
  6
CONTINUOUS
 62
     7
  5
7F
 10
942819.008
 20
7294516.841
 30
0.0
 11
944090.274
 21
7294479.338
 31
0.0
  0
LINE
  8
6
  6
CONTINUOUS
 62
     7
  5
80
 10
944090.274
 20
7294479.338
 30
0.0
 11
944092.172
 21
7294539.308
 31
0.0
  0
LINE
  8
7
  6
CONTINUOUS
 62
     7
  5
81
 10
947648.977
 20
7289957.119
 30
0.0
 11
947645.143
 21
7289827.175
 31
0.0
  0
LINE
  8
7
  6
CONTINUOUS
 62
     7
  5
82
 10
947748.933
 20
7289954.17
 30
0.0
 11
947745.1
 21
7289824.227
 31
0.0
  0
LINE
  8
7
  6
CONTINUOUS
 62
     7
  5
83
 10
947848.89
 20
7289951.222
 30
0.0
 11
947845.056
 21
7289821.278
 31
0.0
  0
LINE
  8
7
  6
CONTINUOUS
 62
     7
  5
84
 10
947653.253
 20
7290102.056
 30
0.0
 11
947649.419
 21
7289972.113
 31
0.0
  0
LINE
  8
7
  6
CONTINUOUS
 62
     7
  5
85
 10
947753.209
 20
7290099.108
 30
0.0
 11
947749.376
 21
7289969.164
 31
0.0
  0
LINE
  8
7
  6
CONTINUOUS
 62
     7
  5
86
 10
947853.166
 20
7290096.158
 30
0.0
 11
947849.333
 21
7289966.216
 31
0.0
  0
POLYLINE
  8
6
  6
CONTINUOUS
 62
     7
  5
87
 66
     1
 10
0.0
 20
0.0
 30
0.0
 70
     1
  0
VERTEX
  8
6
  6
CONTINUOUS
 62
     7
  5
88
 10
947949.289
 20
7289963.266
 30
0.0
  0
VERTEX
  8
6
  6
CONTINUOUS
 62
     7
  5
89
 10
947549.463
 20
7289975.061
 30
0.0
  0
VERTEX
  8
6
  6
CONTINUOUS
 62
     7
  5
8A
 10
947553.296
 20
7290105.005
 30
0.0
  0
VERTEX
  8
6
  6
CONTINUOUS
 62
     7
  5
8B
 10
947953.122
 20
7290093.21
 30
0.0
  0
SEQEND
  8
6
  6
CONTINUOUS
 62
     7
  5
8C
  0
LINE
  8
7
  6
CONTINUOUS
 62
     7
  5
8D
 10
947653.253
 20
7290102.056
 30
0.0
 11
947649.419
 21
7289972.113
 31
0.0
  0
LINE
  8
7
  6
CONTINUOUS
 62
     7
  5
8E
 10
947753.209
 20
7290099.108
 30
0.0
 11
947749.376
 21
7289969.164
 31
0.0
  0
LINE
  8
7
  6
CONTINUOUS
 62
     7
  5
8F
 10
947853.166
 20
7290096.158
 30
0.0
 11
947849.333
 21
7289966.216
 31
0.0
  0
TEXT
  8
10
  6
CONTINUOUS
 62
   134
  5
90
 10
947894.773
 20
7290027.413
 30
0.0
 40
13.999
  1
1
 50
358.3103
  7
ROMANS
 11
947895.185782
 21
7290041.405913
 31
0.0
210
0.0
220
0.0
230
1.0
 73
     3
  0
TEXT
  8
10
  6
CONTINUOUS
 62
   134
  5
91
 10
947798.036
 20
7290030.267
 30
0.0
 40
13.999
  1
2
 50
358.3103
  7
ROMANS
 11
947798.448782
 21
7290044.259913
 31
0.0
210
0.0
220
0.0
230
1.0
 73
     3
  0
TEXT
  8
10
  6
CONTINUOUS
 62
   134
  5
92
 10
947696.336
 20
7290033.267
 30
0.0
 40
13.999
  1
3
 50
358.3103
  7
ROMANS
 11
947696.748782
 21
7290047.259913
 31
0.0
210
0.0
220
0.0
230
1.0
 73
     3
  0
TEXT
  8
10
  6
CONTINUOUS
 62
   134
  5
93
 10
947597.118
 20
7290036.194
 30
0.0
 40
13.999
  1
4
 50
358.3103
  7
ROMANS
 11
947597.530782
 21
7290050.186913
 31
0.0
210
0.0
220
0.0
230
1.0
 73
     3
  0
TEXT
  8
10
  6
CONTINUOUS
 62
   134
  5
94
 10
947595.206
 20
7289887.174
 30
0.0
 40
13.999
  1
5
 50
358.3103
  7
ROMANS
 11
947595.618782
 21
7289901.166913
 31
0.0
210
0.0
220
0.0
230
1.0
 73
     3
  0
TEXT
  8
10
  6
CONTINUOUS
 62
   134
  5
95
 10
947689.463
 20
7289884.393
 30
0.0
 40
13.999
  1
6
 50
358.3103
  7
ROMANS
 11
947689.875782
 21
7289898.385913
 31
0.0
210
0.0
220
0.0
230
1.0
 73
     3
  0
TEXT
  8
10
  6
CONTINUOUS
 62
   134
  5
96
 10
947793.642
 20
7289881.32
 30
0.0
 40
13.999
  1
7
 50
358.3103
  7
ROMANS
 11
947794.054782
 21
7289895.312913
 31
0.0
210
0.0
220
0.0
230
1.0
 73
     3
  0
TEXT
  8
10
  6
CONTINUOUS
 62
   134
  5
97
 10
947895.34
 20
7289878.32
 30
0.0
 40
13.999
  1
8
 50
358.3103
  7
ROMANS
 11
947895.752782
 21
7289892.312913
 31
0.0
210
0.0
220
0.0
230
1.0
 73
     3
  0
LINE
  8
7
  6
CONTINUOUS
 62
     7
  5
98
 10
947658.56
 20
7290281.977
 30
0.0
 11
947654.727
 21
7290152.035
 31
0.0
  0
LINE
  8
7
  6
CONTINUOUS
 62
     7
  5
99
 10
947758.516
 20
7290279.028
 30
0.0
 11
947754.683
 21
7290149.085
 31
0.0
  0
LINE
  8
7
  6
CONTINUOUS
 62
     7
  5
9A
 10
947858.473
 20
7290276.08
 30
0.0
 11
947854.64
 21
7290146.136
 31
0.0
  0
LINE
  8
7
  6
CONTINUOUS
 62
     7
  5
9B
 10
947662.836
 20
7290426.915
 30
0.0
 11
947659.003
 21
7290296.971
 31
0.0
  0
LINE
  8
7
  6
CONTINUOUS
 62
     7
  5
9C
 10
947762.792
 20
7290423.966
 30
0.0
 11
947758.959
 21
7290294.022
 31
0.0
  0
LINE
  8
7
  6
CONTINUOUS
 62
     7
  5
9D
 10
947862.749
 20
7290421.017
 30
0.0
 11
947858.916
 21
7290291.074
 31
0.0
  0
POLYLINE
  8
6
  6
CONTINUOUS
 62
     7
  5
9E
 66
     1
 10
0.0
 20
0.0
 30
0.0
 70
     1
  0
VERTEX
  8
6
  6
CONTINUOUS
 62
     7
  5
9F
 10
947958.872
 20
7290288.125
 30
0.0
  0
VERTEX
  8
6
  6
CONTINUOUS
 62
     7
  5
A0
 10
947559.046
 20
7290299.92
 30
0.0
  0
VERTEX
  8
6
  6
CONTINUOUS
 62
     7
  5
A1
 10
947562.879
 20
7290429.863
 30
0.0
  0
VERTEX
  8
6
  6
CONTINUOUS
 62
     7
  5
A2
 10
947962.706
 20
7290418.069
 30
0.0
  0
SEQEND
  8
6
  6
CONTINUOUS
 62
     7
  5
A3
  0
LINE
  8
7
  6
CONTINUOUS
 62
     7
  5
A4
 10
947662.836
 20
7290426.915
 30
0.0
 11
947659.003
 21
7290296.971
 31
0.0
  0
LINE
  8
7
  6
CONTINUOUS
 62
     7
  5
A5
 10
947762.792
 20
7290423.966
 30
0.0
 11
947758.959
 21
7290294.022
 31
0.0
  0
LINE
  8
7
  6
CONTINUOUS
 62
     7
  5
A6
 10
947862.749
 20
7290421.017
 30
0.0
 11
947858.916
 21
7290291.074
 31
0.0
  0
TEXT
  8
10
  6
CONTINUOUS
 62
   134
  5
A7
 10
947904.357
 20
7290352.271
 30
0.0
 40
13.999
  1
1
 50
358.3103
  7
ROMANS
 11
947904.769782
 21
7290366.263913
 31
0.0
210
0.0
220
0.0
230
1.0
 73
     3
  0
TEXT
  8
10
  6
CONTINUOUS
 62
   134
  5
A8
 10
947807.619
 20
7290355.125
 30
0.0
 40
13.999
  1
2
 50
358.3103
  7
ROMANS
 11
947808.031782
 21
7290369.117913
 31
0.0
210
0.0
220
0.0
230
1.0
 73
     3
  0
TEXT
  8
10
  6
CONTINUOUS
 62
   134
  5
A9
 10
947705.92
 20
7290358.125
 30
0.0
 40
13.999
  1
3
 50
358.3103
  7
ROMANS
 11
947706.332782
 21
7290372.117913
 31
0.0
210
0.0
220
0.0
230
1.0
 73
     3
  0
TEXT
  8
10
  6
CONTINUOUS
 62
   134
  5
AA
 10
947606.701
 20
7290361.052
 30
0.0
 40
13.999
  1
4
 50
358.3103
  7
ROMANS
 11
947607.113782
 21
7290375.044913
 31
0.0
210
0.0
220
0.0
230
1.0
 73
     3
  0
TEXT
  8
10
  6
CONTINUOUS
 62
   134
  5
AB
 10
947604.789
 20
7290212.033
 30
0.0
 40
13.999
  1
5
 50
358.3103
  7
ROMANS
 11
947605.201782
 21
7290226.025913
 31
0.0
210
0.0
220
0.0
230
1.0
 73
     3
  0
TEXT
  8
10
  6
CONTINUOUS
 62
   134
  5
AC
 10
947699.045
 20
7290209.252
 30
0.0
 40
13.999
  1
6
 50
358.3103
  7
ROMANS
 11
947699.457782
 21
7290223.244913
 31
0.0
210
0.0
220
0.0
230
1.0
 73
     3
  0
TEXT
  8
10
  6
CONTINUOUS
 62
   134
  5
AD
 10
947803.225
 20
7290206.179
 30
0.0
 40
13.999
  1
7
 50
358.3103
  7
ROMANS
 11
947803.637782
 21
7290220.171913
 31
0.0
210
0.0
220
0.0
230
1.0
 73
     3
  0
TEXT
  8
10
  6
CONTINUOUS
 62
   134
  5
AE
 10
947904.923
 20
7290203.179
 30
0.0
 40
13.999
  1
8
 50
358.3103
  7
ROMANS
 11
947905.335782
 21
7290217.171913
 31
0.0
210
0.0
220
0.0
230
1.0
 73
     3
  0
LINE
  8
7
  6
CONTINUOUS
 62
     7
  5
AF
 10
947668.143
 20
7290606.836
 30
0.0
 11
947664.31
 21
7290476.893
 31
0.0
  0
LINE
  8
7
  6
CONTINUOUS
 62
     7
  5
B0
 10
947768.1
 20
7290603.888
 30
0.0
 11
947764.266
 21
7290473.944
 31
0.0
  0
LINE
  8
7
  6
CONTINUOUS
 62
     7
  5
B1
 10
947868.056
 20
7290600.939
 30
0.0
 11
947864.223
 21
7290470.996
 31
0.0
  0
LINE
  8
7
  6
CONTINUOUS
 62
     7
  5
B2
 10
947672.419
 20
7290751.773
 30
0.0
 11
947668.586
 21
7290621.829
 31
0.0
  0
LINE
  8
7
  6
CONTINUOUS
 62
     7
  5
B3
 10
947772.376
 20
7290748.824
 30
0.0
 11
947768.542
 21
7290618.881
 31
0.0
  0
LINE
  8
7
  6
CONTINUOUS
 62
     7
  5
B4
 10
947872.332
 20
7290745.876
 30
0.0
 11
947868.499
 21
7290615.932
 31
0.0
  0
POLYLINE
  8
6
  6
CONTINUOUS
 62
     7
  5
B5
 66
     1
 10
0.0
 20
0.0
 30
0.0
 70
     1
  0
VERTEX
  8
6
  6
CONTINUOUS
 62
     7
  5
B6
 10
947968.456
 20
7290612.984
 30
0.0
  0
VERTEX
  8
6
  6
CONTINUOUS
 62
     7
  5
B7
 10
947568.629
 20
7290624.778
 30
0.0
  0
VERTEX
  8
6
  6
CONTINUOUS
 62
     7
  5
B8
 10
947572.463
 20
7290754.722
 30
0.0
  0
VERTEX
  8
6
  6
CONTINUOUS
 62
     7
  5
B9
 10
947972.289
 20
7290742.927
 30
0.0
  0
SEQEND
  8
6
  6
CONTINUOUS
 62
     7
  5
BA
  0
LINE
  8
7
  6
CONTINUOUS
 62
     7
  5
BB
 10
947672.419
 20
7290751.773
 30
0.0
 11
947668.586
 21
7290621.829
 31
0.0
  0
LINE
  8
7
  6
CONTINUOUS
 62
     7
  5
BC
 10
947772.376
 20
7290748.824
 30
0.0
 11
947768.542
 21
7290618.881
 31
0.0
  0
LINE
  8
7
  6
CONTINUOUS
 62
     7
  5
BD
 10
947872.332
 20
7290745.876
 30
0.0
 11
947868.499
 21
7290615.932
 31
0.0
  0
TEXT
  8
10
  6
CONTINUOUS
 62
   134
  5
BE
 10
947913.94
 20
7290677.13
 30
0.0
 40
13.999
  1
1
 50
358.3103
  7
ROMANS
 11
947914.352782
 21
7290691.122913
 31
0.0
210
0.0
220
0.0
230
1.0
 73
     3
  0
TEXT
  8
10
  6
CONTINUOUS
 62
   134
  5
BF
 10
947817.202
 20
7290679.984
 30
0.0
 40
13.999
  1
2
 50
358.3103
  7
ROMANS
 11
947817.614782
 21
7290693.976913
 31
0.0
210
0.0
220
0.0
230
1.0
 73
     3
  0
TEXT
  8
10
  6
CONTINUOUS
 62
   134
  5
C0
 10
947715.502
 20
7290682.984
 30
0.0
 40
13.999
  1
3
 50
358.3103
  7
ROMANS
 11
947715.914782
 21
7290696.976913
 31
0.0
210
0.0
220
0.0
230
1.0
 73
     3
  0
TEXT
  8
10
  6
CONTINUOUS
 62
   134
  5
C1
 10
947616.284
 20
7290685.91
 30
0.0
 40
13.999
  1
4
 50
358.3103
  7
ROMANS
 11
947616.696782
 21
7290699.902913
 31
0.0
210
0.0
220
0.0
230
1.0
 73
     3
  0
TEXT
  8
10
  6
CONTINUOUS
 62
   134
  5
C2
 10
947614.372
 20
7290536.892
 30
0.0
 40
13.999
  1
5
 50
358.3103
  7
ROMANS
 11
947614.784782
 21
7290550.884913
 31
0.0
210
0.0
220
0.0
230
1.0
 73
     3
  0
TEXT
  8
10
  6
CONTINUOUS
 62
   134
  5
C3
 10
947708.628
 20
7290534.111
 30
0.0
 40
13.999
  1
6
 50
358.3103
  7
ROMANS
 11
947709.040782
 21
7290548.103913
 31
0.0
210
0.0
220
0.0
230
1.0
 73
     3
  0
TEXT
  8
10
  6
CONTINUOUS
 62
   134
  5
C4
 10
947812.808
 20
7290531.038
 30
0.0
 40
13.999
  1
7
 50
358.3103
  7
ROMANS
 11
947813.220782
 21
7290545.030913
 31
0.0
210
0.0
220
0.0
230
1.0
 73
     3
  0
TEXT
  8
10
  6
CONTINUOUS
 62
   134
  5
C5
 10
947914.507
 20
7290528.038
 30
0.0
 40
13.999
  1
8
 50
358.3103
  7
ROMANS
 11
947914.919782
 21
7290542.030913
 31
0.0
210
0.0
220
0.0
230
1.0
 73
     3
  0
LINE
  8
7
  6
CONTINUOUS
 62
     7
  5
C6
 10
947677.726
 20
7290931.695
 30
0.0
 11
947673.893
 21
7290801.751
 31
0.0
  0
LINE
  8
7
  6
CONTINUOUS
 62
     7
  5
C7
 10
947777.683
 20
7290928.746
 30
0.0
 11
947773.849
 21
7290798.803
 31
0.0
  0
LINE
  8
7
  6
CONTINUOUS
 62
     7
  5
C8
 10
947877.639
 20
7290925.798
 30
0.0
 11
947873.806
 21
7290795.854
 31
0.0
  0
LINE
  8
7
  6
CONTINUOUS
 62
     7
  5
C9
 10
947682.002
 20
7291076.632
 30
0.0
 11
947678.169
 21
7290946.689
 31
0.0
  0
LINE
  8
7
  6
CONTINUOUS
 62
     7
  5
CA
 10
947781.959
 20
7291073.684
 30
0.0
 11
947778.126
 21
7290943.74
 31
0.0
  0
LINE
  8
7
  6
CONTINUOUS
 62
     7
  5
CB
 10
947881.915
 20
7291070.735
 30
0.0
 11
947878.082
 21
7290940.791
 31
0.0
  0
POLYLINE
  8
6
  6
CONTINUOUS
 62
     7
  5
CC
 66
     1
 10
0.0
 20
0.0
 30
0.0
 70
     1
  0
VERTEX
  8
6
  6
CONTINUOUS
 62
     7
  5
CD
 10
947978.039
 20
7290937.843
 30
0.0
  0
VERTEX
  8
6
  6
CONTINUOUS
 62
     7
  5
CE
 10
947578.212
 20
7290949.637
 30
0.0
  0
VERTEX
  8
6
  6
CONTINUOUS
 62
     7
  5
CF
 10
947582.046
 20
7291079.581
 30
0.0
  0
VERTEX
  8
6
  6
CONTINUOUS
 62
     7
  5
D0
 10
947981.872
 20
7291067.786
 30
0.0
  0
SEQEND
  8
6
  6
CONTINUOUS
 62
     7
  5
D1
  0
LINE
  8
7
  6
CONTINUOUS
 62
     7
  5
D2
 10
947682.002
 20
7291076.632
 30
0.0
 11
947678.169
 21
7290946.689
 31
0.0
  0
LINE
  8
7
  6
CONTINUOUS
 62
     7
  5
D3
 10
947781.959
 20
7291073.684
 30
0.0
 11
947778.126
 21
7290943.74
 31
0.0
  0
LINE
  8
7
  6
CONTINUOUS
 62
     7
  5
D4
 10
947881.915
 20
7291070.735
 30
0.0
 11
947878.082
 21
7290940.791
 31
0.0
  0
TEXT
  8
10
  6
CONTINUOUS
 62
   134
  5
D5
 10
947923.523
 20
7291001.989
 30
0.0
 40
13.999
  1
1
 50
358.3103
  7
ROMANS
 11
947923.935782
 21
7291015.981913
 31
0.0
210
0.0
220
0.0
230
1.0
 73
     3
  0
TEXT
  8
10
  6
CONTINUOUS
 62
   134
  5
D6
 10
947826.785
 20
7291004.843
 30
0.0
 40
13.999
  1
2
 50
358.3103
  7
ROMANS
 11
947827.197782
 21
7291018.835913
 31
0.0
210
0.0
220
0.0
230
1.0
 73
     3
  0
TEXT
  8
10
  6
CONTINUOUS
 62
   134
  5
D7
 10
947725.085
 20
7291007.842
 30
0.0
 40
13.999
  1
3
 50
358.3103
  7
ROMANS
 11
947725.497782
 21
7291021.834913
 31
0.0
210
0.0
220
0.0
230
1.0
 73
     3
  0
TEXT
  8
10
  6
CONTINUOUS
 62
   134
  5
D8
 10
947625.867
 20
7291010.77
 30
0.0
 40
13.999
  1
4
 50
358.3103
  7
ROMANS
 11
947626.279782
 21
7291024.762913
 31
0.0
210
0.0
220
0.0
230
1.0
 73
     3
  0
TEXT
  8
10
  6
CONTINUOUS
 62
   134
  5
D9
 10
947623.955
 20
7290861.75
 30
0.0
 40
13.999
  1
5
 50
358.3103
  7
ROMANS
 11
947624.367782
 21
7290875.742913
 31
0.0
210
0.0
220
0.0
230
1.0
 73
     3
  0
TEXT
  8
10
  6
CONTINUOUS
 62
   134
  5
DA
 10
947718.211
 20
7290858.969
 30
0.0
 40
13.999
  1
6
 50
358.3103
  7
ROMANS
 11
947718.623782
 21
7290872.961913
 31
0.0
210
0.0
220
0.0
230
1.0
 73
     3
  0
TEXT
  8
10
  6
CONTINUOUS
 62
   134
  5
DB
 10
947822.391
 20
7290855.896
 30
0.0
 40
13.999
  1
7
 50
358.3103
  7
ROMANS
 11
947822.803782
 21
7290869.888913
 31
0.0
210
0.0
220
0.0
230
1.0
 73
     3
  0
TEXT
  8
10
  6
CONTINUOUS
 62
   134
  5
DC
 10
947924.09
 20
7290852.896
 30
0.0
 40
13.999
  1
8
 50
358.3103
  7
ROMANS
 11
947924.502782
 21
7290866.888913
 31
0.0
210
0.0
220
0.0
230
1.0
 73
     3
  0
LINE
  8
7
  6
CONTINUOUS
 62
     7
  5
DD
 10
947687.309
 20
7291256.554
 30
0.0
 11
947683.476
 21
7291126.61
 31
0.0
  0
LINE
  8
7
  6
CONTINUOUS
 62
     7
  5
DE
 10
947787.266
 20
7291253.605
 30
0.0
 11
947783.433
 21
7291123.662
 31
0.0
  0
LINE
  8
7
  6
CONTINUOUS
 62
     7
  5
DF
 10
947887.222
 20
7291250.657
 30
0.0
 11
947883.389
 21
7291120.713
 31
0.0
  0
LINE
  8
7
  6
CONTINUOUS
 62
     7
  5
E0
 10
947691.586
 20
7291401.491
 30
0.0
 11
947687.752
 21
7291271.547
 31
0.0
  0
LINE
  8
7
  6
CONTINUOUS
 62
     7
  5
E1
 10
947791.542
 20
7291398.542
 30
0.0
 11
947787.709
 21
7291268.598
 31
0.0
  0
LINE
  8
7
  6
CONTINUOUS
 62
     7
  5
E2
 10
947891.499
 20
7291395.593
 30
0.0
 11
947887.665
 21
7291265.65
 31
0.0
  0
POLYLINE
  8
6
  6
CONTINUOUS
 62
     7
  5
E3
 66
     1
 10
0.0
 20
0.0
 30
0.0
 70
     1
  0
VERTEX
  8
6
  6
CONTINUOUS
 62
     7
  5
E4
 10
947987.622
 20
7291262.701
 30
0.0
  0
VERTEX
  8
6
  6
CONTINUOUS
 62
     7
  5
E5
 10
947587.796
 20
7291274.496
 30
0.0
  0
VERTEX
  8
6
  6
CONTINUOUS
 62
     7
  5
E6
 10
947591.629
 20
7291404.439
 30
0.0
  0
VERTEX
  8
6
  6
CONTINUOUS
 62
     7
  5
E7
 10
947991.454
 20
7291392.645
 30
0.0
  0
SEQEND
  8
6
  6
CONTINUOUS
 62
     7
  5
E8
  0
LINE
  8
7
  6
CONTINUOUS
 62
     7
  5
E9
 10
947691.586
 20
7291401.491
 30
0.0
 11
947687.752
 21
7291271.547
 31
0.0
  0
LINE
  8
7
  6
CONTINUOUS
 62
     7
  5
EA
 10
947791.542
 20
7291398.542
 30
0.0
 11
947787.709
 21
7291268.598
 31
0.0
  0
LINE
  8
7
  6
CONTINUOUS
 62
     7
  5
EB
 10
947891.499
 20
7291395.593
 30
0.0
 11
947887.665
 21
7291265.65
 31
0.0
  0
TEXT
  8
10
  6
CONTINUOUS
 62
   134
  5
EC
 10
947933.106
 20
7291326.847
 30
0.0
 40
13.999
  1
1
 50
358.3103
  7
ROMANS
 11
947933.518782
 21
7291340.839913
 31
0.0
210
0.0
220
0.0
230
1.0
 73
     3
  0
TEXT
  8
10
  6
CONTINUOUS
 62
   134
  5
ED
 10
947836.368
 20
7291329.701
 30
0.0
 40
13.999
  1
2
 50
358.3103
  7
ROMANS
 11
947836.780782
 21
7291343.693913
 31
0.0
210
0.0
220
0.0
230
1.0
 73
     3
  0
TEXT
  8
10
  6
CONTINUOUS
 62
   134
  5
EE
 10
947734.668
 20
7291332.702
 30
0.0
 40
13.999
  1
3
 50
358.3103
  7
ROMANS
 11
947735.080782
 21
7291346.694913
 31
0.0
210
0.0
220
0.0
230
1.0
 73
     3
  0
TEXT
  8
10
  6
CONTINUOUS
 62
   134
  5
EF
 10
947635.451
 20
7291335.628
 30
0.0
 40
13.999
  1
4
 50
358.3103
  7
ROMANS
 11
947635.863782
 21
7291349.620913
 31
0.0
210
0.0
220
0.0
230
1.0
 73
     3
  0
TEXT
  8
10
  6
CONTINUOUS
 62
   134
  5
F0
 10
947633.537
 20
7291186.609
 30
0.0
 40
13.999
  1
5
 50
358.3103
  7
ROMANS
 11
947633.949782
 21
7291200.601913
 31
0.0
210
0.0
220
0.0
230
1.0
 73
     3
  0
TEXT
  8
10
  6
CONTINUOUS
 62
   134
  5
F1
 10
947727.794
 20
7291183.829
 30
0.0
 40
13.999
  1
6
 50
358.3103
  7
ROMANS
 11
947728.206782
 21
7291197.821913
 31
0.0
210
0.0
220
0.0
230
1.0
 73
     3
  0
TEXT
  8
10
  6
CONTINUOUS
 62
   134
  5
F2
 10
947831.974
 20
7291180.755
 30
0.0
 40
13.999
  1
7
 50
358.3103
  7
ROMANS
 11
947832.386782
 21
7291194.747913
 31
0.0
210
0.0
220
0.0
230
1.0
 73
     3
  0
TEXT
  8
10
  6
CONTINUOUS
 62
   134
  5
F3
 10
947933.673
 20
7291177.755
 30
0.0
 40
13.999
  1
8
 50
358.3103
  7
ROMANS
 11
947934.085782
 21
7291191.747913
 31
0.0
210
0.0
220
0.0
230
1.0
 73
     3
  0
LINE
  8
7
  6
CONTINUOUS
 62
     7
  5
F4
 10
947696.893
 20
7291581.412
 30
0.0
 11
947693.059
 21
7291451.469
 31
0.0
  0
LINE
  8
7
  6
CONTINUOUS
 62
     7
  5
F5
 10
947796.849
 20
7291578.464
 30
0.0
 11
947793.016
 21
7291448.52
 31
0.0
  0
LINE
  8
7
  6
CONTINUOUS
 62
     7
  5
F6
 10
947896.806
 20
7291575.515
 30
0.0
 11
947892.972
 21
7291445.572
 31
0.0
  0
LINE
  8
7
  6
CONTINUOUS
 62
     7
  5
F7
 10
947701.169
 20
7291726.349
 30
0.0
 11
947697.335
 21
7291596.406
 31
0.0
  0
LINE
  8
7
  6
CONTINUOUS
 62
     7
  5
F8
 10
947801.125
 20
7291723.4
 30
0.0
 11
947797.292
 21
7291593.457
 31
0.0
  0
LINE
  8
7
  6
CONTINUOUS
 62
     7
  5
F9
 10
947901.081
 20
7291720.452
 30
0.0
 11
947897.248
 21
7291590.508
 31
0.0
  0
POLYLINE
  8
6
  6
CONTINUOUS
 62
     7
  5
FA
 66
     1
 10
0.0
 20
0.0
 30
0.0
 70
     1
  0
VERTEX
  8
6
  6
CONTINUOUS
 62
     7
  5
FB
 10
947997.204
 20
7291587.559
 30
0.0
  0
VERTEX
  8
6
  6
CONTINUOUS
 62
     7
  5
FC
 10
947597.379
 20
7291599.355
 30
0.0
  0
VERTEX
  8
6
  6
CONTINUOUS
 62
     7
  5
FD
 10
947601.212
 20
7291729.298
 30
0.0
  0
VERTEX
  8
6
  6
CONTINUOUS
 62
     7
  5
FE
 10
948001.037
 20
7291717.503
 30
0.0
  0
SEQEND
  8
6
  6
CONTINUOUS
 62
     7
  5
FF
  0
LINE
  8
7
  6
CONTINUOUS
 62
     7
  5
100
 10
947701.169
 20
7291726.349
 30
0.0
 11
947697.335
 21
7291596.406
 31
0.0
  0
LINE
  8
7
  6
CONTINUOUS
 62
     7
  5
101
 10
947801.125
 20
7291723.4
 30
0.0
 11
947797.292
 21
7291593.457
 31
0.0
  0
LINE
  8
7
  6
CONTINUOUS
 62
     7
  5
102
 10
947901.081
 20
7291720.452
 30
0.0
 11
947897.248
 21
7291590.508
 31
0.0
  0
TEXT
  8
10
  6
CONTINUOUS
 62
   134
  5
103
 10
947942.689
 20
7291651.706
 30
0.0
 40
13.999
  1
1
 50
358.3103
  7
ROMANS
 11
947943.101782
 21
7291665.698913
 31
0.0
210
0.0
220
0.0
230
1.0
 73
     3
  0
TEXT
  8
10
  6
CONTINUOUS
 62
   134
  5
104
 10
947845.951
 20
7291654.56
 30
0.0
 40
13.999
  1
2
 50
358.3103
  7
ROMANS
 11
947846.363782
 21
7291668.552913
 31
0.0
210
0.0
220
0.0
230
1.0
 73
     3
  0
TEXT
  8
10
  6
CONTINUOUS
 62
   134
  5
105
 10
947744.251
 20
7291657.56
 30
0.0
 40
13.999
  1
3
 50
358.3103
  7
ROMANS
 11
947744.663782
 21
7291671.552913
 31
0.0
210
0.0
220
0.0
230
1.0
 73
     3
  0
TEXT
  8
10
  6
CONTINUOUS
 62
   134
  5
106
 10
947645.034
 20
7291660.487
 30
0.0
 40
13.999
  1
4
 50
358.3103
  7
ROMANS
 11
947645.446782
 21
7291674.479913
 31
0.0
210
0.0
220
0.0
230
1.0
 73
     3
  0
TEXT
  8
10
  6
CONTINUOUS
 62
   134
  5
107
 10
947643.12
 20
7291511.468
 30
0.0
 40
13.999
  1
5
 50
358.3103
  7
ROMANS
 11
947643.532782
 21
7291525.460913
 31
0.0
210
0.0
220
0.0
230
1.0
 73
     3
  0
TEXT
  8
10
  6
CONTINUOUS
 62
   134
  5
108
 10
947737.378
 20
7291508.687
 30
0.0
 40
13.999
  1
6
 50
358.3103
  7
ROMANS
 11
947737.790782
 21
7291522.679913
 31
0.0
210
0.0
220
0.0
230
1.0
 73
     3
  0
TEXT
  8
10
  6
CONTINUOUS
 62
   134
  5
109
 10
947841.558
 20
7291505.613
 30
0.0
 40
13.999
  1
7
 50
358.3103
  7
ROMANS
 11
947841.970782
 21
7291519.605913
 31
0.0
210
0.0
220
0.0
230
1.0
 73
     3
  0
TEXT
  8
10
  6
CONTINUOUS
 62
   134
  5
10A
 10
947943.256
 20
7291502.614
 30
0.0
 40
13.999
  1
8
 50
358.3103
  7
ROMANS
 11
947943.668782
 21
7291516.606913
 31
0.0
210
0.0
220
0.0
230
1.0
 73
     3
  0
LINE
  8
6
  6
CONTINUOUS
 62
     7
  5
10B
 10
947317.106
 20
7289195.323
 30
0.0
 11
947470.609
 21
7294399.19
 31
0.0
  0
TEXT
  8
10
  6
CONTINUOUS
 62
   134
  5
10C
 10
944999.971
 20
7291802.66
 30
0.0
 40
13.999
  1
UNSUBDIVIDED
 50
358.1874
  7
ROMANS
 11
945000.413796
 21
7291816.651995
 31
0.0
210
0.0
220
0.0
230
1.0
 73
     3
  0
TEXT
  8
10
  6
CONTINUOUS
 62
   134
  5
10D
 10
947662.295
 20
7293030.838
 30
0.0
 40
13.999
  1
UNSUBDIVIDED
 50
358.1874
  7
ROMANS
 11
947662.737796
 21
7293044.829995
 31
0.0
210
0.0
220
0.0
230
1.0
 73
     3
  0
TEXT
  8
19
  6
CONTINUOUS
 62
     1
  5
110
 10
944032.675
 20
7289316.081
 30
0.0
 40
24.0
  1
LOOP 289
 50
358.1874
  7
ROMANC
 72
     4
 11
944130.796635
 21
7289324.981811
 31
0.0
210
0.0
220
0.0
230
1.0
  0
TEXT
  8
15
  6
CONTINUOUS
 62
    30
  5
112
 10
947477.279
 20
7291526.214
 30
0.0
 40
50.0
  1
CITY
 50
28.3103
  7
ROMANC
 72
     4
 11
947545.484816
 21
7291591.351304
 31
0.0
210
0.0
220
0.0
230
1.0
  0
TEXT
  8
15
  6
CONTINUOUS
 62
    30
  5
113
 10
947399.988
 20
7290230.523
 30
0.0
 40
50.0
  1
CITY
 50
28.1874
  7
ROMANC
 72
     4
 11
947468.333379
 21
7290295.513852
 31
0.0
210
0.0
220
0.0
230
1.0
  0
TEXT
  8
15
  6
CONTINUOUS
 62
    30
  5
114
 10
947525.035
 20
7291234.848
 30
0.0
 40
50.0
  1
VIEW
 50
28.1874
  7
ROMANC
 72
     4
 11
947601.016893
 21
7291303.931353
 31
0.0
210
0.0
220
0.0
230
1.0
  0
TEXT
  8
15
  6
CONTINUOUS
 62
    30
  5
115
 10
947437.505
 20
7289952.464
 30
0.0
 40
50.0
  1
VIEW
 50
28.1874
  7
ROMANC
 72
     4
 11
947513.486893
 21
7290021.547353
 31
0.0
210
0.0
220
0.0
230
1.0
  0
TEXT
  8
11
  6
CONTINUOUS
 62
     7
  5
117
 10
947882.75
 20
7289309.825
 30
0.0
 40
8.0
  1
1
 50
350.091392
  7
ROMANS
 72
     1
 11
947884.063116
 21
7289309.595621
 31
0.0
210
0.0
220
0.0
230
1.0
  0
TEXT
  8
11
  6
CONTINUOUS
 62
     7
  5
118
 10
947889.326
 20
7289308.676
 30
0.0
 40
8.0
  1
0
 50
350.091392
  7
ROMANS
 72
     1
 11
947891.937456
 21
7289308.219824
 31
0.0
210
0.0
220
0.0
230
1.0
  0
TEXT
  8
11
  6
CONTINUOUS
 62
     7
  5
119
 10
947898.51
 20
7289307.071
 30
0.0
 40
8.0
  1
1
 50
350.091392
  7
ROMANS
 72
     1
 11
947899.823116
 21
7289306.841621
 31
0.0
210
0.0
220
0.0
230
1.0
  0
TEXT
  8
11
  6
CONTINUOUS
 62
     7
  5
11A
 10
947906.392
 20
7289305.695
 30
0.0
 40
8.0
  1
'
 50
350.091392
  7
ROMANS
 72
     1
 11
947907.705116
 21
7289305.465621
 31
0.0
210
0.0
220
0.0
230
1.0
  0
TEXT
  8
11
  6
CONTINUOUS
 62
     7
  5
11B
 10
947769.547
 20
7289329.598
 30
0.0
 40
8.0
  1
1
 50
350.091392
  7
ROMANS
 72
     1
 11
947770.860116
 21
7289329.368621
 31
0.0
210
0.0
220
0.0
230
1.0
  0
TEXT
  8
11
  6
CONTINUOUS
 62
     7
  5
11C
 10
947776.124
 20
7289328.45
 30
0.0
 40
8.0
  1
0
 50
350.091392
  7
ROMANS
 72
     1
 11
947778.735456
 21
7289327.993824
 31
0.0
210
0.0
220
0.0
230
1.0
  0
TEXT
  8
11
  6
CONTINUOUS
 62
     7
  5
11D
 10
947785.308
 20
7289326.845
 30
0.0
 40
8.0
  1
1
 50
350.091392
  7
ROMANS
 72
     1
 11
947786.621116
 21
7289326.615621
 31
0.0
210
0.0
220
0.0
230
1.0
  0
TEXT
  8
11
  6
CONTINUOUS
 62
     7
  5
11E
 10
947793.189
 20
7289325.468
 30
0.0
 40
8.0
  1
'
 50
350.091392
  7
ROMANS
 72
     1
 11
947794.502116
 21
7289325.238621
 31
0.0
210
0.0
220
0.0
230
1.0
  0
TEXT
  8
11
  6
CONTINUOUS
 62
     7
  5
11F
 10
947672.113
 20
7289346.619
 30
0.0
 40
8.0
  1
1
 50
350.091392
  7
ROMANS
 72
     1
 11
947673.426116
 21
7289346.389621
 31
0.0
210
0.0
220
0.0
230
1.0
  0
TEXT
  8
11
  6
CONTINUOUS
 62
     7
  5
120
 10
947678.691
 20
7289345.47
 30
0.0
 40
8.0
  1
0
 50
350.091392
  7
ROMANS
 72
     1
 11
947681.302456
 21
7289345.013824
 31
0.0
210
0.0
220
0.0
230
1.0
  0
TEXT
  8
11
  6
CONTINUOUS
 62
     7
  5
121
 10
947687.875
 20
7289343.866
 30
0.0
 40
8.0
  1
1
 50
350.091392
  7
ROMANS
 72
     1
 11
947689.188116
 21
7289343.636621
 31
0.0
210
0.0
220
0.0
230
1.0
  0
TEXT
  8
11
  6
CONTINUOUS
 62
     7
  5
122
 10
947695.755
 20
7289342.489
 30
0.0
 40
8.0
  1
'
 50
350.091392
  7
ROMANS
 72
     1
 11
947697.068116
 21
7289342.259621
 31
0.0
210
0.0
220
0.0
230
1.0
  0
TEXT
  8
11
  6
CONTINUOUS
 62
     7
  5
123
 10
947566.621
 20
7289365.046
 30
0.0
 40
8.0
  1
1
 50
350.091392
  7
ROMANS
 72
     1
 11
947567.934116
 21
7289364.816621
 31
0.0
210
0.0
220
0.0
230
1.0
  0
TEXT
  8
11
  6
CONTINUOUS
 62
     7
  5
124
 10
947573.198
 20
7289363.898
 30
0.0
 40
8.0
  1
0
 50
350.091392
  7
ROMANS
 72
     1
 11
947575.809456
 21
7289363.441824
 31
0.0
210
0.0
220
0.0
230
1.0
  0
TEXT
  8
11
  6
CONTINUOUS
 62
     7
  5
125
 10
947582.382
 20
7289362.293
 30
0.0
 40
8.0
  1
1
 50
350.091392
  7
ROMANS
 72
     1
 11
947583.695116
 21
7289362.063621
 31
0.0
210
0.0
220
0.0
230
1.0
  0
TEXT
  8
11
  6
CONTINUOUS
 62
     7
  5
126
 10
947590.263
 20
7289360.917
 30
0.0
 40
8.0
  1
'
 50
350.091392
  7
ROMANS
 72
     1
 11
947591.576116
 21
7289360.687621
 31
0.0
210
0.0
220
0.0
230
1.0
  0
TEXT
  8
11
  6
CONTINUOUS
 62
     7
  5
127
 10
947388.867
 20
7289401.13
 30
0.0
 40
8.0
  1
1
 50
350.079814
  7
ROMANS
 72
     1
 11
947390.18007
 21
7289400.900356
 31
0.0
210
0.0
220
0.0
230
1.0
  0
TEXT
  8
11
  6
CONTINUOUS
 62
     7
  5
128
 10
947395.755
 20
7289399.925
 30
0.0
 40
8.0
  1
4
 50
350.079814
  7
ROMANS
 72
     1
 11
947398.053119
 21
7289399.52308
 31
0.0
210
0.0
220
0.0
230
1.0
  0
TEXT
  8
11
  6
CONTINUOUS
 62
     7
  5
129
 10
947403.635
 20
7289398.547
 30
0.0
 40
8.0
  1
3
 50
350.079814
  7
ROMANS
 72
     1
 11
947405.933119
 21
7289398.14508
 31
0.0
210
0.0
220
0.0
230
1.0
  0
TEXT
  8
11
  6
CONTINUOUS
 62
     7
  5
12A
 10
947412.508
 20
7289396.995
 30
0.0
 40
8.0
  1
.
 50
350.079814
  7
ROMANS
 72
     1
 11
947413.810234
 21
7289396.767251
 31
0.0
210
0.0
220
0.0
230
1.0
  0
TEXT
  8
11
  6
CONTINUOUS
 62
     7
  5
12B
 10
947419.396
 20
7289395.791
 30
0.0
 40
8.0
  1
9
 50
350.079814
  7
ROMANS
 72
     1
 11
947421.694119
 21
7289395.38908
 31
0.0
210
0.0
220
0.0
230
1.0
  0
TEXT
  8
11
  6
CONTINUOUS
 62
     7
  5
12C
 10
947428.269
 20
7289394.238
 30
0.0
 40
8.0
  1
'
 50
350.079814
  7
ROMANS
 72
     1
 11
947429.58207
 21
7289394.008356
 31
0.0
210
0.0
220
0.0
230
1.0
  0
TEXT
  8
11
  6
CONTINUOUS
 62
     7
  5
12D
 10
947491.734
 20
7289720.577
 30
0.0
 40
8.0
  1
105'
 50
88.1874
  7
ROMANS
210
0.0
220
0.0
230
1.0
  0
TEXT
  8
11
  6
CONTINUOUS
 62
     7
  5
12E
 10
947488.274
 20
7289611.245
 30
0.0
 40
8.0
  1
105'
 50
88.1874
  7
ROMANS
210
0.0
220
0.0
230
1.0
  0
TEXT
  8
11
  6
CONTINUOUS
 62
     7
  5
12F
 10
947484.884
 20
7289504.121
 30
0.0
 40
8.0
  1
105'
 50
88.1874
  7
ROMANS
210
0.0
220
0.0
230
1.0
  0
TEXT
  8
11
  6
CONTINUOUS
 62
     7
  5
130
 10
947483.227
 20
7289416.841
 30
0.0
 40
8.0
  1
84.8'
 50
88.1874
  7
ROMANS
210
0.0
220
0.0
230
1.0
  0
TEXT
  8
11
  6
CONTINUOUS
 62
     7
  5
131
 10
947353.016
 20
7289420.962
 30
0.0
 40
8.0
  1
 64.5'
 50
88.1874
  7
ROMANS
210
0.0
220
0.0
230
1.0
  0
TEXT
  8
11
  6
CONTINUOUS
 62
     7
  5
132
 10
947544.323
 20
7289392.799
 30
0.0
 40
8.0
  1
86.9'
 50
88.1874
  7
ROMANS
210
0.0
220
0.0
230
1.0
  0
TEXT
  8
11
  6
CONTINUOUS
 62
     7
  5
133
 10
947643.635
 20
7289389.656
 30
0.0
 40
8.0
  1
101.1'
 50
88.1874
  7
ROMANS
210
0.0
220
0.0
230
1.0
  0
TEXT
  8
11
  6
CONTINUOUS
 62
     7
  5
134
 10
947744.052
 20
7289386.478
 30
0.0
 40
8.0
  1
115.3'
 50
88.1874
  7
ROMANS
210
0.0
220
0.0
230
1.0
  0
TEXT
  8
11
  6
CONTINUOUS
 62
     7
  5
135
 10
947844.468
 20
7289383.3
 30
0.0
 40
8.0
  1
129.6'
 50
88.1874
  7
ROMANS
210
0.0
220
0.0
230
1.0
  0
TEXT
  8
11
  6
CONTINUOUS
 62
     7
  5
136
 10
947930.54
 20
7289380.576
 30
0.0
 40
8.0
  1
143.8'
 50
88.1874
  7
ROMANS
210
0.0
220
0.0
230
1.0
  0
TEXT
  8
11
  6
CONTINUOUS
 62
     7
  5
137
 10
947925.297
 20
7289459.231
 30
0.0
 40
8.0
  1
50'
 50
88.1874
  7
ROMANS
210
0.0
220
0.0
230
1.0
  0
TEXT
  8
11
  6
CONTINUOUS
 62
     7
  5
138
 10
947558.942
 20
7289470.824
 30
0.0
 40
8.0
  1
50'
 50
88.1874
  7
ROMANS
210
0.0
220
0.0
230
1.0
  0
TEXT
  8
11
  6
CONTINUOUS
 62
     7
  5
139
 10
947569.287
 20
7289797.717
 30
0.0
 40
8.0
  1
50'
 50
88.1874
  7
ROMANS
210
0.0
220
0.0
230
1.0
  0
TEXT
  8
11
  6
CONTINUOUS
 62
     7
  5
13A
 10
947934.538
 20
7289786.158
 30
0.0
 40
8.0
  1
50'
 50
88.1874
  7
ROMANS
210
0.0
220
0.0
230
1.0
  0
TEXT
  8
11
  6
CONTINUOUS
 62
     7
  5
13B
 10
947944.707
 20
7290107.487
 30
0.0
 40
8.0
  1
50'
 50
88.1874
  7
ROMANS
210
0.0
220
0.0
230
1.0
  0
TEXT
  8
11
  6
CONTINUOUS
 62
     7
  5
13C
 10
947598.235
 20
7290118.452
 30
0.0
 40
8.0
  1
50'
 50
88.1874
  7
ROMANS
210
0.0
220
0.0
230
1.0
  0
TEXT
  8
11
  6
CONTINUOUS
 62
     7
  5
13D
 10
947608.51
 20
7290443.135
 30
0.0
 40
8.0
  1
50'
 50
88.1874
  7
ROMANS
210
0.0
220
0.0
230
1.0
  0
TEXT
  8
11
  6
CONTINUOUS
 62
     7
  5
13E
 10
947444.091
 20
7290448.338
 30
0.0
 40
8.0
  1
50'
 50
88.1874
  7
ROMANS
210
0.0
220
0.0
230
1.0
  0
TEXT
  8
11
  6
CONTINUOUS
 62
     7
  5
13F
 10
947942.864
 20
7290432.554
 30
0.0
 40
8.0
  1
50'
 50
88.1874
  7
ROMANS
210
0.0
220
0.0
230
1.0
  0
TEXT
  8
11
  6
CONTINUOUS
 62
     7
  5
140
 10
947953.079
 20
7290755.349
 30
0.0
 40
8.0
  1
50'
 50
88.1874
  7
ROMANS
210
0.0
220
0.0
230
1.0
  0
TEXT
  8
11
  6
CONTINUOUS
 62
     7
  5
141
 10
947595.557
 20
7290766.664
 30
0.0
 40
8.0
  1
50'
 50
88.1874
  7
ROMANS
210
0.0
220
0.0
230
1.0
  0
TEXT
  8
11
  6
CONTINUOUS
 62
     7
  5
142
 10
947605.972
 20
7291095.764
 30
0.0
 40
8.0
  1
50'
 50
88.1874
  7
ROMANS
210
0.0
220
0.0
230
1.0
  0
TEXT
  8
11
  6
CONTINUOUS
 62
     7
  5
143
 10
947975.637
 20
7291084.065
 30
0.0
 40
8.0
  1
50'
 50
88.1874
  7
ROMANS
210
0.0
220
0.0
230
1.0
  0
TEXT
  8
11
  6
CONTINUOUS
 62
     7
  5
144
 10
947460.312
 20
7291100.373
 30
0.0
 40
8.0
  1
50'
 50
88.1874
  7
ROMANS
210
0.0
220
0.0
230
1.0
  0
TEXT
  8
11
  6
CONTINUOUS
 62
     7
  5
145
 10
947619.544
 20
7291419.524
 30
0.0
 40
8.0
  1
50'
 50
88.1874
  7
ROMANS
210
0.0
220
0.0
230
1.0
  0
TEXT
  8
11
  6
CONTINUOUS
 62
     7
  5
146
 10
947974.864
 20
7291408.279
 30
0.0
 40
8.0
  1
50'
 50
88.1874
  7
ROMANS
210
0.0
220
0.0
230
1.0
  0
TEXT
  8
11
  6
CONTINUOUS
 62
     7
  5
147
 10
947974.344
 20
7291574.956
 30
0.0
 40
8.0
  1
15'
 50
358.1874
  7
ROMANS
210
0.0
220
0.0
230
1.0
  0
TEXT
  8
11
  6
CONTINUOUS
 62
     7
  5
148
 10
947636.68
 20
7291585.642
 30
0.0
 40
8.0
  1
15'
 50
358.1874
  7
ROMANS
210
0.0
220
0.0
230
1.0
  0
TEXT
  8
11
  6
CONTINUOUS
 62
     7
  5
149
 10
947626.37
 20
7291259.855
 30
0.0
 40
8.0
  1
15'
 50
358.1874
  7
ROMANS
210
0.0
220
0.0
230
1.0
  0
TEXT
  8
11
  6
CONTINUOUS
 62
     7
  5
14A
 10
947948.585
 20
7291249.658
 30
0.0
 40
8.0
  1
15'
 50
358.1874
  7
ROMANS
210
0.0
220
0.0
230
1.0
  0
TEXT
  8
11
  6
CONTINUOUS
 62
     7
  5
14B
 10
947938.37
 20
7290926.865
 30
0.0
 40
8.0
  1
15'
 50
358.1874
  7
ROMANS
210
0.0
220
0.0
230
1.0
  0
TEXT
  8
11
  6
CONTINUOUS
 62
     7
  5
14C
 10
947624.987
 20
7290936.783
 30
0.0
 40
8.0
  1
15'
 50
358.1874
  7
ROMANS
210
0.0
220
0.0
230
1.0
  0
TEXT
  8
11
  6
CONTINUOUS
 62
     7
  5
14D
 10
947614.677
 20
7290610.995
 30
0.0
 40
8.0
  1
15'
 50
358.1874
  7
ROMANS
210
0.0
220
0.0
230
1.0
  0
TEXT
  8
11
  6
CONTINUOUS
 62
     7
  5
14E
 10
947922.548
 20
7290601.252
 30
0.0
 40
8.0
  1
15'
 50
358.1874
  7
ROMANS
210
0.0
220
0.0
230
1.0
  0
TEXT
  8
11
  6
CONTINUOUS
 62
     7
  5
14F
 10
947912.316
 20
7290277.924
 30
0.0
 40
8.0
  1
15'
 50
358.1874
  7
ROMANS
210
0.0
220
0.0
230
1.0
  0
TEXT
  8
11
  6
CONTINUOUS
 62
     7
  5
150
 10
947590.078
 20
7290288.121
 30
0.0
 40
8.0
  1
15'
 50
358.1874
  7
ROMANS
210
0.0
220
0.0
230
1.0
  0
TEXT
  8
11
  6
CONTINUOUS
 62
     7
  5
151
 10
947579.768
 20
7289962.334
 30
0.0
 40
8.0
  1
15'
 50
358.1874
  7
ROMANS
210
0.0
220
0.0
230
1.0
  0
TEXT
  8
11
  6
CONTINUOUS
 62
     7
  5
152
 10
947909.708
 20
7289951.892
 30
0.0
 40
8.0
  1
15'
 50
358.1874
  7
ROMANS
210
0.0
220
0.0
230
1.0
  0
TEXT
  8
11
  6
CONTINUOUS
 62
     7
  5
153
 10
947899.451
 20
7289627.787
 30
0.0
 40
8.0
  1
15'
 50
358.1874
  7
ROMANS
210
0.0
220
0.0
230
1.0
  0
TEXT
  8
11
  6
CONTINUOUS
 62
     7
  5
154
 10
947576.142
 20
7289638.019
 30
0.0
 40
8.0
  1
15'
 50
358.1874
  7
ROMANS
210
0.0
220
0.0
230
1.0
  0
TEXT
  8
11
  6
CONTINUOUS
 62
     7
  5
155
 10
947876.723
 20
7289432.838
 30
0.0
 40
8.0
  1
100'
 50
358.1874
  7
ROMANS
210
0.0
220
0.0
230
1.0
  0
TEXT
  8
11
  6
CONTINUOUS
 62
     7
  5
156
 10
947771.893
 20
7289436.155
 30
0.0
 40
8.0
  1
100'
 50
358.1874
  7
ROMANS
210
0.0
220
0.0
230
1.0
  0
TEXT
  8
11
  6
CONTINUOUS
 62
     7
  5
157
 10
947668.166
 20
7289439.438
 30
0.0
 40
8.0
  1
100'
 50
358.1874
  7
ROMANS
210
0.0
220
0.0
230
1.0
  0
TEXT
  8
11
  6
CONTINUOUS
 62
     7
  5
158
 10
947572.164
 20
7289442.476
 30
0.0
 40
8.0
  1
100'
 50
358.1874
  7
ROMANS
210
0.0
220
0.0
230
1.0
  0
TEXT
  8
11
  6
CONTINUOUS
 62
     7
  5
159
 10
947574.226
 20
7289507.633
 30
0.0
 40
8.0
  1
100'
 50
358.1874
  7
ROMANS
210
0.0
220
0.0
230
1.0
  0
TEXT
  8
11
  6
CONTINUOUS
 62
     7
  5
15A
 10
947679.056
 20
7289504.316
 30
0.0
 40
8.0
  1
100'
 50
358.1874
  7
ROMANS
210
0.0
220
0.0
230
1.0
  0
TEXT
  8
11
  6
CONTINUOUS
 62
     7
  5
15B
 10
947778.369
 20
7289501.173
 30
0.0
 40
8.0
  1
100'
 50
358.1874
  7
ROMANS
210
0.0
220
0.0
230
1.0
  0
TEXT
  8
11
  6
CONTINUOUS
 62
     7
  5
15C
 10
947879.889
 20
7289497.96
 30
0.0
 40
8.0
  1
100'
 50
358.1874
  7
ROMANS
210
0.0
220
0.0
230
1.0
  0
TEXT
  8
11
  6
CONTINUOUS
 62
     7
  5
15D
 10
947888.137
 20
7289758.591
 30
0.0
 40
8.0
  1
100'
 50
358.1874
  7
ROMANS
210
0.0
220
0.0
230
1.0
  0
TEXT
  8
11
  6
CONTINUOUS
 62
     7
  5
15E
 10
947781.1
 20
7289761.978
 30
0.0
 40
8.0
  1
100'
 50
358.1874
  7
ROMANS
210
0.0
220
0.0
230
1.0
  0
TEXT
  8
11
  6
CONTINUOUS
 62
     7
  5
15F
 10
947688.408
 20
7289764.911
 30
0.0
 40
8.0
  1
100'
 50
358.1874
  7
ROMANS
210
0.0
220
0.0
230
1.0
  0
TEXT
  8
11
  6
CONTINUOUS
 62
     7
  5
160
 10
947581.371
 20
7289768.299
 30
0.0
 40
8.0
  1
100'
 50
358.1874
  7
ROMANS
210
0.0
220
0.0
230
1.0
  0
TEXT
  8
11
  6
CONTINUOUS
 62
     7
  5
161
 10
947403.709
 20
7289773.921
 30
0.0
 40
8.0
  1
142.5'
 50
358.1874
  7
ROMANS
210
0.0
220
0.0
230
1.0
  0
TEXT
  8
11
  6
CONTINUOUS
 62
     7
  5
162
 10
947394.168
 20
7289472.429
 30
0.0
 40
8.0
  1
142.5'
 50
358.1874
  7
ROMANS
210
0.0
220
0.0
230
1.0
  0
TEXT
  8
11
  6
CONTINUOUS
 62
     7
  5
163
 10
947516.547
 20
7289849.181
 30
0.0
 40
8.0
  1
50'
 50
358.1874
  7
ROMANS
210
0.0
220
0.0
230
1.0
  0
TEXT
  8
11
  6
CONTINUOUS
 62
     7
  5
164
 10
947549.499
 20
7289556.025
 30
0.0
 40
8.0
  1
130'
 50
88.1874
  7
ROMANS
210
0.0
220
0.0
230
1.0
  0
TEXT
  8
11
  6
CONTINUOUS
 62
     7
  5
165
 10
947936.82
 20
7289543.767
 30
0.0
 40
8.0
  1
130'
 50
88.1874
  7
ROMANS
210
0.0
220
0.0
230
1.0
  0
TEXT
  8
11
  6
CONTINUOUS
 62
     7
  5
166
 10
947941.504
 20
7289691.752
 30
0.0
 40
8.0
  1
130'
 50
88.1874
  7
ROMANS
210
0.0
220
0.0
230
1.0
  0
TEXT
  8
11
  6
CONTINUOUS
 62
     7
  5
167
 10
947554.182
 20
7289704.01
 30
0.0
 40
8.0
  1
130'
 50
88.1874
  7
ROMANS
210
0.0
220
0.0
230
1.0
  0
TEXT
  8
11
  6
CONTINUOUS
 62
     7
  5
168
 10
947553.476
 20
7291671.512
 30
0.0
 40
8.0
  1
100'
 50
88.1874
  7
ROMANS
210
0.0
220
0.0
230
1.0
  0
TEXT
  8
11
  6
CONTINUOUS
 62
     7
  5
169
 10
947550.261
 20
7291569.91
 30
0.0
 40
8.0
  1
100'
 50
88.1874
  7
ROMANS
210
0.0
220
0.0
230
1.0
  0
TEXT
  8
11
  6
CONTINUOUS
 62
     7
  5
16A
 10
947547.011
 20
7291467.205
 30
0.0
 40
8.0
  1
100'
 50
88.1874
  7
ROMANS
210
0.0
220
0.0
230
1.0
  0
TEXT
  8
11
  6
CONTINUOUS
 62
     7
  5
16B
 10
947544.04
 20
7291373.334
 30
0.0
 40
8.0
  1
100'
 50
88.1874
  7
ROMANS
210
0.0
220
0.0
230
1.0
  0
TEXT
  8
11
  6
CONTINUOUS
 62
     7
  5
16C
 10
947540.685
 20
7291267.315
 30
0.0
 40
8.0
  1
100'
 50
88.1874
  7
ROMANS
210
0.0
220
0.0
230
1.0
  0
TEXT
  8
11
  6
CONTINUOUS
 62
     7
  5
16D
 10
947537.435
 20
7291164.608
 30
0.0
 40
8.0
  1
100'
 50
88.1874
  7
ROMANS
210
0.0
220
0.0
230
1.0
  0
TEXT
  8
11
  6
CONTINUOUS
 62
     7
  5
16E
 10
947468.628
 20
7291721.467
 30
0.0
 40
8.0
  1
142.5'
 50
358.1874
  7
ROMANS
210
0.0
220
0.0
230
1.0
  0
TEXT
  8
11
  6
CONTINUOUS
 62
     7
  5
16F
 10
947450.105
 20
7291136.153
 30
0.0
 40
8.0
  1
142.5'
 50
358.1874
  7
ROMANS
210
0.0
220
0.0
230
1.0
  0
TEXT
  8
11
  6
CONTINUOUS
 62
     7
  5
170
 10
947532.916
 20
7291021.838
 30
0.0
 40
8.0
  1
100'
 50
88.1874
  7
ROMANS
210
0.0
220
0.0
230
1.0
  0
TEXT
  8
11
  6
CONTINUOUS
 62
     7
  5
171
 10
947529.701
 20
7290920.235
 30
0.0
 40
8.0
  1
100'
 50
88.1874
  7
ROMANS
210
0.0
220
0.0
230
1.0
  0
TEXT
  8
11
  6
CONTINUOUS
 62
     7
  5
172
 10
947526.451
 20
7290817.53
 30
0.0
 40
8.0
  1
100'
 50
88.1874
  7
ROMANS
210
0.0
220
0.0
230
1.0
  0
TEXT
  8
11
  6
CONTINUOUS
 62
     7
  5
173
 10
947523.48
 20
7290723.659
 30
0.0
 40
8.0
  1
100'
 50
88.1874
  7
ROMANS
210
0.0
220
0.0
230
1.0
  0
TEXT
  8
11
  6
CONTINUOUS
 62
     7
  5
174
 10
947520.125
 20
7290617.64
 30
0.0
 40
8.0
  1
100'
 50
88.1874
  7
ROMANS
210
0.0
220
0.0
230
1.0
  0
TEXT
  8
11
  6
CONTINUOUS
 62
     7
  5
175
 10
947516.875
 20
7290514.933
 30
0.0
 40
8.0
  1
100'
 50
88.1874
  7
ROMANS
210
0.0
220
0.0
230
1.0
  0
TEXT
  8
11
  6
CONTINUOUS
 62
     7
  5
176
 10
947448.068
 20
7291071.792
 30
0.0
 40
8.0
  1
142.5'
 50
358.1874
  7
ROMANS
210
0.0
220
0.0
230
1.0
  0
TEXT
  8
11
  6
CONTINUOUS
 62
     7
  5
177
 10
947429.545
 20
7290486.478
 30
0.0
 40
8.0
  1
142.5'
 50
358.1874
  7
ROMANS
210
0.0
220
0.0
230
1.0
  0
TEXT
  8
11
  6
CONTINUOUS
 62
     7
  5
178
 10
947532.916
 20
7291021.838
 30
0.0
 40
8.0
  1
100'
 50
88.1874
  7
ROMANS
210
0.0
220
0.0
230
1.0
  0
TEXT
  8
11
  6
CONTINUOUS
 62
     7
  5
179
 10
947529.701
 20
7290920.235
 30
0.0
 40
8.0
  1
100'
 50
88.1874
  7
ROMANS
210
0.0
220
0.0
230
1.0
  0
TEXT
  8
11
  6
CONTINUOUS
 62
     7
  5
17A
 10
947526.451
 20
7290817.53
 30
0.0
 40
8.0
  1
100'
 50
88.1874
  7
ROMANS
210
0.0
220
0.0
230
1.0
  0
TEXT
  8
11
  6
CONTINUOUS
 62
     7
  5
17B
 10
947523.48
 20
7290723.659
 30
0.0
 40
8.0
  1
100'
 50
88.1874
  7
ROMANS
210
0.0
220
0.0
230
1.0
  0
TEXT
  8
11
  6
CONTINUOUS
 62
     7
  5
17C
 10
947520.125
 20
7290617.64
 30
0.0
 40
8.0
  1
100'
 50
88.1874
  7
ROMANS
210
0.0
220
0.0
230
1.0
  0
TEXT
  8
11
  6
CONTINUOUS
 62
     7
  5
17D
 10
947516.875
 20
7290514.933
 30
0.0
 40
8.0
  1
100'
 50
88.1874
  7
ROMANS
210
0.0
220
0.0
230
1.0
  0
TEXT
  8
11
  6
CONTINUOUS
 62
     7
  5
17E
 10
947448.068
 20
7291071.792
 30
0.0
 40
8.0
  1
142.5'
 50
358.1874
  7
ROMANS
210
0.0
220
0.0
230
1.0
  0
TEXT
  8
11
  6
CONTINUOUS
 62
     7
  5
17F
 10
947429.545
 20
7290486.478
 30
0.0
 40
8.0
  1
142.5'
 50
358.1874
  7
ROMANS
210
0.0
220
0.0
230
1.0
  0
TEXT
  8
11
  6
CONTINUOUS
 62
     7
  5
180
 10
947512.357
 20
7290372.163
 30
0.0
 40
8.0
  1
100'
 50
88.1874
  7
ROMANS
210
0.0
220
0.0
230
1.0
  0
TEXT
  8
11
  6
CONTINUOUS
 62
     7
  5
181
 10
947509.141
 20
7290270.561
 30
0.0
 40
8.0
  1
100'
 50
88.1874
  7
ROMANS
210
0.0
220
0.0
230
1.0
  0
TEXT
  8
11
  6
CONTINUOUS
 62
     7
  5
182
 10
947505.891
 20
7290167.855
 30
0.0
 40
8.0
  1
100'
 50
88.1874
  7
ROMANS
210
0.0
220
0.0
230
1.0
  0
TEXT
  8
11
  6
CONTINUOUS
 62
     7
  5
183
 10
947502.92
 20
7290073.984
 30
0.0
 40
8.0
  1
100'
 50
88.1874
  7
ROMANS
210
0.0
220
0.0
230
1.0
  0
TEXT
  8
11
  6
CONTINUOUS
 62
     7
  5
184
 10
947499.565
 20
7289967.965
 30
0.0
 40
8.0
  1
100'
 50
88.1874
  7
ROMANS
210
0.0
220
0.0
230
1.0
  0
TEXT
  8
11
  6
CONTINUOUS
 62
     7
  5
185
 10
947496.315
 20
7289865.259
 30
0.0
 40
8.0
  1
100'
 50
88.1874
  7
ROMANS
210
0.0
220
0.0
230
1.0
  0
TEXT
  8
11
  6
CONTINUOUS
 62
     7
  5
186
 10
947427.508
 20
7290422.118
 30
0.0
 40
8.0
  1
142.5'
 50
358.1874
  7
ROMANS
210
0.0
220
0.0
230
1.0
  0
TEXT
  8
11
  6
CONTINUOUS
 62
     7
  5
187
 10
947408.985
 20
7289836.804
 30
0.0
 40
8.0
  1
142.5'
 50
358.1874
  7
ROMANS
210
0.0
220
0.0
230
1.0
  0
TEXT
  8
11
  6
CONTINUOUS
 62
     7
  5
188
 10
947512.357
 20
7290372.163
 30
0.0
 40
8.0
  1
100'
 50
88.1874
  7
ROMANS
210
0.0
220
0.0
230
1.0
  0
TEXT
  8
11
  6
CONTINUOUS
 62
     7
  5
189
 10
947509.141
 20
7290270.561
 30
0.0
 40
8.0
  1
100'
 50
88.1874
  7
ROMANS
210
0.0
220
0.0
230
1.0
  0
TEXT
  8
11
  6
CONTINUOUS
 62
     7
  5
18A
 10
947505.891
 20
7290167.855
 30
0.0
 40
8.0
  1
100'
 50
88.1874
  7
ROMANS
210
0.0
220
0.0
230
1.0
  0
TEXT
  8
11
  6
CONTINUOUS
 62
     7
  5
18B
 10
947502.92
 20
7290073.984
 30
0.0
 40
8.0
  1
100'
 50
88.1874
  7
ROMANS
210
0.0
220
0.0
230
1.0
  0
TEXT
  8
11
  6
CONTINUOUS
 62
     7
  5
18C
 10
947499.565
 20
7289967.965
 30
0.0
 40
8.0
  1
100'
 50
88.1874
  7
ROMANS
210
0.0
220
0.0
230
1.0
  0
TEXT
  8
11
  6
CONTINUOUS
 62
     7
  5
18D
 10
947496.315
 20
7289865.259
 30
0.0
 40
8.0
  1
100'
 50
88.1874
  7
ROMANS
210
0.0
220
0.0
230
1.0
  0
TEXT
  8
11
  6
CONTINUOUS
 62
     7
  5
18E
 10
947427.508
 20
7290422.118
 30
0.0
 40
8.0
  1
142.5'
 50
358.1874
  7
ROMANS
210
0.0
220
0.0
230
1.0
  0
TEXT
  8
11
  6
CONTINUOUS
 62
     7
  5
18F
 10
947408.985
 20
7289836.804
 30
0.0
 40
8.0
  1
142.5'
 50
358.1874
  7
ROMANS
210
0.0
220
0.0
230
1.0
  0
TEXT
  8
11
  6
CONTINUOUS
 62
     7
  5
190
 10
947512.357
 20
7290372.163
 30
0.0
 40
8.0
  1
100'
 50
88.1874
  7
ROMANS
210
0.0
220
0.0
230
1.0
  0
TEXT
  8
11
  6
CONTINUOUS
 62
     7
  5
191
 10
947509.141
 20
7290270.561
 30
0.0
 40
8.0
  1
100'
 50
88.1874
  7
ROMANS
210
0.0
220
0.0
230
1.0
  0
TEXT
  8
11
  6
CONTINUOUS
 62
     7
  5
192
 10
947505.891
 20
7290167.855
 30
0.0
 40
8.0
  1
100'
 50
88.1874
  7
ROMANS
210
0.0
220
0.0
230
1.0
  0
TEXT
  8
11
  6
CONTINUOUS
 62
     7
  5
193
 10
947502.92
 20
7290073.984
 30
0.0
 40
8.0
  1
100'
 50
88.1874
  7
ROMANS
210
0.0
220
0.0
230
1.0
  0
TEXT
  8
11
  6
CONTINUOUS
 62
     7
  5
194
 10
947499.565
 20
7289967.965
 30
0.0
 40
8.0
  1
100'
 50
88.1874
  7
ROMANS
210
0.0
220
0.0
230
1.0
  0
TEXT
  8
11
  6
CONTINUOUS
 62
     7
  5
195
 10
947496.315
 20
7289865.259
 30
0.0
 40
8.0
  1
100'
 50
88.1874
  7
ROMANS
210
0.0
220
0.0
230
1.0
  0
TEXT
  8
11
  6
CONTINUOUS
 62
     7
  5
196
 10
947427.508
 20
7290422.118
 30
0.0
 40
8.0
  1
142.5'
 50
358.1874
  7
ROMANS
210
0.0
220
0.0
230
1.0
  0
TEXT
  8
11
  6
CONTINUOUS
 62
     7
  5
197
 10
947408.985
 20
7289836.804
 30
0.0
 40
8.0
  1
142.5'
 50
358.1874
  7
ROMANS
210
0.0
220
0.0
230
1.0
  0
TEXT
  8
11
  6
CONTINUOUS
 62
     7
  5
198
 10
947512.357
 20
7290372.163
 30
0.0
 40
8.0
  1
100'
 50
88.1874
  7
ROMANS
210
0.0
220
0.0
230
1.0
  0
TEXT
  8
11
  6
CONTINUOUS
 62
     7
  5
199
 10
947509.141
 20
7290270.561
 30
0.0
 40
8.0
  1
100'
 50
88.1874
  7
ROMANS
210
0.0
220
0.0
230
1.0
  0
TEXT
  8
11
  6
CONTINUOUS
 62
     7
  5
19A
 10
947505.891
 20
7290167.855
 30
0.0
 40
8.0
  1
100'
 50
88.1874
  7
ROMANS
210
0.0
220
0.0
230
1.0
  0
TEXT
  8
11
  6
CONTINUOUS
 62
     7
  5
19B
 10
947502.92
 20
7290073.984
 30
0.0
 40
8.0
  1
100'
 50
88.1874
  7
ROMANS
210
0.0
220
0.0
230
1.0
  0
TEXT
  8
11
  6
CONTINUOUS
 62
     7
  5
19C
 10
947499.565
 20
7289967.965
 30
0.0
 40
8.0
  1
100'
 50
88.1874
  7
ROMANS
210
0.0
220
0.0
230
1.0
  0
TEXT
  8
11
  6
CONTINUOUS
 62
     7
  5
19D
 10
947496.315
 20
7289865.259
 30
0.0
 40
8.0
  1
100'
 50
88.1874
  7
ROMANS
210
0.0
220
0.0
230
1.0
  0
TEXT
  8
11
  6
CONTINUOUS
 62
     7
  5
19E
 10
947427.508
 20
7290422.118
 30
0.0
 40
8.0
  1
142.5'
 50
358.1874
  7
ROMANS
210
0.0
220
0.0
230
1.0
  0
TEXT
  8
11
  6
CONTINUOUS
 62
     7
  5
19F
 10
947408.985
 20
7289836.804
 30
0.0
 40
8.0
  1
142.5'
 50
358.1874
  7
ROMANS
210
0.0
220
0.0
230
1.0
  0
TEXT
  8
11
  6
CONTINUOUS
 62
     7
  5
1A0
 10
947534.684
 20
7290491.079
 30
0.0
 40
8.0
  1
50'
 50
358.1874
  7
ROMANS
210
0.0
220
0.0
230
1.0
  0
TEXT
  8
11
  6
CONTINUOUS
 62
     7
  5
1A1
 10
947555.469
 20
7291043.157
 30
0.0
 40
8.0
  1
50'
 50
358.1874
  7
ROMANS
210
0.0
220
0.0
230
1.0
  0
TEXT
  8
11
  6
CONTINUOUS
 62
     7
  5
1A2
 10
947576.287
 20
7291701.002
 30
0.0
 40
8.0
  1
50'
 50
358.1874
  7
ROMANS
210
0.0
220
0.0
230
1.0
  0
TEXT
  8
11
  6
CONTINUOUS
 62
     7
  5
1A3
 10
947394.794
 20
7291703.22
 30
0.0
 40
8.0
  1
20'
 50
358.1874
  7
ROMANS
210
0.0
220
0.0
230
1.0
  0
TEXT
  8
11
  6
CONTINUOUS
 62
     7
  5
1A4
 10
948011.32
 20
7291690.867
 30
0.0
 40
8.0
  1
25'
 50
358.1874
  7
ROMANS
210
0.0
220
0.0
230
1.0
  0
TEXT
  8
11
  6
CONTINUOUS
 62
     7
  5
1A5
 10
947993.488
 20
7291127.409
 30
0.0
 40
8.0
  1
25'
 50
358.1874
  7
ROMANS
210
0.0
220
0.0
230
1.0
  0
TEXT
  8
11
  6
CONTINUOUS
 62
     7
  5
1A6
 10
947584.506
 20
7289832.471
 30
0.0
 40
8.0
  1
100'
 50
358.1874
  7
ROMANS
210
0.0
220
0.0
230
1.0
  0
TEXT
  8
11
  6
CONTINUOUS
 62
     7
  5
1A7
 10
947689.336
 20
7289829.153
 30
0.0
 40
8.0
  1
100'
 50
358.1874
  7
ROMANS
210
0.0
220
0.0
230
1.0
  0
TEXT
  8
11
  6
CONTINUOUS
 62
     7
  5
1A8
 10
947788.649
 20
7289826.01
 30
0.0
 40
8.0
  1
100'
 50
358.1874
  7
ROMANS
210
0.0
220
0.0
230
1.0
  0
TEXT
  8
11
  6
CONTINUOUS
 62
     7
  5
1A9
 10
947890.169
 20
7289822.798
 30
0.0
 40
8.0
  1
100'
 50
358.1874
  7
ROMANS
210
0.0
220
0.0
230
1.0
  0
TEXT
  8
11
  6
CONTINUOUS
 62
     7
  5
1AA
 10
947898.417
 20
7290083.428
 30
0.0
 40
8.0
  1
100'
 50
358.1874
  7
ROMANS
210
0.0
220
0.0
230
1.0
  0
TEXT
  8
11
  6
CONTINUOUS
 62
     7
  5
1AB
 10
947791.379
 20
7290086.815
 30
0.0
 40
8.0
  1
100'
 50
358.1874
  7
ROMANS
210
0.0
220
0.0
230
1.0
  0
TEXT
  8
11
  6
CONTINUOUS
 62
     7
  5
1AC
 10
947698.688
 20
7290089.749
 30
0.0
 40
8.0
  1
100'
 50
358.1874
  7
ROMANS
210
0.0
220
0.0
230
1.0
  0
TEXT
  8
11
  6
CONTINUOUS
 62
     7
  5
1AD
 10
947591.65
 20
7290093.136
 30
0.0
 40
8.0
  1
100'
 50
358.1874
  7
ROMANS
210
0.0
220
0.0
230
1.0
  0
TEXT
  8
11
  6
CONTINUOUS
 62
     7
  5
1AE
 10
947947.1
 20
7289868.605
 30
0.0
 40
8.0
  1
130'
 50
88.1874
  7
ROMANS
210
0.0
220
0.0
230
1.0
  0
TEXT
  8
11
  6
CONTINUOUS
 62
     7
  5
1AF
 10
947951.783
 20
7290016.59
 30
0.0
 40
8.0
  1
130'
 50
88.1874
  7
ROMANS
210
0.0
220
0.0
230
1.0
  0
TEXT
  8
11
  6
CONTINUOUS
 62
     7
  5
1B0
 10
947564.462
 20
7290028.847
 30
0.0
 40
8.0
  1
130'
 50
88.1874
  7
ROMANS
210
0.0
220
0.0
230
1.0
  0
TEXT
  8
11
  6
CONTINUOUS
 62
     7
  5
1B1
 10
947594.786
 20
7290157.308
 30
0.0
 40
8.0
  1
100'
 50
358.1874
  7
ROMANS
210
0.0
220
0.0
230
1.0
  0
TEXT
  8
11
  6
CONTINUOUS
 62
     7
  5
1B2
 10
947699.616
 20
7290153.991
 30
0.0
 40
8.0
  1
100'
 50
358.1874
  7
ROMANS
210
0.0
220
0.0
230
1.0
  0
TEXT
  8
11
  6
CONTINUOUS
 62
     7
  5
1B3
 10
947798.929
 20
7290150.848
 30
0.0
 40
8.0
  1
100'
 50
358.1874
  7
ROMANS
210
0.0
220
0.0
230
1.0
  0
TEXT
  8
11
  6
CONTINUOUS
 62
     7
  5
1B4
 10
947900.449
 20
7290147.635
 30
0.0
 40
8.0
  1
100'
 50
358.1874
  7
ROMANS
210
0.0
220
0.0
230
1.0
  0
TEXT
  8
11
  6
CONTINUOUS
 62
     7
  5
1B5
 10
947908.697
 20
7290408.265
 30
0.0
 40
8.0
  1
100'
 50
358.1874
  7
ROMANS
210
0.0
220
0.0
230
1.0
  0
TEXT
  8
11
  6
CONTINUOUS
 62
     7
  5
1B6
 10
947801.659
 20
7290411.653
 30
0.0
 40
8.0
  1
100'
 50
358.1874
  7
ROMANS
210
0.0
220
0.0
230
1.0
  0
TEXT
  8
11
  6
CONTINUOUS
 62
     7
  5
1B7
 10
947708.968
 20
7290414.586
 30
0.0
 40
8.0
  1
100'
 50
358.1874
  7
ROMANS
210
0.0
220
0.0
230
1.0
  0
TEXT
  8
11
  6
CONTINUOUS
 62
     7
  5
1B8
 10
947601.93
 20
7290417.973
 30
0.0
 40
8.0
  1
100'
 50
358.1874
  7
ROMANS
210
0.0
220
0.0
230
1.0
  0
TEXT
  8
11
  6
CONTINUOUS
 62
     7
  5
1B9
 10
947957.38
 20
7290193.442
 30
0.0
 40
8.0
  1
130'
 50
88.1874
  7
ROMANS
210
0.0
220
0.0
230
1.0
  0
TEXT
  8
11
  6
CONTINUOUS
 62
     7
  5
1BA
 10
947962.063
 20
7290341.427
 30
0.0
 40
8.0
  1
130'
 50
88.1874
  7
ROMANS
210
0.0
220
0.0
230
1.0
  0
TEXT
  8
11
  6
CONTINUOUS
 62
     7
  5
1BB
 10
947574.742
 20
7290353.684
 30
0.0
 40
8.0
  1
130'
 50
88.1874
  7
ROMANS
210
0.0
220
0.0
230
1.0
  0
TEXT
  8
11
  6
CONTINUOUS
 62
     7
  5
1BC
 10
947605.066
 20
7290482.145
 30
0.0
 40
8.0
  1
100'
 50
358.1874
  7
ROMANS
210
0.0
220
0.0
230
1.0
  0
TEXT
  8
11
  6
CONTINUOUS
 62
     7
  5
1BD
 10
947709.896
 20
7290478.828
 30
0.0
 40
8.0
  1
100'
 50
358.1874
  7
ROMANS
210
0.0
220
0.0
230
1.0
  0
TEXT
  8
11
  6
CONTINUOUS
 62
     7
  5
1BE
 10
947809.209
 20
7290475.685
 30
0.0
 40
8.0
  1
100'
 50
358.1874
  7
ROMANS
210
0.0
220
0.0
230
1.0
  0
TEXT
  8
11
  6
CONTINUOUS
 62
     7
  5
1BF
 10
947910.729
 20
7290472.472
 30
0.0
 40
8.0
  1
100'
 50
358.1874
  7
ROMANS
210
0.0
220
0.0
230
1.0
  0
TEXT
  8
11
  6
CONTINUOUS
 62
     7
  5
1C0
 10
947918.977
 20
7290733.103
 30
0.0
 40
8.0
  1
100'
 50
358.1874
  7
ROMANS
210
0.0
220
0.0
230
1.0
  0
TEXT
  8
11
  6
CONTINUOUS
 62
     7
  5
1C1
 10
947811.939
 20
7290736.49
 30
0.0
 40
8.0
  1
100'
 50
358.1874
  7
ROMANS
210
0.0
220
0.0
230
1.0
  0
TEXT
  8
11
  6
CONTINUOUS
 62
     7
  5
1C2
 10
947719.248
 20
7290739.424
 30
0.0
 40
8.0
  1
100'
 50
358.1874
  7
ROMANS
210
0.0
220
0.0
230
1.0
  0
TEXT
  8
11
  6
CONTINUOUS
 62
     7
  5
1C3
 10
947612.21
 20
7290742.811
 30
0.0
 40
8.0
  1
100'
 50
358.1874
  7
ROMANS
210
0.0
220
0.0
230
1.0
  0
TEXT
  8
11
  6
CONTINUOUS
 62
     7
  5
1C4
 10
947967.66
 20
7290518.279
 30
0.0
 40
8.0
  1
130'
 50
88.1874
  7
ROMANS
210
0.0
220
0.0
230
1.0
  0
TEXT
  8
11
  6
CONTINUOUS
 62
     7
  5
1C5
 10
947972.343
 20
7290666.264
 30
0.0
 40
8.0
  1
130'
 50
88.1874
  7
ROMANS
210
0.0
220
0.0
230
1.0
  0
TEXT
  8
11
  6
CONTINUOUS
 62
     7
  5
1C6
 10
947585.022
 20
7290678.522
 30
0.0
 40
8.0
  1
130'
 50
88.1874
  7
ROMANS
210
0.0
220
0.0
230
1.0
  0
TEXT
  8
11
  6
CONTINUOUS
 62
     7
  5
1C7
 10
947615.346
 20
7290806.983
 30
0.0
 40
8.0
  1
100'
 50
358.1874
  7
ROMANS
210
0.0
220
0.0
230
1.0
  0
TEXT
  8
11
  6
CONTINUOUS
 62
     7
  5
1C8
 10
947720.176
 20
7290803.665
 30
0.0
 40
8.0
  1
100'
 50
358.1874
  7
ROMANS
210
0.0
220
0.0
230
1.0
  0
TEXT
  8
11
  6
CONTINUOUS
 62
     7
  5
1C9
 10
947819.488
 20
7290800.522
 30
0.0
 40
8.0
  1
100'
 50
358.1874
  7
ROMANS
210
0.0
220
0.0
230
1.0
  0
TEXT
  8
11
  6
CONTINUOUS
 62
     7
  5
1CA
 10
947921.009
 20
7290797.31
 30
0.0
 40
8.0
  1
100'
 50
358.1874
  7
ROMANS
210
0.0
220
0.0
230
1.0
  0
TEXT
  8
11
  6
CONTINUOUS
 62
     7
  5
1CB
 10
947929.257
 20
7291057.94
 30
0.0
 40
8.0
  1
100'
 50
358.1874
  7
ROMANS
210
0.0
220
0.0
230
1.0
  0
TEXT
  8
11
  6
CONTINUOUS
 62
     7
  5
1CC
 10
947822.219
 20
7291061.328
 30
0.0
 40
8.0
  1
100'
 50
358.1874
  7
ROMANS
210
0.0
220
0.0
230
1.0
  0
TEXT
  8
11
  6
CONTINUOUS
 62
     7
  5
1CD
 10
947729.528
 20
7291064.261
 30
0.0
 40
8.0
  1
100'
 50
358.1874
  7
ROMANS
210
0.0
220
0.0
230
1.0
  0
TEXT
  8
11
  6
CONTINUOUS
 62
     7
  5
1CE
 10
947622.49
 20
7291067.648
 30
0.0
 40
8.0
  1
100'
 50
358.1874
  7
ROMANS
210
0.0
220
0.0
230
1.0
  0
TEXT
  8
11
  6
CONTINUOUS
 62
     7
  5
1CF
 10
947977.94
 20
7290843.117
 30
0.0
 40
8.0
  1
130'
 50
88.1874
  7
ROMANS
210
0.0
220
0.0
230
1.0
  0
TEXT
  8
11
  6
CONTINUOUS
 62
     7
  5
1D0
 10
947982.623
 20
7290991.102
 30
0.0
 40
8.0
  1
130'
 50
88.1874
  7
ROMANS
210
0.0
220
0.0
230
1.0
  0
TEXT
  8
11
  6
CONTINUOUS
 62
     7
  5
1D1
 10
947595.302
 20
7291003.359
 30
0.0
 40
8.0
  1
130'
 50
88.1874
  7
ROMANS
210
0.0
220
0.0
230
1.0
  0
TEXT
  8
11
  6
CONTINUOUS
 62
     7
  5
1D2
 10
947625.626
 20
7291131.82
 30
0.0
 40
8.0
  1
100'
 50
358.1874
  7
ROMANS
210
0.0
220
0.0
230
1.0
  0
TEXT
  8
11
  6
CONTINUOUS
 62
     7
  5
1D3
 10
947730.456
 20
7291128.503
 30
0.0
 40
8.0
  1
100'
 50
358.1874
  7
ROMANS
210
0.0
220
0.0
230
1.0
  0
TEXT
  8
11
  6
CONTINUOUS
 62
     7
  5
1D4
 10
947829.768
 20
7291125.36
 30
0.0
 40
8.0
  1
100'
 50
358.1874
  7
ROMANS
210
0.0
220
0.0
230
1.0
  0
TEXT
  8
11
  6
CONTINUOUS
 62
     7
  5
1D5
 10
947931.289
 20
7291122.147
 30
0.0
 40
8.0
  1
100'
 50
358.1874
  7
ROMANS
210
0.0
220
0.0
230
1.0
  0
TEXT
  8
11
  6
CONTINUOUS
 62
     7
  5
1D6
 10
947939.537
 20
7291382.778
 30
0.0
 40
8.0
  1
100'
 50
358.1874
  7
ROMANS
210
0.0
220
0.0
230
1.0
  0
TEXT
  8
11
  6
CONTINUOUS
 62
     7
  5
1D7
 10
947832.499
 20
7291386.165
 30
0.0
 40
8.0
  1
100'
 50
358.1874
  7
ROMANS
210
0.0
220
0.0
230
1.0
  0
TEXT
  8
11
  6
CONTINUOUS
 62
     7
  5
1D8
 10
947739.808
 20
7291389.098
 30
0.0
 40
8.0
  1
100'
 50
358.1874
  7
ROMANS
210
0.0
220
0.0
230
1.0
  0
TEXT
  8
11
  6
CONTINUOUS
 62
     7
  5
1D9
 10
947632.77
 20
7291392.486
 30
0.0
 40
8.0
  1
100'
 50
358.1874
  7
ROMANS
210
0.0
220
0.0
230
1.0
  0
TEXT
  8
11
  6
CONTINUOUS
 62
     7
  5
1DA
 10
947988.22
 20
7291167.954
 30
0.0
 40
8.0
  1
130'
 50
88.1874
  7
ROMANS
210
0.0
220
0.0
230
1.0
  0
TEXT
  8
11
  6
CONTINUOUS
 62
     7
  5
1DB
 10
947992.903
 20
7291315.939
 30
0.0
 40
8.0
  1
130'
 50
88.1874
  7
ROMANS
210
0.0
220
0.0
230
1.0
  0
TEXT
  8
11
  6
CONTINUOUS
 62
     7
  5
1DC
 10
947605.582
 20
7291328.196
 30
0.0
 40
8.0
  1
130'
 50
88.1874
  7
ROMANS
210
0.0
220
0.0
230
1.0
  0
TEXT
  8
11
  6
CONTINUOUS
 62
     7
  5
1DD
 10
947635.906
 20
7291456.658
 30
0.0
 40
8.0
  1
100'
 50
358.1874
  7
ROMANS
210
0.0
220
0.0
230
1.0
  0
TEXT
  8
11
  6
CONTINUOUS
 62
     7
  5
1DE
 10
947740.736
 20
7291453.34
 30
0.0
 40
8.0
  1
100'
 50
358.1874
  7
ROMANS
210
0.0
220
0.0
230
1.0
  0
TEXT
  8
11
  6
CONTINUOUS
 62
     7
  5
1DF
 10
947840.048
 20
7291450.197
 30
0.0
 40
8.0
  1
100'
 50
358.1874
  7
ROMANS
210
0.0
220
0.0
230
1.0
  0
TEXT
  8
11
  6
CONTINUOUS
 62
     7
  5
1E0
 10
947941.569
 20
7291446.984
 30
0.0
 40
8.0
  1
100'
 50
358.1874
  7
ROMANS
210
0.0
220
0.0
230
1.0
  0
TEXT
  8
11
  6
CONTINUOUS
 62
     7
  5
1E1
 10
947949.817
 20
7291707.615
 30
0.0
 40
8.0
  1
100'
 50
358.1874
  7
ROMANS
210
0.0
220
0.0
230
1.0
  0
TEXT
  8
11
  6
CONTINUOUS
 62
     7
  5
1E2
 10
947842.779
 20
7291711.002
 30
0.0
 40
8.0
  1
100'
 50
358.1874
  7
ROMANS
210
0.0
220
0.0
230
1.0
  0
TEXT
  8
11
  6
CONTINUOUS
 62
     7
  5
1E3
 10
947750.088
 20
7291713.936
 30
0.0
 40
8.0
  1
100'
 50
358.1874
  7
ROMANS
210
0.0
220
0.0
230
1.0
  0
TEXT
  8
11
  6
CONTINUOUS
 62
     7
  5
1E4
 10
947643.05
 20
7291717.323
 30
0.0
 40
8.0
  1
100'
 50
358.1874
  7
ROMANS
210
0.0
220
0.0
230
1.0
  0
TEXT
  8
11
  6
CONTINUOUS
 62
     7
  5
1E5
 10
947998.5
 20
7291492.792
 30
0.0
 40
8.0
  1
130'
 50
88.1874
  7
ROMANS
210
0.0
220
0.0
230
1.0
  0
TEXT
  8
11
  6
CONTINUOUS
 62
     7
  5
1E6
 10
948003.183
 20
7291640.777
 30
0.0
 40
8.0
  1
130'
 50
88.1874
  7
ROMANS
210
0.0
220
0.0
230
1.0
  0
TEXT
  8
11
  6
CONTINUOUS
 62
     7
  5
1E7
 10
947615.862
 20
7291653.034
 30
0.0
 40
8.0
  1
130'
 50
88.1874
  7
ROMANS
210
0.0
220
0.0
230
1.0
  0
TEXT
  8
11
  6
CONTINUOUS
 62
     7
  5
1E8
 10
947971.67
 20
7290492.761
 30
0.0
 40
8.0
  1
25'
 50
358.1874
  7
ROMANS
210
0.0
220
0.0
230
1.0
  0
TEXT
  8
11
  6
CONTINUOUS
 62
     7
  5
1E9
 10
947950.934
 20
7289836.6
 30
0.0
 40
8.0
  1
25'
 50
358.1874
  7
ROMANS
210
0.0
220
0.0
230
1.0
  0
TEXT
  8
11
  6
CONTINUOUS
 62
     7
  5
1EA
 10
947934.62
 20
7289320.501
 30
0.0
 40
8.0
  1
25'
 50
358.1874
  7
ROMANS
210
0.0
220
0.0
230
1.0
  0
TEXT
  8
11
  6
CONTINUOUS
 62
     7
  5
1EC
 10
947326.489
 20
7289427.695
 30
0.0
 40
10.0
  1
15'
 50
358.1874
  7
MONOTXT
 11
947326.805306
 21
7289437.689996
 31
0.0
210
0.0
220
0.0
230
1.0
 73
     3
  0
TEXT
  8
11
  6
CONTINUOUS
 62
     7
  5
1ED
 10
946836.119
 20
7289379.061
 30
0.0
 40
10.0
  1
9
 50
6.020747
  7
MONOTXT
 72
     1
 11
946839.211845
 21
7289379.387203
 31
0.0
210
0.0
220
0.0
230
1.0
  0
TEXT
  8
11
  6
CONTINUOUS
 62
     7
  5
1EE
 10
946845.594
 20
7289380.061
 30
0.0
 40
10.0
  1
4
 50
6.020747
  7
MONOTXT
 72
     1
 11
946849.156242
 21
7289380.436711
 31
0.0
210
0.0
220
0.0
230
1.0
  0
TEXT
  8
11
  6
CONTINUOUS
 62
     7
  5
1EF
 10
946855.775
 20
7289381.134
 30
0.0
 40
10.0
  1
2
 50
6.020747
  7
MONOTXT
 72
     1
 11
946859.102543
 21
7289381.484957
 31
0.0
210
0.0
220
0.0
230
1.0
  0
TEXT
  8
11
  6
CONTINUOUS
 62
     7
  5
1F0
 10
946868.381
 20
7289382.464
 30
0.0
 40
10.0
  1
.
 50
6.020747
  7
MONOTXT
 72
     1
 11
946869.047304
 21
7289382.534275
 31
0.0
210
0.0
220
0.0
230
1.0
  0
TEXT
  8
11
  6
CONTINUOUS
 62
     7
  5
1F1
 10
946875.899
 20
7289383.257
 30
0.0
 40
10.0
  1
6
 50
6.020747
  7
MONOTXT
 72
     1
 11
946878.991845
 21
7289383.583203
 31
0.0
210
0.0
220
0.0
230
1.0
  0
TEXT
  8
11
  6
CONTINUOUS
 62
     7
  5
1F2
 10
946888.741
 20
7289384.611
 30
0.0
 40
10.0
  1
'
 50
6.020747
  7
MONOTXT
 72
     1
 11
946890.776709
 21
7289384.825707
 31
0.0
210
0.0
220
0.0
230
1.0
  0
TEXT
  8
11
  6
CONTINUOUS
 62
     7
  5
1F3
 10
946893.91
 20
7289385.157
 30
0.0
 40
10.0
  1
 
 50
6.020747
  7
MONOTXT
 72
     1
 11
946897.224615
 21
7289385.506594
 31
0.0
210
0.0
220
0.0
230
1.0
  0
TEXT
  8
11
  6
CONTINUOUS
 62
     7
  5
1F4
 10
946903.854
 20
7289386.206
 30
0.0
 40
10.0
  1
 
 50
6.020747
  7
MONOTXT
 72
     1
 11
946907.168615
 21
7289386.555594
 31
0.0
210
0.0
220
0.0
230
1.0
  0
TEXT
  8
11
  6
CONTINUOUS
 62
     7
  5
1F5
 10
946913.799
 20
7289387.255
 30
0.0
 40
10.0
  1
 
 50
6.020747
  7
MONOTXT
 72
     1
 11
946917.113615
 21
7289387.604594
 31
0.0
210
0.0
220
0.0
230
1.0
  0
TEXT
  8
11
  6
CONTINUOUS
 62
     7
  5
1F6
 10
946923.745
 20
7289388.304
 30
0.0
 40
10.0
  1
 
 50
6.020747
  7
MONOTXT
 72
     1
 11
946927.059615
 21
7289388.653594
 31
0.0
210
0.0
220
0.0
230
1.0
  0
TEXT
  8
11
  6
CONTINUOUS
 62
     7
  5
1F7
 10
946935.333
 20
7289389.526
 30
0.0
 40
10.0
  1
N
 50
6.020747
  7
MONOTXT
 72
     1
 11
946938.660543
 21
7289389.876957
 31
0.0
210
0.0
220
0.0
230
1.0
  0
TEXT
  8
11
  6
CONTINUOUS
 62
     7
  5
1F8
 10
946945.278
 20
7289390.575
 30
0.0
 40
10.0
  1
8
 50
6.020747
  7
MONOTXT
 72
     1
 11
946948.605543
 21
7289390.925957
 31
0.0
210
0.0
220
0.0
230
1.0
  0
TEXT
  8
11
  6
CONTINUOUS
 62
     7
  5
1F9
 10
946955.223
 20
7289391.623
 30
0.0
 40
10.0
  1
2
 50
6.020747
  7
MONOTXT
 72
     1
 11
946958.550543
 21
7289391.973957
 31
0.0
210
0.0
220
0.0
230
1.0
  0
TEXT
  8
11
  6
CONTINUOUS
 62
     7
  5
1FA
 10
946966.538
 20
7289392.817
 30
0.0
 40
10.0
  1
%%d
 50
6.020747
  7
MONOTXT
 72
     1
 11
946968.489178
 21
7289393.022791
 31
0.0
210
0.0
220
0.0
230
1.0
  0
TEXT
  8
11
  6
CONTINUOUS
 62
     7
  5
1FB
 10
946977.266
 20
7289393.948
 30
0.0
 40
10.0
  1
1
 50
6.020747
  7
MONOTXT
 72
     1
 11
946978.440486
 21
7289394.071873
 31
0.0
210
0.0
220
0.0
230
1.0
  0
TEXT
  8
11
  6
CONTINUOUS
 62
     7
  5
1FC
 10
946985.097
 20
7289394.774
 30
0.0
 40
10.0
  1
0
 50
6.020747
  7
MONOTXT
 72
     1
 11
946988.385759
 21
7289395.120867
 31
0.0
210
0.0
220
0.0
230
1.0
  0
TEXT
  8
11
  6
CONTINUOUS
 62
     7
  5
1FD
 10
946998.134
 20
7289396.149
 30
0.0
 40
10.0
  1
'
 50
6.020747
  7
MONOTXT
 72
     1
 11
947000.169709
 21
7289396.363707
 31
0.0
210
0.0
220
0.0
230
1.0
  0
TEXT
  8
11
  6
CONTINUOUS
 62
     7
  5
1FE
 10
947005.182
 20
7289396.892
 30
0.0
 40
10.0
  1
E
 50
6.020747
  7
MONOTXT
 72
     1
 11
947008.274845
 21
7289397.218203
 31
0.0
210
0.0
220
0.0
230
1.0
  0
TEXT
  8
11
  6
CONTINUOUS
 62
     7
  5
1FF
 10
946213.933
 20
7289223.563
 30
0.0
 40
10.0
  1
150'
 50
88.1874
  7
MONOTXT
 11
946203.938004
 21
7289223.879306
 31
0.0
210
0.0
220
0.0
230
1.0
 73
     3
  0
TEXT
  8
11
  6
CONTINUOUS
 62
     7
  5
200
 10
943474.372
 20
7289320.676
 30
0.0
 40
10.0
  1
150'
 50
88.1874
  7
MONOTXT
 11
943464.377004
 21
7289320.992306
 31
0.0
210
0.0
220
0.0
230
1.0
 73
     3
  0
TEXT
  8
11
  6
CONTINUOUS
 62
     7
  5
201
 10
942820.756
 20
7289529.225
 30
0.0
 40
10.0
  1
 
 50
322.495278
  7
MONOTXT
 72
     1
 11
942823.400079
 21
7289527.19578
 31
0.0
210
0.0
220
0.0
230
1.0
  0
TEXT
  8
11
  6
CONTINUOUS
 62
     7
  5
202
 10
942828.689
 20
7289523.137
 30
0.0
 40
10.0
  1
 
 50
322.495278
  7
MONOTXT
 72
     1
 11
942831.333079
 21
7289521.10778
 31
0.0
210
0.0
220
0.0
230
1.0
  0
TEXT
  8
11
  6
CONTINUOUS
 62
     7
  5
203
 10
942836.45
 20
7289517.331
 30
0.0
 40
10.0
  1
 
 50
325.990425
  7
MONOTXT
 72
     1
 11
942839.212871
 21
7289515.466748
 31
0.0
210
0.0
220
0.0
230
1.0
  0
TEXT
  8
11
  6
CONTINUOUS
 62
     7
  5
204
 10
942897.79
 20
7289487.618
 30
0.0
 40
10.0
  1
 
 50
343.46615
  7
MONOTXT
 72
     1
 11
942900.985186
 21
7289486.669489
 31
0.0
210
0.0
220
0.0
230
1.0
  0
TEXT
  8
11
  6
CONTINUOUS
 62
     7
  5
205
 10
942907.136
 20
7289485.05
 30
0.0
 40
10.0
  1
 
 50
346.961297
  7
MONOTXT
 72
     1
 11
942910.383068
 21
7289484.298045
 31
0.0
210
0.0
220
0.0
230
1.0
  0
TEXT
  8
11
  6
CONTINUOUS
 62
     7
  5
206
 10
943213.615
 20
7289441.813
 30
0.0
 40
10.0
  1
 
 50
352.204044
  7
MONOTXT
 72
     1
 11
943216.917194
 21
7289441.360893
 31
0.0
210
0.0
220
0.0
230
1.0
  0
TEXT
  8
11
  6
CONTINUOUS
 62
     7
  5
207
 10
943223.523
 20
7289440.456
 30
0.0
 40
10.0
  1
 
 50
352.204044
  7
MONOTXT
 72
     1
 11
943226.825194
 21
7289440.003893
 31
0.0
210
0.0
220
0.0
230
1.0
  0
TEXT
  8
11
  6
CONTINUOUS
 62
     7
  5
208
 10
943233.43
 20
7289439.1
 30
0.0
 40
10.0
  1
 
 50
352.204044
  7
MONOTXT
 72
     1
 11
943236.732194
 21
7289438.647893
 31
0.0
210
0.0
220
0.0
230
1.0
  0
TEXT
  8
11
  6
CONTINUOUS
 62
     7
  5
209
 10
943243.338
 20
7289437.744
 30
0.0
 40
10.0
  1
 
 50
352.204044
  7
MONOTXT
 72
     1
 11
943246.640194
 21
7289437.291893
 31
0.0
210
0.0
220
0.0
230
1.0
  0
TEXT
  8
19
  6
CONTINUOUS
 62
     1
  5
20A
 10
942844.948
 20
7293497.684
 30
0.0
 40
24.0
  1
FARM ROAD 1264 (N. UNIVERSITY AVE.)
 50
88.1874
  7
ROMANC
 72
     4
 11
942846.366659
 21
7293921.892389
 31
0.0
210
0.0
220
0.0
230
1.0
  0
TEXT
  8
11
  6
CONTINUOUS
 62
     7
  5
20B
 10
947234.134
 20
7289146.123
 30
0.0
 40
8.0
  1
50'
 50
358.1874
  7
ROMANS
 72
     4
 11
947243.588852
 21
7289149.82579
 31
0.0
210
0.0
220
0.0
230
1.0
  0
TEXT
  8
11
  6
CONTINUOUS
 62
     7
  5
20C
 10
947282.696
 20
7289143.986
 30
0.0
 40
8.0
  1
50'
 50
358.1874
  7
ROMANS
 72
     4
 11
947292.150852
 21
7289147.68879
 31
0.0
210
0.0
220
0.0
230
1.0
  0
TEXT
  8
11
  6
CONTINUOUS
 62
     7
  5
20D
 10
947388.99
 20
7294398.402
 30
0.0
 40
8.0
  1
50'
 50
358.1874
  7
ROMANS
 72
     4
 11
947398.444852
 21
7294402.10479
 31
0.0
210
0.0
220
0.0
230
1.0
  0
TEXT
  8
11
  6
CONTINUOUS
 62
     7
  5
20E
 10
947439.989
 20
7294397.388
 30
0.0
 40
8.0
  1
50'
 50
358.1874
  7
ROMANS
 72
     4
 11
947449.443852
 21
7294401.09079
 31
0.0
210
0.0
220
0.0
230
1.0
  0
TEXT
  8
11
  6
CONTINUOUS
 62
     7
  5
20F
 10
944088.819
 20
7294503.106
 30
0.0
 40
8.0
  1
60'
 50
88.1874
  7
ROMANS
 72
     4
 11
944085.11621
 21
7294512.560852
 31
0.0
210
0.0
220
0.0
230
1.0
  0
TEXT
  8
11
  6
CONTINUOUS
 62
     7
  5
210
 10
942954.165
 20
7294557.175
 30
0.0
 40
8.0
  1
60'
 50
88.1874
  7
ROMANS
 72
     4
 11
942950.46221
 21
7294566.629852
 31
0.0
210
0.0
220
0.0
230
1.0
  0
TEXT
  8
11
  6
CONTINUOUS
 62
     7
  5
211
 10
942823.662
 20
7291910.906
 30
0.0
 40
8.0
  1
4802.83'
 50
88.1874
  7
ROMANS
 72
     4
 11
942820.591821
 21
7291940.350845
 31
0.0
210
0.0
220
0.0
230
1.0
  0
TEXT
  8
11
  6
CONTINUOUS
 62
     7
  5
212
 10
943401.117
 20
7294508.879
 30
0.0
 40
8.0
  1
1260'
 50
358.1874
  7
ROMANS
 72
     4
 11
943418.567849
 21
7294512.328746
 31
0.0
210
0.0
220
0.0
230
1.0
  0
TEXT
  8
11
  6
CONTINUOUS
 62
     7
  5
213
 10
942791.109
 20
7294457.392
 30
0.0
 40
8.0
  1
60'
 50
358.1874
  7
ROMANS
 72
     4
 11
942800.563852
 21
7294461.09479
 31
0.0
210
0.0
220
0.0
230
1.0
  0
TEXT
  8
11
  6
CONTINUOUS
 62
     7
  5
214
 10
942772.576
 20
7291932.109
 30
0.0
 40
8.0
  1
60'
 50
358.1874
  7
ROMANS
 72
     4
 11
942782.030852
 21
7291935.81179
 31
0.0
210
0.0
220
0.0
230
1.0
  0
LINE
  8
21
  6
DASHDOT
 62
     7
  5
216
 10
947184.567
 20
7289420.84
 30
0.0
 11
947331.895
 21
7294415.357
 31
0.0
  0
LINE
  8
21
  6
DASHDOT
 62
     7
  5
217
 10
946286.918
 20
7289326.165
 30
0.0
 11
947224.71
 21
7289425.074
 31
0.0
  0
LINE
  8
21
  6
DASHDOT
 62
     7
  5
218
 10
943436.257
 20
7289416.378
 30
0.0
 11
946286.918
 21
7289326.165
 31
0.0
  0
TEXT
  8
22
  6
CONTINUOUS
 62
     3
  5
21A
 10
947222.193
 20
7289907.673
 30
0.0
 40
8.0
  1
PUBLIC  ROAD
 50
88.1874
  7
ROMANS
210
0.0
220
0.0
230
1.0
  0
TEXT
  8
22
  6
CONTINUOUS
 62
     3
  5
21B
 10
947271.102
 20
7291636.098
 30
0.0
 40
8.0
  1
PUBLIC  ROAD
 50
88.1874
  7
ROMANS
210
0.0
220
0.0
230
1.0
  0
TEXT
  8
22
  6
CONTINUOUS
 62
     3
  5
21C
 10
947324.522
 20
7293506.54
 30
0.0
 40
8.0
  1
PUBLIC  ROAD
 50
88.1874
  7
ROMANS
210
0.0
220
0.0
230
1.0
  0
TEXT
  8
22
  6
CONTINUOUS
 62
     3
  5
21D
 10
946725.364
 20
7289378.441
 30
0.0
 40
8.0
  1
1
 50
6.020708
  7
ROMANS
 72
     1
 11
946726.689647
 21
7289378.580816
 31
0.0
210
0.0
220
0.0
230
1.0
  0
TEXT
  8
22
  6
CONTINUOUS
 62
     3
  5
21E
 10
946732.005
 20
7289379.141
 30
0.0
 40
8.0
  1
0
 50
6.020708
  7
ROMANS
 72
     1
 11
946734.641377
 21
7289379.419058
 31
0.0
210
0.0
220
0.0
230
1.0
  0
TEXT
  8
22
  6
CONTINUOUS
 62
     3
  5
21F
 10
946741.275
 20
7289380.12
 30
0.0
 40
8.0
  1
'
 50
6.020708
  7
ROMANS
 72
     1
 11
946742.600647
 21
7289380.259816
 31
0.0
210
0.0
220
0.0
230
1.0
  0
TEXT
  8
22
  6
CONTINUOUS
 62
     3
  5
220
 10
946746.601
 20
7289380.68
 30
0.0
 40
8.0
  1
 
 50
6.020708
  7
ROMANS
 72
     1
 11
946749.252294
 21
7289380.959631
 31
0.0
210
0.0
220
0.0
230
1.0
  0
TEXT
  8
22
  6
CONTINUOUS
 62
     3
  5
221
 10
946754.556
 20
7289381.52
 30
0.0
 40
8.0
  1
 
 50
6.020708
  7
ROMANS
 72
     1
 11
946757.207294
 21
7289381.799631
 31
0.0
210
0.0
220
0.0
230
1.0
  0
TEXT
  8
22
  6
CONTINUOUS
 62
     3
  5
222
 10
946763.984
 20
7289382.514
 30
0.0
 40
8.0
  1
U
 50
6.020708
  7
ROMANS
 72
     1
 11
946766.47021
 21
7289382.77622
 31
0.0
210
0.0
220
0.0
230
1.0
  0
TEXT
  8
22
  6
CONTINUOUS
 62
     3
  5
223
 10
946771.941
 20
7289383.353
 30
0.0
 40
8.0
  1
U
 50
6.020708
  7
ROMANS
 72
     1
 11
946774.42721
 21
7289383.61522
 31
0.0
210
0.0
220
0.0
230
1.0
  0
TEXT
  8
22
  6
CONTINUOUS
 62
     3
  5
224
 10
946779.897
 20
7289384.193
 30
0.0
 40
8.0
  1
E
 50
6.020708
  7
ROMANS
 72
     1
 11
946782.38321
 21
7289384.45522
 31
0.0
210
0.0
220
0.0
230
1.0
  0
POLYLINE
  8
1
  6
HIDDEN
 62
   253
  5
226
 66
     1
 10
0.0
 20
0.0
 30
0.0
 70
     1
  0
VERTEX
  8
1
  6
HIDDEN
 62
   253
  5
227
 10
942818.036
 20
7294618.83
 30
0.0
  0
VERTEX
  8
1
  6
HIDDEN
 62
   253
  5
228
 10
948115.954
 20
7294471.599
 30
0.0
  0
VERTEX
  8
1
  6
HIDDEN
 62
   253
  5
229
 10
947948.422
 20
7289176.355
 30
0.0
  0
VERTEX
  8
1
  6
HIDDEN
 62
   253
  5
22A
 10
942654.257
 20
7289335.422
 30
0.0
  0
SEQEND
  8
1
  6
HIDDEN
 62
   253
  5
22B
  0
TEXT
  8
19
  6
CONTINUOUS
 62
     1
  5
22C
 10
947515.475
 20
7289412.641
 30
0.0
 40
16.0
  1
NORTH   PARIS   AVE
 50
88.1874
  7
ROMANC
 72
     4
 11
947512.738786
 21
7289579.098839
 31
0.0
210
0.0
220
0.0
230
1.0
  0
TEXT
  8
19
  6
CONTINUOUS
 62
     1
  5
22D
 10
947572.808
 20
7291183.245
 30
0.0
 40
16.0
  1
NORTH   PARIS   AVE
 50
88.1874
  7
ROMANC
 72
     4
 11
947570.071786
 21
7291349.702839
 31
0.0
210
0.0
220
0.0
230
1.0
  0
TEXT
  8
19
  6
CONTINUOUS
 62
     1
  5
22E
 10
947731.672
 20
7291728.961
 30
0.0
 40
16.0
  1
DRAKE  ST
 50
358.1874
  7
ROMANC
 72
     4
 11
947809.046436
 21
7291734.516383
 31
0.0
210
0.0
220
0.0
230
1.0
  0
TEXT
  8
19
  6
CONTINUOUS
 62
     1
  5
22F
 10
947683.828
 20
7291418.45
 30
0.0
 40
16.0
  1
CLEMSON  ST
 50
358.1874
  7
ROMANC
 72
     4
 11
947779.712169
 21
7291423.419617
 31
0.0
210
0.0
220
0.0
230
1.0
  0
TEXT
  8
19
  6
CONTINUOUS
 62
     1
  5
230
 10
947679.337
 20
7291093.984
 30
0.0
 40
16.0
  1
BRADLEY  ST
 50
358.1874
  7
ROMANC
 72
     4
 11
947776.291634
 21
7291098.91974
 31
0.0
210
0.0
220
0.0
230
1.0
  0
TEXT
  8
19
  6
CONTINUOUS
 62
     1
  5
231
 10
947682.927
 20
7290765.365
 30
0.0
 40
16.0
  1
ADRIAN  ST
 50
358.1874
  7
ROMANC
 72
     4
 11
947768.549307
 21
7290770.659368
 31
0.0
210
0.0
220
0.0
230
1.0
  0
TEXT
  8
19
  6
CONTINUOUS
 62
     1
  5
232
 10
947671.628
 20
7290443.718
 30
0.0
 40
16.0
  1
YALE     ST
 50
358.1874
  7
ROMANC
 72
     4
 11
947765.182336
 21
7290448.761347
 31
0.0
210
0.0
220
0.0
230
1.0
  0
TEXT
  8
19
  6
CONTINUOUS
 62
     1
  5
233
 10
947678.613
 20
7290118.892
 30
0.0
 40
16.0
  1
XAVIER  ST
 50
358.1874
  7
ROMANC
 72
     4
 11
947761.968442
 21
7290124.258106
 31
0.0
210
0.0
220
0.0
230
1.0
  0
TEXT
  8
19
  6
CONTINUOUS
 62
     1
  5
234
 10
947640.659
 20
7289793.308
 30
0.0
 40
16.0
  1
WABASH  ST
 50
358.1874
  7
ROMANC
 72
     4
 11
947732.072408
 21
7289798.4191
 31
0.0
210
0.0
220
0.0
230
1.0
  0
TEXT
  8
19
  6
CONTINUOUS
 62
     1
  5
235
 10
947653.083
 20
7289468.729
 30
0.0
 40
16.0
  1
VASSAR  ST
 50
358.1874
  7
ROMANC
 72
     4
 11
947738.327496
 21
7289474.035324
 31
0.0
210
0.0
220
0.0
230
1.0
  0
TEXT
  8
19
  6
CONTINUOUS
 62
     1
  5
236
 10
944016.585
 20
7294500.004
 30
0.0
 40
24.0
  1
KENT ST
 50
358.1874
  7
ROMANC
 72
     4
 11
944104.884552
 21
7294509.215645
 31
0.0
210
0.0
220
0.0
230
1.0
  0
TEXT
  8
19
  6
CONTINUOUS
 62
     1
  5
237
 10
946394.451
 20
7294434.443
 30
0.0
 40
24.0
  1
KENT ST
 50
358.1874
  7
ROMANC
 72
     4
 11
946482.750552
 21
7294443.654645
 31
0.0
210
0.0
220
0.0
230
1.0
  0
TEXT
  8
11
  6
CONTINUOUS
 62
     7
  5
238
 10
943335.468
 20
7289433.285
 30
0.0
 40
10.0
  1
50'
 50
88.1874
  7
MONOTXT
 11
943325.473004
 21
7289433.601306
 31
0.0
210
0.0
220
0.0
230
1.0
 73
     3
  0
TEXT
  8
11
  6
CONTINUOUS
 62
     7
  5
239
 10
943326.81
 20
7289468.502
 30
0.0
 40
10.0
  1
49.73'
 50
358.1874
  7
MONOTXT
 11
943327.126306
 21
7289478.496996
 31
0.0
210
0.0
220
0.0
230
1.0
 73
     3
  0
TEXT
  8
11
  6
CONTINUOUS
 62
     7
  5
23A
 10
943386.405
 20
7289415.198
 30
0.0
 40
10.0
  1
55.21'
 50
88.1874
  7
MONOTXT
 11
943376.410004
 21
7289415.514306
 31
0.0
210
0.0
220
0.0
230
1.0
 73
     3
  0
LINE
  8
6
  6
CONTINUOUS
 62
     7
  5
23B
 10
943373.009
 20
7289410.433
 30
0.0
 11
943375.108
 21
7289465.603
 31
0.0
  0
LINE
  8
6
  6
CONTINUOUS
 62
     7
  5
23C
 10
943375.108
 20
7289465.603
 30
0.0
 11
943325.414
 21
7289467.494
 31
0.0
  0
LINE
  8
6
  6
CONTINUOUS
 62
     7
  5
23D
 10
943325.414
 20
7289467.494
 30
0.0
 11
943323.513
 21
7289417.53
 31
0.0
  0
TEXT
  8
10
  6
CONTINUOUS
 62
   134
  5
23E
 10
943347.284
 20
7289436.196
 30
0.0
 40
13.999
  1
1
 50
358.1874
  7
ROMANS
 11
943347.726796
 21
7289450.187995
 31
0.0
210
0.0
220
0.0
230
1.0
 73
     3
  0
TEXT
  8
11
  6
CONTINUOUS
 62
     7
  5
23F
 10
943338.83
 20
7289404.01
 30
0.0
 40
8.0
  1
50'
 50
352.204056
  7
ROMANS
 72
     1
 11
943349.161903
 21
7289410.670081
 31
0.0
210
0.0
220
0.0
230
1.0
 73
     3
  0
POLYLINE
  8
21
  6
DASHDOT
 62
     7
  5
240
 66
     1
 10
0.0
 20
0.0
 30
0.0
 70
     1
  0
VERTEX
  8
21
  6
DASHDOT
 62
     7
  5
241
 10
942734.716
 20
7289886.342
 30
0.0
  0
VERTEX
  8
21
  6
DASHDOT
 62
     7
  5
242
 10
942735.234
 20
7289906.335
 30
0.0
  0
VERTEX
  8
21
  6
DASHDOT
 62
     7
  5
243
 10
943342.13
 20
7289890.589
 30
0.0
  0
VERTEX
  8
21
  6
DASHDOT
 62
     7
  5
244
 10
943323.52
 20
7289417.535
 30
0.0
  0
VERTEX
  8
21
  6
DASHDOT
 62
     7
  5
245
 10
943303.613
 20
7289420.304
 30
0.0
  0
VERTEX
  8
21
  6
DASHDOT
 62
     7
  5
246
 10
943321.349
 20
7289871.121
 30
0.0
  0
SEQEND
  8
21
  6
DASHDOT
 62
     7
  5
247
  0
POLYLINE
  8
21
  6
DASHDOT
 62
     7
  5
248
 66
     1
 10
0.0
 20
0.0
 30
0.0
  0
VERTEX
  8
21
  6
DASHDOT
 62
     7
  5
249
 10
942742.215
 20
7289597.066
 30
0.0
  0
VERTEX
  8
21
  6
DASHDOT
 62
     7
  5
24A
 10
942750.23
 20
7289905.946
 30
0.0
  0
VERTEX
  8
21
  6
DASHDOT
 62
     7
  5
24B
 10
942735.234
 20
7289906.335
 30
0.0
  0
VERTEX
  8
21
  6
DASHDOT
 62
     7
  5
24C
 10
942728.231
 20
7289636.426
 30
0.0
  0
VERTEX
  8
21
  6
DASHDOT
 62
     7
  5
24D
 10
942728.231493
 20
7289636.425449
 30
0.0
 42
0.048686
  0
VERTEX
  8
21
  6
DASHDOT
 62
     7
  5
24E
 10
942742.215499
 20
7289597.065021
 30
0.0
  0
SEQEND
  8
21
  6
DASHDOT
 62
     7
  5
24F
  0
POLYLINE
  8
21
  6
DASHDOT
 62
     7
  5
250
 66
     1
 10
0.0
 20
0.0
 30
0.0
 70
     1
  0
VERTEX
  8
21
  6
DASHDOT
 62
     7
  5
251
 10
942729.313
 20
7289678.13
 30
0.0
  0
VERTEX
  8
21
  6
DASHDOT
 62
     7
  5
252
 10
942729.837
 20
7289698.275
 30
0.0
  0
VERTEX
  8
21
  6
DASHDOT
 62
     7
  5
253
 10
943331.024
 20
7289608.287
 30
0.0
  0
VERTEX
  8
21
  6
DASHDOT
 62
     7
  5
254
 10
943330.233
 20
7289588.183
 30
0.0
  0
SEQEND
  8
21
  6
DASHDOT
 62
     7
  5
255
  0
POLYLINE
  8
21
  6
DASHDOT
 62
     7
  5
256
 66
     1
 10
0.0
 20
0.0
 30
0.0
  0
VERTEX
  8
21
  6
DASHDOT
 62
     7
  5
257
 10
942728.231
 20
7289636.426
 30
0.0
  0
VERTEX
  8
21
  6
DASHDOT
 62
     7
  5
258
 10
942729.18
 20
7289666.411
 30
0.0
  0
VERTEX
  8
21
  6
DASHDOT
 62
     7
  5
259
 10
942739.175
 20
7289666.094
 30
0.0
  0
VERTEX
  8
21
  6
DASHDOT
 62
     7
  5
25A
 10
942738.271
 20
7289637.513
 30
0.0
  0
VERTEX
  8
21
  6
DASHDOT
 62
     7
  5
25B
 10
942738.27056
 20
7289637.513082
 30
0.0
 42
0.304374
  0
VERTEX
  8
21
  6
DASHDOT
 62
     7
  5
25C
 10
942908.623704
 20
7289485.336671
 30
0.0
  0
VERTEX
  8
21
  6
DASHDOT
 62
     7
  5
25D
 10
942908.625
 20
7289485.336
 30
0.0
  0
VERTEX
  8
21
  6
DASHDOT
 62
     7
  5
25E
 10
943323.915
 20
7289427.576
 30
0.0
  0
VERTEX
  8
21
  6
DASHDOT
 62
     7
  5
25F
 10
943323.52
 20
7289417.535
 30
0.0
  0
VERTEX
  8
21
  6
DASHDOT
 62
     7
  5
260
 10
942907.247
 20
7289475.432
 30
0.0
  0
VERTEX
  8
21
  6
DASHDOT
 62
     7
  5
261
 10
942907.246386
 20
7289475.431975
 30
0.0
 42
-0.306202
  0
VERTEX
  8
21
  6
DASHDOT
 62
     7
  5
262
 10
942728.231147
 20
7289636.425887
 30
0.0
  0
SEQEND
  8
21
  6
DASHDOT
 62
     7
  5
263
  0
LINE
  8
6
  6
CONTINUOUS
 62
     7
  5
264
 10
942735.234
 20
7289906.335
 30
0.0
 11
943342.13
 21
7289890.589
 31
0.0
  0
LINE
  8
6
  6
CONTINUOUS
 62
     7
  5
265
 10
943342.13
 20
7289890.589
 30
0.0
 11
943323.52
 21
7289417.535
 31
0.0
  0
LINE
  8
6
  6
CONTINUOUS
 62
     7
  5
266
 10
943394.201
 20
7289407.704
 30
0.0
 11
942907.247
 21
7289475.432
 31
0.0
  0
LINE
  8
6
  6
CONTINUOUS
 62
     7
  5
267
 10
942735.234
 20
7289906.335
 30
0.0
 11
942728.231
 21
7289636.426
 31
0.0
  0
ARC
  8
6
  6
CONTINUOUS
 62
     7
  5
268
 10
942936.859048
 20
7289688.382637
 30
0.0
 40
215.0
 50
193.984575
 51
262.083383
210
0.0
220
0.0
230
1.0
  0
TEXT
  8
11
  6
CONTINUOUS
 62
     7
  5
26A
 10
943018.601
 20
7289657.074
 30
0.0
 40
8.0
  1
607.88'
 50
351.486964
  7
txt
 72
     1
 11
943041.806479
 21
7289653.60052
 31
0.0
210
0.0
220
0.0
230
1.0
  0
TEXT
  8
11
  6
CONTINUOUS
 62
     7
  5
26B
 10
943016.755
 20
7289623.548
 30
0.0
 40
8.0
  1
607.61'
 50
351.487
  7
txt
 72
     1
 11
943039.554468
 21
7289628.224432
 31
0.0
210
0.0
220
0.0
230
1.0
 73
     3
  0
TEXT
  8
11
  6
CONTINUOUS
 62
     7
  5
26C
 10
943048.154
 20
7289888.436
 30
0.0
 40
8.0
  1
607.1'
 50
358.5138
  7
txt
 72
     1
 11
943066.401419
 21
7289895.965265
 31
0.0
210
0.0
220
0.0
230
1.0
 73
     3
  0
TEXT
  8
11
  6
CONTINUOUS
 62
     7
  5
26D
 10
942766.431
 20
7289560.441
 30
0.0
 40
8.0
  1
240.76'
 50
313.096475
  7
txt
 72
     1
 11
942782.590729
 21
7289543.170208
 31
0.0
210
0.0
220
0.0
230
1.0
  0
TEXT
  8
11
  6
CONTINUOUS
 62
     7
  5
26E
 10
943074.436
 20
7289453.588
 30
0.0
 40
8.0
  1
420.28'
 50
352.081928
  7
txt
 72
     1
 11
943098.018997
 21
7289450.308007
 31
0.0
210
0.0
220
0.0
230
1.0
  0
CIRCLE
  8
8
  6
CONTINUOUS
 62
     7
  5
270
 10
943331.024048
 20
7289608.286842
 30
0.0
 40
1.0
210
0.0
220
0.0
230
1.0
  0
CIRCLE
  8
8
  6
CONTINUOUS
 62
     7
  5
271
 10
942729.8366
 20
7289698.274766
 30
0.0
 40
1.0
210
0.0
220
0.0
230
1.0
  0
CIRCLE
  8
8
  6
CONTINUOUS
 62
     7
  5
272
 10
942907.246719
 20
7289475.43168
 30
0.0
 40
1.0
210
0.0
220
0.0
230
1.0
  0
CIRCLE
  8
8
  6
CONTINUOUS
 62
     7
  5
273
 10
942728.231472
 20
7289636.42559
 30
0.0
 40
1.0
210
0.0
220
0.0
230
1.0
  0
TEXT
  8
22
  6
CONTINUOUS
 62
     3
  5
274
 10
943318.879
 20
7289827.713
 30
0.0
 40
6.0
  1
SEE-LPL
 50
88.1874
  7
txt
 72
     4
 11
943316.469209
 21
7289846.410579
 31
0.0
210
0.0
220
0.0
230
1.0
  0
TEXT
  8
22
  6
CONTINUOUS
 62
     3
  5
275
 10
943269.659
 20
7289865.298
 30
0.0
 40
6.0
  1
SEE-SPS
 50
358.1874
  7
txt
 72
     4
 11
943288.924295
 21
7289867.689825
 31
0.0
210
0.0
220
0.0
230
1.0
  0
TEXT
  8
22
  6
CONTINUOUS
 62
     3
  5
276
 10
943259.647
 20
7289439.744
 30
0.0
 40
6.0
  1
SEE-LPL
 50
358.1874
  7
txt
 72
     4
 11
943278.344579
 21
7289442.153791
 31
0.0
210
0.0
220
0.0
230
1.0
  0
TEXT
  8
22
  6
CONTINUOUS
 62
     3
  5
277
 10
942759.88
 20
7289874.675
 30
0.0
 40
6.0
  1
SEE-LPL
 50
358.1874
  7
txt
 72
     4
 11
942778.577579
 21
7289877.084791
 31
0.0
210
0.0
220
0.0
230
1.0
  0
TEXT
  8
22
  6
CONTINUOUS
 62
     3
  5
278
 10
942757.188
 20
7289731.614
 30
0.0
 40
6.0
  1
20'R.O.W.ESMT
 50
88.1874
  7
txt
 11
942754.189501
 21
7289731.708892
 31
0.0
210
0.0
220
0.0
230
1.0
 73
     2
  0
TEXT
  8
22
  6
CONTINUOUS
 62
     3
  5
279
 10
942765.184
 20
7289731.361
 30
0.0
 40
6.0
  1
WEST TEXAS GAS CO.
 50
88.1874
  7
txt
 11
942762.185501
 21
7289731.455892
 31
0.0
210
0.0
220
0.0
230
1.0
 73
     2
  0
TEXT
  8
22
  6
CONTINUOUS
 62
     3
  5
27A
 10
942961.786
 20
7289480.298
 30
0.0
 40
6.0
  1
10'UUE
 50
352.081869
  7
txt
 72
     1
 11
942975.660447
 21
7289478.368286
 31
0.0
210
0.0
220
0.0
230
1.0
  0
TEXT
  8
22
  6
CONTINUOUS
 62
     3
  5
27B
 10
942988.187
 20
7289647.224
 30
0.0
 40
6.0
  1
20'UUE-ENERGAS
 50
351.486964
  7
txt
 72
     1
 11
943026.895864
 21
7289647.496761
 31
0.0
210
0.0
220
0.0
230
1.0
 73
     3
  0
TEXT
  8
22
  6
CONTINUOUS
 62
     3
  5
27C
 10
943323.736
 20
7289597.197
 30
0.0
 40
6.0
  1
20'UUE
 50
87.747106
  7
txt
 72
     1
 11
943324.328406
 21
7289612.255352
 31
0.0
210
0.0
220
0.0
230
1.0
  0
TEXT
  8
22
  6
CONTINUOUS
 62
     3
  5
27D
 10
942989.352
 20
7289872.121
 30
0.0
 40
6.0
  1
20'UUE
 50
358.5138
  7
txt
 72
     1
 11
943004.41693
 21
7289871.730142
 31
0.0
210
0.0
220
0.0
230
1.0
  0
TEXT
  8
13
  6
CONTINUOUS
 62
    14
  5
27F
 10
942774.156
 20
7289730.411
 30
0.0
 40
6.0
  1
(V.503,P.317)
 50
88.1874
  7
txt
 72
     4
 11
942772.119829
 21
7289760.914668
 31
0.0
210
0.0
220
0.0
230
1.0
  0
TEXT
  8
13
  6
CONTINUOUS
 62
    14
  5
280
 10
942992.417
 20
7289475.114
 30
0.0
 40
6.0
  1
(V.1388,P.629)
 50
352.081869
  7
txt
 72
     1
 11
943025.241041
 21
7289470.548701
 31
0.0
210
0.0
220
0.0
230
1.0
  0
TEXT
  8
10
  6
CONTINUOUS
 62
   134
  5
281
 10
943002.512
 20
7289688.062
 30
0.0
 40
13.999
  1
TRACT A
 50
358.1874
  7
txt
 72
     4
 11
943050.105698
 21
7289693.559335
 31
0.0
210
0.0
220
0.0
230
1.0
  0
TEXT
  8
11
  6
CONTINUOUS
 62
     7
  5
282
 10
942681.027
 20
7289644.084
 30
0.0
 40
8.0
  1
46.93'
 50
358.1874
  7
ROMANS
 72
     4
 11
942702.475848
 21
7289647.407224
 31
0.0
210
0.0
220
0.0
230
1.0
  0
TEXT
  8
19
  6
CONTINUOUS
 62
     1
  5
283
 10
942727.544
 20
7289786.123
 30
0.0
 40
24.0
  1
FARM RD 1264 (N UNIVERSITY AVE)
 50
88.1874
  7
ROMANC
 72
     4
 11
942727.994385
 21
7290179.734706
 31
0.0
210
0.0
220
0.0
230
1.0
  0
TEXT
  8
11
  6
CONTINUOUS
 62
     7
  5
284
 10
942723.073
 20
7289707.21
 30
0.0
 40
8.0
  1
N00%%d19'35"W 270'
 50
88.1874
  7
txt
 72
     4
 11
942720.950631
 21
7289766.604851
 31
0.0
210
0.0
220
0.0
230
1.0
  0
TEXT
  8
11
  6
CONTINUOUS
 62
     7
  5
285
 10
943341.406
 20
7289613.201
 30
0.0
 40
8.0
  1
S00%%d26'25"W 473.42'
 50
87.747106
  7
txt
 72
     1
 11
943336.208757
 21
7289684.601494
 31
0.0
210
0.0
220
0.0
230
1.0
 73
     3
  0
TEXT
  8
11
  6
CONTINUOUS
 62
     7
  5
286
 10
943054.017
 20
7289899.993
 30
0.0
 40
8.0
  1
N89%%d40'25"
 50
358.513756
  7
txt
 72
     1
 11
943089.55704
 21
7289899.07089
 31
0.0
210
0.0
220
0.0
230
1.0
  0
TEXT
  8
11
  6
CONTINUOUS
 62
     7
  5
287
 10
943041.349
 20
7289446.685
 30
0.0
 40
8.0
  1
N83%%d53'40"
 50
352.081869
  7
txt
 72
     1
 11
943077.851306
 21
7289449.68512
 31
0.0
210
0.0
220
0.0
230
1.0
 73
     3
  0
TEXT
  8
22
  6
CONTINUOUS
 62
     3
  5
288
 10
942740.601
 20
7289757.507
 30
0.0
 40
8.0
  1
208.13'
 50
88.513764
  7
txt
 72
     1
 11
942733.179592
 21
7289779.911025
 31
0.0
210
0.0
220
0.0
230
1.0
 73
     3
  0
TEXT
  8
22
  6
CONTINUOUS
 62
     3
  5
289
 10
943333.041
 20
7289710.43
 30
0.0
 40
8.0
  1
282.52'
 50
87.747106
  7
txt
 72
     1
 11
943333.970846
 21
7289734.065717
 31
0.0
210
0.0
220
0.0
230
1.0
  0
TEXT
  8
15
  6
CONTINUOUS
 62
    30
  5
28A
 10
943336.764
 20
7289478.937
 30
0.0
 40
50.0
  1
RADIO
 50
28.1874
  7
ROMANC
 72
     4
 11
943432.174755
 21
7289558.432517
 31
0.0
210
0.0
220
0.0
230
1.0
  0
TEXT
  8
15
  6
CONTINUOUS
 62
    30
  5
28B
 10
943359.352
 20
7289405.951
 30
0.0
 40
50.0
  1
TOWER
 50
28.1874
  7
ROMANC
 72
     4
 11
943467.601334
 21
7289492.326868
 31
0.0
210
0.0
220
0.0
230
1.0
  0
TEXT
  8
19
  6
CONTINUOUS
 62
     1
  5
28C
 10
942789.535
 20
7291644.673
 30
0.0
 40
24.0
  1
FARM RD 1264 (N UNIVERSITY AVE)
 50
88.1874
  7
ROMANC
 72
     4
 11
942789.985385
 21
7292038.284706
 31
0.0
210
0.0
220
0.0
230
1.0
  0
TEXT
  8
19
  6
CONTINUOUS
 62
     1
  5
28D
 10
947998.431
 20
7290827.56
 30
0.0
 40
19.999
  1
N AVE P
 50
88.1874
  7
ROMANC
 72
     4
 11
947990.901416
 21
7290905.781305
 31
0.0
210
0.0
220
0.0
230
1.0
  0
TEXT
  8
19
  6
CONTINUOUS
 62
     1
  5
28E
 10
948049.086
 20
7292955.569
 30
0.0
 40
24.0
  1
N AVE  P
 50
88.1874
  7
ROMANC
 72
     4
 11
948040.463063
 21
7293062.471239
 31
0.0
210
0.0
220
0.0
230
1.0
  0
LINE
  8
6
  6
CONTINUOUS
 62
     7
  5
28F
 10
947535.605
 20
7289505.266
 30
0.0
 11
947539.438
 21
7289635.209
 31
0.0
  0
LINE
  8
6
  6
CONTINUOUS
 62
     7
  5
290
 10
947539.438
 20
7289635.209
 30
0.0
 11
947939.263
 21
7289623.415
 31
0.0
  0
LINE
  8
6
  6
CONTINUOUS
 62
     7
  5
291
 10
947939.263
 20
7289623.415
 30
0.0
 11
947935.43
 21
7289493.471
 31
0.0
  0
LINE
  8
6
  6
CONTINUOUS
 62
     7
  5
292
 10
947939.706
 20
7289638.408
 30
0.0
 11
947539.88
 21
7289650.202
 31
0.0
  0
LINE
  8
6
  6
CONTINUOUS
 62
     7
  5
293
 10
947539.88
 20
7289650.202
 30
0.0
 11
947543.713
 21
7289780.146
 31
0.0
  0
LINE
  8
6
  6
CONTINUOUS
 62
     7
  5
294
 10
947543.713
 20
7289780.146
 30
0.0
 11
947943.539
 21
7289768.351
 31
0.0
  0
LINE
  8
6
  6
CONTINUOUS
 62
     7
  5
295
 10
947943.539
 20
7289768.351
 30
0.0
 11
947939.706
 21
7289638.408
 31
0.0
  0
LINE
  8
6
  6
CONTINUOUS
 62
     7
  5
296
 10
947493.735
 20
7289781.62
 30
0.0
 11
947481.946
 21
7289381.994
 31
0.0
  0
LINE
  8
6
  6
CONTINUOUS
 62
     7
  5
297
 10
947481.946
 20
7289381.994
 30
0.0
 11
947340.107
 21
7289406.487
 31
0.0
  0
LINE
  8
6
  6
CONTINUOUS
 62
     7
  5
298
 10
947493.735
 20
7289781.62
 30
0.0
 11
947351.296
 21
7289785.822
 31
0.0
  0
LINE
  8
6
  6
CONTINUOUS
 62
     7
  5
299
 10
947351.296
 20
7289785.822
 30
0.0
 11
947340.107
 21
7289406.487
 31
0.0
  0
LINE
  8
6
  6
CONTINUOUS
 62
     7
  5
29A
 10
947935.43
 20
7289493.471
 30
0.0
 11
947535.605
 21
7289505.266
 31
0.0
  0
LINE
  8
6
  6
CONTINUOUS
 62
     7
  5
29B
 10
947495.209
 20
7289831.599
 30
0.0
 11
947352.771
 21
7289835.8
 31
0.0
  0
LINE
  8
6
  6
CONTINUOUS
 62
     7
  5
29C
 10
947352.771
 20
7289835.8
 30
0.0
 11
947370.463
 21
7290435.539
 31
0.0
  0
LINE
  8
6
  6
CONTINUOUS
 62
     7
  5
29D
 10
947370.463
 20
7290435.539
 30
0.0
 11
947512.901
 21
7290431.338
 31
0.0
  0
LINE
  8
6
  6
CONTINUOUS
 62
     7
  5
29E
 10
947512.901
 20
7290431.338
 30
0.0
 11
947495.209
 21
7289831.599
 31
0.0
  0
LINE
  8
6
  6
CONTINUOUS
 62
     7
  5
29F
 10
947945.013
 20
7289818.329
 30
0.0
 11
947545.188
 21
7289830.124
 31
0.0
  0
LINE
  8
6
  6
CONTINUOUS
 62
     7
  5
2A0
 10
947545.188
 20
7289830.124
 30
0.0
 11
947549.02
 21
7289960.067
 31
0.0
  0
LINE
  8
6
  6
CONTINUOUS
 62
     7
  5
2A1
 10
947549.02
 20
7289960.067
 30
0.0
 11
947948.846
 21
7289948.273
 31
0.0
  0
LINE
  8
6
  6
CONTINUOUS
 62
     7
  5
2A2
 10
947948.846
 20
7289948.273
 30
0.0
 11
947945.013
 21
7289818.329
 31
0.0
  0
LINE
  8
6
  6
CONTINUOUS
 62
     7
  5
2A3
 10
947949.289
 20
7289963.266
 30
0.0
 11
947549.463
 21
7289975.061
 31
0.0
  0
LINE
  8
6
  6
CONTINUOUS
 62
     7
  5
2A4
 10
947549.463
 20
7289975.061
 30
0.0
 11
947553.296
 21
7290105.005
 31
0.0
  0
LINE
  8
6
  6
CONTINUOUS
 62
     7
  5
2A5
 10
947553.296
 20
7290105.005
 30
0.0
 11
947953.122
 21
7290093.21
 31
0.0
  0
LINE
  8
6
  6
CONTINUOUS
 62
     7
  5
2A6
 10
947953.122
 20
7290093.21
 30
0.0
 11
947949.289
 21
7289963.266
 31
0.0
  0
LINE
  8
6
  6
CONTINUOUS
 62
     7
  5
2A7
 10
947954.596
 20
7290143.188
 30
0.0
 11
947554.77
 21
7290154.983
 31
0.0
  0
LINE
  8
6
  6
CONTINUOUS
 62
     7
  5
2A8
 10
947554.77
 20
7290154.983
 30
0.0
 11
947558.603
 21
7290284.927
 31
0.0
  0
LINE
  8
6
  6
CONTINUOUS
 62
     7
  5
2A9
 10
947558.603
 20
7290284.927
 30
0.0
 11
947958.429
 21
7290273.131
 31
0.0
  0
LINE
  8
6
  6
CONTINUOUS
 62
     7
  5
2AA
 10
947958.429
 20
7290273.131
 30
0.0
 11
947954.596
 21
7290143.188
 31
0.0
  0
LINE
  8
6
  6
CONTINUOUS
 62
     7
  5
2AB
 10
947958.872
 20
7290288.125
 30
0.0
 11
947559.046
 21
7290299.92
 31
0.0
  0
LINE
  8
6
  6
CONTINUOUS
 62
     7
  5
2AC
 10
947559.046
 20
7290299.92
 30
0.0
 11
947562.879
 21
7290429.863
 31
0.0
  0
LINE
  8
6
  6
CONTINUOUS
 62
     7
  5
2AD
 10
947562.879
 20
7290429.863
 30
0.0
 11
947962.706
 21
7290418.069
 31
0.0
  0
LINE
  8
6
  6
CONTINUOUS
 62
     7
  5
2AE
 10
947962.706
 20
7290418.069
 30
0.0
 11
947958.872
 21
7290288.125
 31
0.0
  0
LINE
  8
6
  6
CONTINUOUS
 62
     7
  5
2AF
 10
947514.375
 20
7290481.316
 30
0.0
 11
947371.938
 21
7290485.518
 31
0.0
  0
LINE
  8
6
  6
CONTINUOUS
 62
     7
  5
2B0
 10
947371.938
 20
7290485.518
 30
0.0
 11
947389.629
 21
7291085.257
 31
0.0
  0
LINE
  8
6
  6
CONTINUOUS
 62
     7
  5
2B1
 10
947389.629
 20
7291085.257
 30
0.0
 11
947532.067
 21
7291081.055
 31
0.0
  0
LINE
  8
6
  6
CONTINUOUS
 62
     7
  5
2B2
 10
947532.067
 20
7291081.055
 30
0.0
 11
947514.375
 21
7290481.316
 31
0.0
  0
LINE
  8
6
  6
CONTINUOUS
 62
     7
  5
2B3
 10
947964.179
 20
7290468.047
 30
0.0
 11
947564.353
 21
7290479.841
 31
0.0
  0
LINE
  8
6
  6
CONTINUOUS
 62
     7
  5
2B4
 10
947564.353
 20
7290479.841
 30
0.0
 11
947568.186
 21
7290609.785
 31
0.0
  0
LINE
  8
6
  6
CONTINUOUS
 62
     7
  5
2B5
 10
947568.186
 20
7290609.785
 30
0.0
 11
947968.013
 21
7290597.991
 31
0.0
  0
LINE
  8
6
  6
CONTINUOUS
 62
     7
  5
2B6
 10
947968.013
 20
7290597.991
 30
0.0
 11
947964.179
 21
7290468.047
 31
0.0
  0
LINE
  8
6
  6
CONTINUOUS
 62
     7
  5
2B7
 10
947968.456
 20
7290612.984
 30
0.0
 11
947568.629
 21
7290624.778
 31
0.0
  0
LINE
  8
6
  6
CONTINUOUS
 62
     7
  5
2B8
 10
947568.629
 20
7290624.778
 30
0.0
 11
947572.463
 21
7290754.722
 31
0.0
  0
LINE
  8
6
  6
CONTINUOUS
 62
     7
  5
2B9
 10
947572.463
 20
7290754.722
 30
0.0
 11
947972.289
 21
7290742.927
 31
0.0
  0
LINE
  8
6
  6
CONTINUOUS
 62
     7
  5
2BA
 10
947972.289
 20
7290742.927
 30
0.0
 11
947968.456
 21
7290612.984
 31
0.0
  0
LINE
  8
6
  6
CONTINUOUS
 62
     7
  5
2BB
 10
947973.763
 20
7290792.905
 30
0.0
 11
947573.936
 21
7290804.7
 31
0.0
  0
LINE
  8
6
  6
CONTINUOUS
 62
     7
  5
2BC
 10
947573.936
 20
7290804.7
 30
0.0
 11
947577.77
 21
7290934.643
 31
0.0
  0
LINE
  8
6
  6
CONTINUOUS
 62
     7
  5
2BD
 10
947577.77
 20
7290934.643
 30
0.0
 11
947977.596
 21
7290922.849
 31
0.0
  0
LINE
  8
6
  6
CONTINUOUS
 62
     7
  5
2BE
 10
947977.596
 20
7290922.849
 30
0.0
 11
947973.763
 21
7290792.905
 31
0.0
  0
LINE
  8
6
  6
CONTINUOUS
 62
     7
  5
2BF
 10
947978.039
 20
7290937.843
 30
0.0
 11
947578.212
 21
7290949.637
 31
0.0
  0
LINE
  8
6
  6
CONTINUOUS
 62
     7
  5
2C0
 10
947578.212
 20
7290949.637
 30
0.0
 11
947582.046
 21
7291079.581
 31
0.0
  0
LINE
  8
6
  6
CONTINUOUS
 62
     7
  5
2C1
 10
947582.046
 20
7291079.581
 30
0.0
 11
947981.872
 21
7291067.786
 31
0.0
  0
LINE
  8
6
  6
CONTINUOUS
 62
     7
  5
2C2
 10
947981.872
 20
7291067.786
 30
0.0
 11
947978.039
 21
7290937.843
 31
0.0
  0
LINE
  8
6
  6
CONTINUOUS
 62
     7
  5
2C3
 10
947533.541
 20
7291131.033
 30
0.0
 11
947391.104
 21
7291135.235
 31
0.0
  0
LINE
  8
6
  6
CONTINUOUS
 62
     7
  5
2C4
 10
947391.104
 20
7291135.235
 30
0.0
 11
947408.796
 21
7291734.974
 31
0.0
  0
LINE
  8
6
  6
CONTINUOUS
 62
     7
  5
2C5
 10
947408.796
 20
7291734.974
 30
0.0
 11
947551.234
 21
7291730.772
 31
0.0
  0
LINE
  8
6
  6
CONTINUOUS
 62
     7
  5
2C6
 10
947551.234
 20
7291730.772
 30
0.0
 11
947533.541
 21
7291131.033
 31
0.0
  0
LINE
  8
6
  6
CONTINUOUS
 62
     7
  5
2C7
 10
947983.346
 20
7291117.765
 30
0.0
 11
947583.52
 21
7291129.559
 31
0.0
  0
LINE
  8
6
  6
CONTINUOUS
 62
     7
  5
2C8
 10
947583.52
 20
7291129.559
 30
0.0
 11
947587.353
 21
7291259.503
 31
0.0
  0
LINE
  8
6
  6
CONTINUOUS
 62
     7
  5
2C9
 10
947587.353
 20
7291259.503
 30
0.0
 11
947987.179
 21
7291247.707
 31
0.0
  0
LINE
  8
6
  6
CONTINUOUS
 62
     7
  5
2CA
 10
947987.179
 20
7291247.707
 30
0.0
 11
947983.346
 21
7291117.765
 31
0.0
  0
LINE
  8
6
  6
CONTINUOUS
 62
     7
  5
2CB
 10
947987.622
 20
7291262.701
 30
0.0
 11
947587.796
 21
7291274.496
 31
0.0
  0
LINE
  8
6
  6
CONTINUOUS
 62
     7
  5
2CC
 10
947587.796
 20
7291274.496
 30
0.0
 11
947591.629
 21
7291404.439
 31
0.0
  0
LINE
  8
6
  6
CONTINUOUS
 62
     7
  5
2CD
 10
947591.629
 20
7291404.439
 30
0.0
 11
947991.454
 21
7291392.645
 31
0.0
  0
LINE
  8
6
  6
CONTINUOUS
 62
     7
  5
2CE
 10
947991.454
 20
7291392.645
 30
0.0
 11
947987.622
 21
7291262.701
 31
0.0
  0
LINE
  8
6
  6
CONTINUOUS
 62
     7
  5
2CF
 10
947992.929
 20
7291442.623
 30
0.0
 11
947593.103
 21
7291454.417
 31
0.0
  0
LINE
  8
6
  6
CONTINUOUS
 62
     7
  5
2D0
 10
947593.103
 20
7291454.417
 30
0.0
 11
947596.936
 21
7291584.361
 31
0.0
  0
LINE
  8
6
  6
CONTINUOUS
 62
     7
  5
2D1
 10
947596.936
 20
7291584.361
 30
0.0
 11
947996.762
 21
7291572.567
 31
0.0
  0
LINE
  8
6
  6
CONTINUOUS
 62
     7
  5
2D2
 10
947996.762
 20
7291572.567
 30
0.0
 11
947992.929
 21
7291442.623
 31
0.0
  0
LINE
  8
6
  6
CONTINUOUS
 62
     7
  5
2D3
 10
947997.204
 20
7291587.559
 30
0.0
 11
947597.379
 21
7291599.355
 31
0.0
  0
LINE
  8
6
  6
CONTINUOUS
 62
     7
  5
2D4
 10
947597.379
 20
7291599.355
 30
0.0
 11
947601.212
 21
7291729.298
 31
0.0
  0
LINE
  8
6
  6
CONTINUOUS
 62
     7
  5
2D5
 10
947601.212
 20
7291729.298
 30
0.0
 11
948001.037
 21
7291717.503
 31
0.0
  0
LINE
  8
6
  6
CONTINUOUS
 62
     7
  5
2D6
 10
948001.037
 20
7291717.503
 30
0.0
 11
947997.204
 21
7291587.559
 31
0.0
  0
LINE
  8
27
  6
CONTINUOUS
 62
    32
  5
2D7
 10
947326.795
 20
7290673.061
 30
0.0
 11
947283.095
 21
7289196.345
 31
0.0
  0
LINE
  8
27
  6
CONTINUOUS
 62
    32
  5
2D8
 10
947319.834
 20
7290020.925
 30
0.0
 11
947296.57
 21
7289195.94
 31
0.0
  0
ARC
  8
27
  6
CONTINUOUS
 62
    32
  5
2D9
 10
949236.732827
 20
7290912.964966
 30
0.0
 40
1920.19717
 50
181.175836
 51
183.652494
210
0.0
220
0.0
230
1.0
  0
ARC
  8
27
  6
CONTINUOUS
 62
    32
  5
2DA
 10
946186.685506
 20
7290670.361134
 30
0.0
 40
1140.112691
 50
0.135681
 51
6.055772
210
0.0
220
0.0
230
1.0
  0
ARC
  8
27
  6
CONTINUOUS
 62
    32
  5
2DB
 10
947924.5521
 20
7290150.547498
 30
0.0
 40
613.277534
 50
178.495442
 51
187.615611
210
0.0
220
0.0
230
1.0
  0
ARC
  8
27
  6
CONTINUOUS
 62
    32
  5
2DC
 10
947011.142235
 20
7290025.088623
 30
0.0
 40
308.719843
 50
359.227244
 51
8.228314
210
0.0
220
0.0
230
1.0
  0
SOLID
  8
21
  6
DASHDOT
 62
     7
  5
2DD
 10
942749.589
 20
7289881.953
 30
0.0
 11
942755.586
 21
7289881.763
 31
0.0
 12
942749.716
 22
7289885.951
 32
0.0
 13
942755.713
 23
7289885.761
 33
0.0
  0
SOLID
  8
21
  6
DASHDOT
 62
     7
  5
2DE
 10
943315.352
 20
7289871.311
 30
0.0
 11
943309.355
 21
7289871.501
 31
0.0
 12
943315.225
 22
7289867.313
 32
0.0
 13
943309.228
 23
7289867.503
 33
0.0
  0
SOLID
  8
21
  6
DASHDOT
 62
     7
  5
2DF
 10
943321.349
 20
7289871.121
 30
0.0
 11
943315.352
 21
7289871.311
 31
0.0
 12
943321.222
 22
7289867.123
 32
0.0
 13
943315.225
 23
7289867.313
 33
0.0
  0
SOLID
  8
21
  6
DASHDOT
 62
     7
  5
2E0
 10
943303.997
 20
7289430.548
 30
0.0
 11
943304.187
 21
7289436.545
 31
0.0
 12
943299.999
 22
7289430.674
 32
0.0
 13
943300.189
 23
7289436.671
 33
0.0
  0
TEXT
  8
28
  6
CONTINUOUS
 62
    32
  5
2E2
 10
947404.746
 20
7293991.209
 30
0.0
 40
24.0
  1
SANTA FE
 50
88.1874
  7
ROMANC
 72
     4
 11
947396.033422
 21
7294095.278657
 31
0.0
210
0.0
220
0.0
230
1.0
  0
TEXT
  8
28
  6
CONTINUOUS
 62
    32
  5
2E3
 10
947275.341
 20
7289541.593
 30
0.0
 40
24.0
  1
SANTA FE
 50
88.1874
  7
ROMANC
 72
     4
 11
947266.628422
 21
7289645.662657
 31
0.0
210
0.0
220
0.0
230
1.0
  0
POLYLINE
  8
1
  6
HIDDEN
 62
   253
  5
2E4
 66
     1
 10
0.0
 20
0.0
 30
0.0
 70
     1
  0
VERTEX
  8
1
  6
HIDDEN
 62
   253
  5
2E5
 10
942818.036
 20
7294618.83
 30
0.0
  0
VERTEX
  8
1
  6
HIDDEN
 62
   253
  5
2E6
 10
948115.954
 20
7294471.599
 30
0.0
  0
VERTEX
  8
1
  6
HIDDEN
 62
   253
  5
2E7
 10
947948.422
 20
7289176.355
 30
0.0
  0
VERTEX
  8
1
  6
HIDDEN
 62
   253
  5
2E8
 10
942654.257
 20
7289335.422
 30
0.0
  0
SEQEND
  8
1
  6
HIDDEN
 62
   253
  5
2E9
  0
ENDSEC
  0
EOF
