  0
SECTION
  2
HEADER
  9
$ACADVER
  1
AC1009
  9
$INSBASE
 10
0.0
 20
0.0
 30
0.0
  9
$EXTMIN
 10
926830.482
 20
7289643.691
 30
0.0
  9
$EXTMAX
 10
932274.581
 20
7295057.94
 30
0.0
  9
$LIMMIN
 10
0.0
 20
0.0
  9
$LIMMAX
 10
12.0
 20
9.0
  9
$ORTHOMODE
 70
     0
  9
$REGENMODE
 70
     1
  9
$FILLMODE
 70
     1
  9
$QTEXTMODE
 70
     0
  9
$MIRRTEXT
 70
     1
  9
$DRAGMODE
 70
     2
  9
$LTSCALE
 40
1.0
  9
$OSMODE
 70
     0
  9
$ATTMODE
 70
     1
  9
$TEXTSIZE
 40
0.2
  9
$TRACEWID
 40
0.05
  9
$TEXTSTYLE
  7
STANDARD
  9
$CLAYER
  8
0
  9
$CELTYPE
  6
CONTINUOUS
  9
$CECOLOR
 62
   256
  9
$DIMSCALE
 40
1.0
  9
$DIMASZ
 40
0.18
  9
$DIMEXO
 40
0.0625
  9
$DIMDLI
 40
0.38
  9
$DIMRND
 40
0.0
  9
$DIMDLE
 40
0.0
  9
$DIMEXE
 40
0.18
  9
$DIMTP
 40
0.0
  9
$DIMTM
 40
0.0
  9
$DIMTXT
 40
0.18
  9
$DIMCEN
 40
0.09
  9
$DIMTSZ
 40
0.0
  9
$DIMTOL
 70
     0
  9
$DIMLIM
 70
     0
  9
$DIMTIH
 70
     1
  9
$DIMTOH
 70
     1
  9
$DIMSE1
 70
     0
  9
$DIMSE2
 70
     0
  9
$DIMTAD
 70
     0
  9
$DIMZIN
 70
     0
  9
$DIMBLK
  1

  9
$DIMASO
 70
     1
  9
$DIMSHO
 70
     1
  9
$DIMPOST
  1

  9
$DIMAPOST
  1

  9
$DIMALT
 70
     0
  9
$DIMALTD
 70
     2
  9
$DIMALTF
 40
25.4
  9
$DIMLFAC
 40
1.0
  9
$DIMTOFL
 70
     0
  9
$DIMTVP
 40
0.0
  9
$DIMTIX
 70
     0
  9
$DIMSOXD
 70
     0
  9
$DIMSAH
 70
     0
  9
$DIMBLK1
  1

  9
$DIMBLK2
  1

  9
$DIMSTYLE
  2
STANDARD
  9
$DIMCLRD
 70
     0
  9
$DIMCLRE
 70
     0
  9
$DIMCLRT
 70
     0
  9
$DIMTFAC
 40
1.0
  9
$DIMGAP
 40
0.09
  9
$LUNITS
 70
     2
  9
$LUPREC
 70
     4
  9
$AXISMODE
 70
     0
  9
$AXISUNIT
 10
0.0
 20
0.0
  9
$SKETCHINC
 40
0.1
  9
$FILLETRAD
 40
0.0
  9
$AUNITS
 70
     0
  9
$AUPREC
 70
     0
  9
$MENU
  1
acad
  9
$ELEVATION
 40
0.0
  9
$PELEVATION
 40
0.0
  9
$THICKNESS
 40
0.0
  9
$LIMCHECK
 70
     0
  9
$BLIPMODE
 70
     1
  9
$CHAMFERA
 40
0.0
  9
$CHAMFERB
 40
0.0
  9
$SKPOLY
 70
     0
  9
$TDCREATE
 40
2453013.900162037
  9
$TDUPDATE
 40
2453013.900162037
  9
$TDINDWG
 40
0.0000000000
  9
$TDUSRTIMER
 40
0.0000000000
  9
$USRTIMER
 70
     1
  9
$ANGBASE
 50
0.0
  9
$ANGDIR
 70
     0
  9
$PDMODE
 70
     0
  9
$PDSIZE
 40
0.0
  9
$PLINEWID
 40
0.0
  9
$COORDS
 70
     0
  9
$SPLFRAME
 70
     0
  9
$SPLINETYPE
 70
     6
  9
$SPLINESEGS
 70
    10
  9
$ATTDIA
 70
     0
  9
$ATTREQ
 70
     1
  9
$HANDLING
 70
     1
  9
$HANDSEED
  5
14F
  9
$SURFTAB1
 70
     6
  9
$SURFTAB2
 70
     6
  9
$SURFTYPE
 70
     6
  9
$SURFU
 70
     6
  9
$SURFV
 70
     6
  9
$UCSNAME
  2

  9
$UCSORG
 10
0.0
 20
0.0
 30
0.0
  9
$UCSXDIR
 10
1.0
 20
0.0
 30
0.0
  9
$UCSYDIR
 10
0.0
 20
1.0
 30
0.0
  9
$PUCSNAME
  2

  9
$PUCSORG
 10
0.0
 20
0.0
 30
0.0
  9
$PUCSXDIR
 10
1.0
 20
0.0
 30
0.0
  9
$PUCSYDIR
 10
0.0
 20
1.0
 30
0.0
  9
$USERI1
 70
     0
  9
$USERI2
 70
     0
  9
$USERI3
 70
     0
  9
$USERI4
 70
     0
  9
$USERI5
 70
     0
  9
$USERR1
 40
0.0
  9
$USERR2
 40
0.0
  9
$USERR3
 40
0.0
  9
$USERR4
 40
0.0
  9
$USERR5
 40
0.0
  9
$WORLDVIEW
 70
     1
  9
$SHADEDGE
 70
     3
  9
$SHADEDIF
 70
    70
  9
$TILEMODE
 70
     1
  9
$MAXACTVP
 70
    16
  9
$PINSBASE
 10
0.0
 20
0.0
 30
0.0
  9
$PLIMCHECK
 70
     0
  9
$PEXTMIN
 10
-1.000000E+20
 20
-1.000000E+20
 30
-1.000000E+20
  9
$PEXTMAX
 10
-1.000000E+20
 20
-1.000000E+20
 30
-1.000000E+20
  9
$PLIMMIN
 10
0.0
 20
0.0
  9
$PLIMMAX
 10
12.0
 20
9.0
  9
$UNITMODE
 70
     0
  9
$VISRETAIN
 70
     0
  9
$PLINEGEN
 70
     1
  9
$PSLTSCALE
 70
     0
  9
$TREEDEPTH
 70
  3020
  9
$DWGCODEPAGE
  3
ansi_1252
  0
ENDSEC
  0
SECTION
  2
TABLES
  0
TABLE
  2
VPORT
 70
     1
  0
VPORT
  2
*ACTIVE
 70
     0
 10
0.0
 20
0.0
 11
1.0
 21
1.0
 12
0.0
 22
0.0
 13
0.0
 23
0.0
 14
0.0
 24
0.0
 15
0.0
 25
0.0
 16
0.0
 26
0.0
 36
1.0
 17
931658.737851
 27
7291154.912406
 37
0.0
 40
1626.028095
 41
1.430707
 42
50.0
 43
0.004
 44
0.0
 50
1.591862
 51
0.0
 71
     0
 72
   100
 73
     1
 74
     0
 75
     0
 76
     0
 77
     0
 78
     0
  0
ENDTAB
  0
TABLE
  2
LTYPE
 70
     7
  0
LTYPE
  2
CONTINUOUS
 70
     0
  3
Solid line
 72
    65
 73
     0
 40
0.0
  0
LTYPE
  2
DOT
 70
    64
  3
. . . . . . . . . . . . . . . . . . . . . . . . . . . . . . . . .
 72
    65
 73
     2
 40
0.25
 49
0.0
 49
-0.25
  0
LTYPE
  2
HIDDEN
 70
    64
  3
__ __ __ __ __ __ __ __ __ __ __ __ __ __ __ __ __ __ __ __ __ 
 72
    65
 73
     2
 40
0.375
 49
0.25
 49
-0.125
  0
LTYPE
  2
DASHED
 70
    64
  3
__ __ __ __ __ __ __ __ __ __ __ __ __ __ __ __ __ __ __ __ __
 72
    65
 73
     2
 40
0.75
 49
0.5
 49
-0.25
  0
LTYPE
  2
DASHDOT
 70
    64
  3
__ . __ . __ . __ . __ . __ . __ . __ . __ . __ . __ . __ . _
 72
    65
 73
     4
 40
1.0
 49
0.5
 49
-0.25
 49
0.0
 49
-0.25
  0
LTYPE
  2
DIVIDE
 70
    64
  3
____ . . ____ . . ____ . . ____ . . ____ . . ____ . . ____ . .
 72
    65
 73
     6
 40
1.25
 49
0.5
 49
-0.25
 49
0.0
 49
-0.25
 49
0.0
 49
-0.25
  0
LTYPE
  2
CENTER
 70
    64
  3
____ _ ____ _ ____ _ ____ _ ____ _ ____ _ ____ _ ____ _ ____ _
 72
    65
 73
     4
 40
2.0
 49
1.25
 49
-0.25
 49
0.25
 49
-0.25
  0
ENDTAB
  0
TABLE
  2
LAYER
 70
    14
  0
LAYER
  2
0
 70
     0
 62
     7
  6
CONTINUOUS
  0
LAYER
  2
CONSTRUCTION_CLASS
 70
     1
 62
     7
  6
CONTINUOUS
  0
LAYER
  2
PATTERN_CLASS
 70
     0
 62
     7
  6
CONTINUOUS
  0
LAYER
  2
6
 70
    64
 62
     7
  6
CONTINUOUS
  0
LAYER
  2
27
 70
    64
 62
     7
  6
CONTINUOUS
  0
LAYER
  2
7
 70
    64
 62
     7
  6
CONTINUOUS
  0
LAYER
  2
14
 70
    64
 62
     7
  6
CONTINUOUS
  0
LAYER
  2
15
 70
    64
 62
     7
  6
CONTINUOUS
  0
LAYER
  2
11
 70
    64
 62
     7
  6
CONTINUOUS
  0
LAYER
  2
1
 70
    64
 62
     7
  6
CONTINUOUS
  0
LAYER
  2
19
 70
    64
 62
     7
  6
CONTINUOUS
  0
LAYER
  2
58
 70
    64
 62
     7
  6
CONTINUOUS
  0
LAYER
  2
28
 70
    64
 62
     7
  6
CONTINUOUS
  0
LAYER
  2
10
 70
    64
 62
     7
  6
CONTINUOUS
  0
ENDTAB
  0
TABLE
  2
STYLE
 70
     4
  0
STYLE
  2
STANDARD
 70
     0
 40
0.0
 41
1.0
 50
0.0
 71
     0
 42
0.0
  3
txt
  4

  0
STYLE
  2
ROMANC
 70
     0
 40
0.2
 41
1.0
 50
0.0
 71
     0
 42
0.2
  3
ROMANC
  4

  0
STYLE
  2
ROMANS
 70
     0
 40
0.2
 41
1.0
 50
0.0
 71
     0
 42
0.2
  3
ROMANS
  4

  0
STYLE
  2
txt
 70
     0
 40
0.2
 41
1.0
 50
0.0
 71
     0
 42
0.2
  3
TXT
  4

  0
ENDTAB
  0
TABLE
  2
VIEW
 70
     0
  0
ENDTAB
  0
TABLE
  2
UCS
 70
     0
  0
ENDTAB
  0
TABLE
  2
APPID
 70
     1
  0
APPID
  2
ACAD
 70
     0
  0
ENDTAB
  0
TABLE
  2
DIMSTYLE
 70
     1
  0
DIMSTYLE
  2
STANDARD
 70
     0
  3

  4

  5

  6

  7

 40
1.0
 41
0.18
 42
0.0625
 43
0.38
 44
0.18
 45
0.0
 46
0.0
 47
0.0
 48
0.0
140
0.18
141
0.09
142
0.0
143
25.4
144
1.0
145
0.0
146
1.0
147
0.09
 71
     0
 72
     0
 73
     1
 74
     1
 75
     0
 76
     0
 77
     0
 78
     0
170
     0
171
     2
172
     0
173
     0
174
     0
175
     0
176
     0
177
     0
178
     0
  0
ENDTAB
  0
ENDSEC
  0
SECTION
  2
BLOCKS
  0
ENDSEC
  0
SECTION
  2
ENTITIES
  0
LINE
  8
6
  6
CONTINUOUS
 62
     7
  5
29
 10
927010.728
 20
7294249.255
 30
0.0
 11
932137.005
 21
7290671.005
 31
0.0
  0
LINE
  8
6
  6
CONTINUOUS
 62
     7
  5
2A
 10
928239.608
 20
7293110.978
 30
0.0
 11
932128.37
 21
7290396.542
 31
0.0
  0
LINE
  8
27
  6
CONTINUOUS
 62
    32
  5
2C
 10
926993.17
 20
7294319.829
 30
0.0
 11
932138.943
 21
7290732.492
 31
0.0
  0
LINE
  8
7
  6
CONTINUOUS
 62
     7
  5
2E
 10
930945.068
 20
7291222.511
 30
0.0
 11
930680.885
 21
7290842.988
 31
0.0
  0
LINE
  8
7
  6
CONTINUOUS
 62
     7
  5
2F
 10
931087.9
 20
7291122.811
 30
0.0
 11
930823.354
 21
7290743.817
 31
0.0
  0
LINE
  8
6
  6
CONTINUOUS
 62
     7
  5
30
 10
930659.461
 20
7290812.209
 30
0.0
 11
930801.89
 21
7290713.068
 31
0.0
  0
POLYLINE
  8
6
  6
CONTINUOUS
 62
     7
  5
31
 66
     1
 10
0.0
 20
0.0
 30
0.0
  0
VERTEX
  8
6
  6
CONTINUOUS
 62
     7
  5
32
 10
931365.168
 20
7291782.216
 30
0.0
  0
VERTEX
  8
6
  6
CONTINUOUS
 62
     7
  5
33
 10
931365.405
 20
7291789.712
 30
0.0
  0
VERTEX
  8
6
  6
CONTINUOUS
 62
     7
  5
34
 10
932141.42
 20
7291765.298
 30
0.0
  0
SEQEND
  8
6
  6
CONTINUOUS
 62
     7
  5
35
  0
LINE
  8
6
  6
CONTINUOUS
 62
     7
  5
36
 10
930597.439
 20
7291873.903
 30
0.0
 11
932143.307
 21
7291825.268
 31
0.0
  0
LINE
  8
6
  6
CONTINUOUS
 62
     7
  5
37
 10
932143.307
 20
7291825.268
 30
0.0
 11
932141.394
 21
7291764.468
 31
0.0
  0
LINE
  8
6
  6
CONTINUOUS
 62
     7
  5
38
 10
927067.022
 20
7294331.91
 30
0.0
 11
930587.453
 21
7291874.577
 31
0.0
  0
LINE
  8
6
  6
CONTINUOUS
 62
     7
  5
39
 10
930698.755
 20
7291803.182
 30
0.0
 11
931349.535
 21
7291348.923
 31
0.0
  0
LINE
  8
7
  6
CONTINUOUS
 62
     7
  5
3A
 10
932112.558
 20
7291324.918
 30
0.0
 11
932096.901
 21
7290827.247
 31
0.0
  0
LINE
  8
6
  6
CONTINUOUS
 62
     7
  5
3B
 10
930680.885
 20
7290842.988
 30
0.0
 11
930823.314
 21
7290743.845
 31
0.0
  0
LINE
  8
6
  6
CONTINUOUS
 62
     7
  5
3C
 10
932055.114
 20
7289830.184
 30
0.0
 11
932055.261
 21
7289908.824
 31
0.0
  0
LINE
  8
6
  6
CONTINUOUS
 62
     7
  5
3D
 10
932055.261
 20
7289908.824
 30
0.0
 11
932060.533
 21
7289975.296
 31
0.0
  0
POLYLINE
  8
6
  6
CONTINUOUS
 62
     7
  5
3E
 66
     1
 10
0.0
 20
0.0
 30
0.0
  0
VERTEX
  8
6
  6
CONTINUOUS
 62
     7
  5
3F
 10
932060.533
 20
7289975.296
 30
0.0
  0
VERTEX
  8
6
  6
CONTINUOUS
 62
     7
  5
40
 10
932066.113
 20
7290045.644
 30
0.0
  0
VERTEX
  8
6
  6
CONTINUOUS
 62
     7
  5
41
 10
932068.655
 20
7290120.303
 30
0.0
  0
SEQEND
  8
6
  6
CONTINUOUS
 62
     7
  5
42
  0
LINE
  8
6
  6
CONTINUOUS
 62
     7
  5
43
 10
932074.219
 20
7290265.398
 30
0.0
 11
932068.655
 21
7290120.303
 31
0.0
  0
LINE
  8
6
  6
CONTINUOUS
 62
     7
  5
44
 10
932046.772
 20
7289710.988
 30
0.0
 11
932055.114
 21
7289830.184
 31
0.0
  0
LINE
  8
6
  6
CONTINUOUS
 62
     7
  5
45
 10
932015.686
 20
7289676.949
 30
0.0
 11
926847.347
 21
7289845.532
 31
0.0
  0
ARC
  8
6
  6
CONTINUOUS
 62
     7
  5
46
 10
932016.786794
 20
7289711.931001
 30
0.0
 40
30.0
 50
268.198
 51
358.198
210
0.0
220
0.0
230
1.0
  0
LINE
  8
6
  6
CONTINUOUS
 62
     7
  5
47
 10
932015.843
 20
7289681.946
 30
0.0
 11
932015.686
 21
7289676.949
 31
0.0
  0
POLYLINE
  8
6
  6
CONTINUOUS
 62
     7
  5
48
 66
     1
 10
0.0
 20
0.0
 30
0.0
  0
VERTEX
  8
6
  6
CONTINUOUS
 62
     7
  5
49
 10
927067.022
 20
7294331.91
 30
0.0
  0
VERTEX
  8
6
  6
CONTINUOUS
 62
     7
  5
4A
 10
927093.211
 20
7294370.364
 30
0.0
  0
VERTEX
  8
6
  6
CONTINUOUS
 62
     7
  5
4B
 10
926997.422
 20
7294435.603
 30
0.0
  0
SEQEND
  8
6
  6
CONTINUOUS
 62
     7
  5
4C
  0
LINE
  8
6
  6
CONTINUOUS
 62
     7
  5
4D
 10
926981.277
 20
7294206.011
 30
0.0
 11
927010.728
 21
7294249.255
 31
0.0
  0
LINE
  8
6
  6
CONTINUOUS
 62
     7
  5
4E
 10
926989.95
 20
7294200.765
 30
0.0
 11
927665.981
 21
7293791.874
 31
0.0
  0
LINE
  8
6
  6
CONTINUOUS
 62
     7
  5
4F
 10
926979.509
 20
7293872.657
 30
0.0
 11
928239.608
 21
7293110.978
 31
0.0
  0
LINE
  8
6
  6
CONTINUOUS
 62
     7
  5
50
 10
930823.354
 20
7290743.817
 30
0.0
 11
930801.89
 21
7290713.068
 31
0.0
  0
LINE
  8
6
  6
CONTINUOUS
 62
     7
  5
51
 10
930680.885
 20
7290842.988
 30
0.0
 11
930659.461
 21
7290812.209
 31
0.0
  0
LINE
  8
6
  6
CONTINUOUS
 62
     7
  5
52
 10
931365.168
 20
7291782.216
 30
0.0
 11
930698.755
 21
7291803.182
 31
0.0
  0
LINE
  8
7
  6
CONTINUOUS
 62
     7
  5
53
 10
932112.558
 20
7291324.918
 30
0.0
 11
931349.535
 21
7291348.923
 31
0.0
  0
LINE
  8
6
  6
CONTINUOUS
 62
     7
  5
54
 10
931349.535
 20
7291348.923
 30
0.0
 11
932144.398
 21
7290794.093
 31
0.0
  0
LINE
  8
14
  6
CONTINUOUS
 62
     7
  5
56
 10
931087.9
 20
7291122.811
 30
0.0
 11
930823.354
 21
7290743.817
 31
0.0
  0
LINE
  8
14
  6
CONTINUOUS
 62
     7
  5
57
 10
930945.068
 20
7291222.511
 30
0.0
 11
930680.885
 21
7290842.988
 31
0.0
  0
LINE
  8
14
  6
CONTINUOUS
 62
     7
  5
58
 10
931365.168
 20
7291782.216
 30
0.0
 11
931351.534
 21
7291348.861
 31
0.0
  0
LINE
  8
14
  6
CONTINUOUS
 62
     7
  5
59
 10
931351.534
 20
7291348.861
 30
0.0
 11
932112.558
 21
7291324.918
 31
0.0
  0
LINE
  8
14
  6
CONTINUOUS
 62
     7
  5
5A
 10
932112.558
 20
7291324.918
 30
0.0
 11
932096.901
 21
7290827.247
 31
0.0
  0
TEXT
  8
15
  6
CONTINUOUS
 62
    30
  5
5D
 10
930770.296
 20
7290925.495
 30
0.0
 40
30.0
  1
MCCOLLUM
 50
28.198
  7
ROMANC
210
0.0
220
0.0
230
1.0
  0
TEXT
  8
11
  6
CONTINUOUS
 62
     7
  5
60
 10
926871.687
 20
7289804.866
 30
0.0
 40
8.0
  1
50'
 50
88.198
  7
ROMANS
210
0.0
220
0.0
230
1.0
  0
TEXT
  8
11
  6
CONTINUOUS
 62
     7
  5
61
 10
928166.078
 20
7289764.143
 30
0.0
 40
8.0
  1
50'
 50
88.198
  7
ROMANS
210
0.0
220
0.0
230
1.0
  0
TEXT
  8
11
  6
CONTINUOUS
 62
     7
  5
62
 10
929688.156
 20
7289712.443
 30
0.0
 40
8.0
  1
50'
 50
88.198
  7
ROMANS
210
0.0
220
0.0
230
1.0
  0
TEXT
  8
11
  6
CONTINUOUS
 62
     7
  5
63
 10
931993.736
 20
7289643.816
 30
0.0
 40
8.0
  1
50'
 50
88.198
  7
ROMANS
210
0.0
220
0.0
230
1.0
  0
TEXT
  8
11
  6
CONTINUOUS
 62
     7
  5
64
 10
932032.42
 20
7289689.665
 30
0.0
 40
8.0
  1
R=30'
 50
88.198
  7
ROMANS
210
0.0
220
0.0
230
1.0
  0
TEXT
  8
11
  6
CONTINUOUS
 62
     7
  5
65
 10
932082.025
 20
7290312.858
 30
0.0
 40
8.0
  1
50.50'
 50
358.198
  7
ROMANS
210
0.0
220
0.0
230
1.0
  0
TEXT
  8
11
  6
CONTINUOUS
 62
     7
  5
66
 10
932082.574
 20
7290083.72
 30
0.0
 40
8.0
  1
51'
 50
358.198
  7
ROMANS
210
0.0
220
0.0
230
1.0
  0
TEXT
  8
11
  6
CONTINUOUS
 62
     7
  5
67
 10
932064.195
 20
7289880.313
 30
0.0
 40
8.0
  1
54.43'
 50
358.198
  7
ROMANS
210
0.0
220
0.0
230
1.0
  0
TEXT
  8
11
  6
CONTINUOUS
 62
     7
  5
68
 10
932064.319
 20
7289850.731
 30
0.0
 40
8.0
  1
55.41'
 50
358.198
  7
ROMANS
210
0.0
220
0.0
230
1.0
  0
TEXT
  8
11
  6
CONTINUOUS
 62
     7
  5
69
 10
932059.419
 20
7289734.14
 30
0.0
 40
8.0
  1
1
 50
85.996508
  7
ROMANS
 72
     1
 11
932051.531588
 21
7289736.028285
 31
0.0
210
0.0
220
0.0
230
1.0
 73
     3
  0
TEXT
  8
11
  6
CONTINUOUS
 62
     7
  5
6A
 10
932059.885
 20
7289740.802
 30
0.0
 40
8.0
  1
0
 50
85.996508
  7
ROMANS
 72
     1
 11
932052.089607
 21
7289744.005069
 31
0.0
210
0.0
220
0.0
230
1.0
 73
     3
  0
TEXT
  8
11
  6
CONTINUOUS
 62
     7
  5
6B
 10
932060.465
 20
7289749.095
 30
0.0
 40
8.0
  1
7
 50
85.996508
  7
ROMANS
 72
     1
 11
932052.647405
 21
7289751.980845
 31
0.0
210
0.0
220
0.0
230
1.0
 73
     3
  0
TEXT
  8
11
  6
CONTINUOUS
 62
     7
  5
6C
 10
932061.095
 20
7289758.082
 30
0.0
 40
8.0
  1
.
 50
85.996508
  7
ROMANS
 72
     1
 11
932053.20682
 21
7289759.959312
 31
0.0
210
0.0
220
0.0
230
1.0
 73
     3
  0
TEXT
  8
11
  6
CONTINUOUS
 62
     7
  5
6D
 10
932061.583
 20
7289765.055
 30
0.0
 40
8.0
  1
8
 50
85.996508
  7
ROMANS
 72
     1
 11
932053.765405
 21
7289767.940845
 31
0.0
210
0.0
220
0.0
230
1.0
 73
     3
  0
TEXT
  8
11
  6
CONTINUOUS
 62
     7
  5
6E
 10
932062.128
 20
7289772.848
 30
0.0
 40
8.0
  1
6
 50
85.996508
  7
ROMANS
 72
     1
 11
932054.323461
 21
7289775.920389
 31
0.0
210
0.0
220
0.0
230
1.0
 73
     3
  0
TEXT
  8
11
  6
CONTINUOUS
 62
     7
  5
6F
 10
932062.771
 20
7289782.024
 30
0.0
 40
8.0
  1
'
 50
85.996508
  7
ROMANS
 72
     1
 11
932054.883588
 21
7289783.912285
 31
0.0
210
0.0
220
0.0
230
1.0
 73
     3
  0
TEXT
  8
11
  6
CONTINUOUS
 62
     7
  5
70
 10
932044.222
 20
7289887.646
 30
0.0
 40
8.0
  1
7
 50
269.892922
  7
ROMANS
 72
     1
 11
932052.217626
 21
7289885.298053
 31
0.0
210
0.0
220
0.0
230
1.0
 73
     3
  0
TEXT
  8
11
  6
CONTINUOUS
 62
     7
  5
71
 10
932044.207
 20
7289879.646
 30
0.0
 40
8.0
  1
8
 50
269.892922
  7
ROMANS
 72
     1
 11
932052.202626
 21
7289877.298053
 31
0.0
210
0.0
220
0.0
230
1.0
 73
     3
  0
TEXT
  8
11
  6
CONTINUOUS
 62
     7
  5
72
 10
932044.189
 20
7289870.639
 30
0.0
 40
8.0
  1
.
 50
269.892922
  7
ROMANS
 72
     1
 11
932052.186515
 21
7289869.302051
 31
0.0
210
0.0
220
0.0
230
1.0
 73
     3
  0
TEXT
  8
11
  6
CONTINUOUS
 62
     7
  5
73
 10
932044.177
 20
7289863.836
 30
0.0
 40
8.0
  1
6
 50
269.892922
  7
ROMANS
 72
     1
 11
932052.172277
 21
7289861.301054
 31
0.0
210
0.0
220
0.0
230
1.0
 73
     3
  0
TEXT
  8
11
  6
CONTINUOUS
 62
     7
  5
74
 10
932044.159
 20
7289854.639
 30
0.0
 40
8.0
  1
'
 50
269.892922
  7
ROMANS
 72
     1
 11
932052.156495
 21
7289853.291051
 31
0.0
210
0.0
220
0.0
230
1.0
 73
     3
  0
TEXT
  8
11
  6
CONTINUOUS
 62
     7
  5
75
 10
932052.589
 20
7289913.074
 30
0.0
 40
8.0
  1
6
 50
85.465353
  7
ROMANS
 72
     1
 11
932052.788236
 21
7289915.586112
 31
0.0
210
0.0
220
0.0
230
1.0
  0
TEXT
  8
11
  6
CONTINUOUS
 62
     7
  5
76
 10
932053.222
 20
7289921.049
 30
0.0
 40
8.0
  1
6
 50
85.465353
  7
ROMANS
 72
     1
 11
932053.421236
 21
7289923.561112
 31
0.0
210
0.0
220
0.0
230
1.0
  0
TEXT
  8
11
  6
CONTINUOUS
 62
     7
  5
77
 10
932053.948
 20
7289930.218
 30
0.0
 40
8.0
  1
.
 50
85.465353
  7
ROMANS
 72
     1
 11
932054.05252
 21
7289931.535862
 31
0.0
210
0.0
220
0.0
230
1.0
  0
TEXT
  8
11
  6
CONTINUOUS
 62
     7
  5
78
 10
932054.487
 20
7289936.998
 30
0.0
 40
8.0
  1
6
 50
85.465353
  7
ROMANS
 72
     1
 11
932054.686236
 21
7289939.510112
 31
0.0
210
0.0
220
0.0
230
1.0
  0
TEXT
  8
11
  6
CONTINUOUS
 62
     7
  5
79
 10
932055.134
 20
7289945.162
 30
0.0
 40
8.0
  1
8
 50
85.465353
  7
ROMANS
 72
     1
 11
932055.318451
 21
7289947.487697
 31
0.0
210
0.0
220
0.0
230
1.0
  0
TEXT
  8
11
  6
CONTINUOUS
 62
     7
  5
7A
 10
932055.846
 20
7289954.142
 30
0.0
 40
8.0
  1
'
 50
85.465353
  7
ROMANS
 72
     1
 11
932055.95139
 21
7289955.470827
 31
0.0
210
0.0
220
0.0
230
1.0
  0
TEXT
  8
11
  6
CONTINUOUS
 62
     7
  5
7B
 10
932057.461
 20
7289974.492
 30
0.0
 40
8.0
  1
7
 50
85.464931
  7
ROMANS
 72
     1
 11
932057.645469
 21
7289976.817696
 31
0.0
210
0.0
220
0.0
230
1.0
  0
TEXT
  8
11
  6
CONTINUOUS
 62
     7
  5
7C
 10
932058.068
 20
7289982.151
 30
0.0
 40
8.0
  1
0
 50
85.464931
  7
ROMANS
 72
     1
 11
932058.277613
 21
7289984.7937
 31
0.0
210
0.0
220
0.0
230
1.0
  0
TEXT
  8
11
  6
CONTINUOUS
 62
     7
  5
7D
 10
932058.804
 20
7289991.445
 30
0.0
 40
8.0
  1
.
 50
85.464931
  7
ROMANS
 72
     1
 11
932058.90853
 21
7289992.762861
 31
0.0
210
0.0
220
0.0
230
1.0
  0
TEXT
  8
11
  6
CONTINUOUS
 62
     7
  5
7E
 10
932059.357
 20
7289998.416
 30
0.0
 40
8.0
  1
5
 50
85.464931
  7
ROMANS
 72
     1
 11
932059.542338
 21
7290000.752661
 31
0.0
210
0.0
220
0.0
230
1.0
  0
TEXT
  8
11
  6
CONTINUOUS
 62
     7
  5
7F
 10
932059.991
 20
7290006.392
 30
0.0
 40
8.0
  1
7
 50
85.464931
  7
ROMANS
 72
     1
 11
932060.175469
 21
7290008.717696
 31
0.0
210
0.0
220
0.0
230
1.0
  0
TEXT
  8
11
  6
CONTINUOUS
 62
     7
  5
80
 10
932060.703
 20
7290015.372
 30
0.0
 40
8.0
  1
'
 50
85.464931
  7
ROMANS
 72
     1
 11
932060.808399
 21
7290016.700827
 31
0.0
210
0.0
220
0.0
230
1.0
  0
TEXT
  8
11
  6
CONTINUOUS
 62
     7
  5
81
 10
932062.877
 20
7290042.791
 30
0.0
 40
8.0
  1
7
 50
85.464931
  7
ROMANS
 72
     1
 11
932063.061469
 21
7290045.116696
 31
0.0
210
0.0
220
0.0
230
1.0
  0
TEXT
  8
11
  6
CONTINUOUS
 62
     7
  5
82
 10
932063.282
 20
7290050.643
 30
0.0
 40
8.0
  1
4
 50
88.050733
  7
ROMANS
 72
     1
 11
932063.361356
 21
7290052.97465
 31
0.0
210
0.0
220
0.0
230
1.0
  0
TEXT
  8
11
  6
CONTINUOUS
 62
     7
  5
83
 10
932063.587
 20
7290059.646
 30
0.0
 40
8.0
  1
.
 50
88.050733
  7
ROMANS
 72
     1
 11
932063.631967
 21
7290060.967235
 31
0.0
210
0.0
220
0.0
230
1.0
  0
TEXT
  8
11
  6
CONTINUOUS
 62
     7
  5
84
 10
932063.825
 20
7290066.633
 30
0.0
 40
8.0
  1
7
 50
88.050733
  7
ROMANS
 72
     1
 11
932063.904356
 21
7290068.96465
 31
0.0
210
0.0
220
0.0
230
1.0
  0
TEXT
  8
11
  6
CONTINUOUS
 62
     7
  5
85
 10
932064.133
 20
7290075.636
 30
0.0
 40
8.0
  1
1
 50
88.050733
  7
ROMANS
 72
     1
 11
932064.178341
 21
7290076.968229
 31
0.0
210
0.0
220
0.0
230
1.0
  0
TEXT
  8
11
  6
CONTINUOUS
 62
     7
  5
86
 10
932064.405
 20
7290083.632
 30
0.0
 40
8.0
  1
'
 50
88.050733
  7
ROMANS
 72
     1
 11
932064.450341
 21
7290084.964229
 31
0.0
210
0.0
220
0.0
230
1.0
  0
TEXT
  8
11
  6
CONTINUOUS
 62
     7
  5
87
 10
932067.487
 20
7290168.175
 30
0.0
 40
8.0
  1
1
 50
87.803408
  7
ROMANS
 72
     1
 11
932067.538092
 21
7290169.507021
 31
0.0
210
0.0
220
0.0
230
1.0
  0
TEXT
  8
11
  6
CONTINUOUS
 62
     7
  5
88
 10
932067.755
 20
7290175.161
 30
0.0
 40
8.0
  1
4
 50
87.803408
  7
ROMANS
 72
     1
 11
932067.84442
 21
7290177.492286
 31
0.0
210
0.0
220
0.0
230
1.0
  0
TEXT
  8
11
  6
CONTINUOUS
 62
     7
  5
89
 10
932068.062
 20
7290183.156
 30
0.0
 40
8.0
  1
5
 50
87.803408
  7
ROMANS
 72
     1
 11
932068.151842
 21
7290185.498278
 31
0.0
210
0.0
220
0.0
230
1.0
  0
TEXT
  8
11
  6
CONTINUOUS
 62
     7
  5
8A
 10
932068.409
 20
7290192.156
 30
0.0
 40
8.0
  1
.
 50
87.803408
  7
ROMANS
 72
     1
 11
932068.45967
 21
7290193.477029
 31
0.0
210
0.0
220
0.0
230
1.0
  0
TEXT
  8
11
  6
CONTINUOUS
 62
     7
  5
8B
 10
932068.677
 20
7290199.144
 30
0.0
 40
8.0
  1
2
 50
87.803408
  7
ROMANS
 72
     1
 11
932068.76642
 21
7290201.475286
 31
0.0
210
0.0
220
0.0
230
1.0
  0
TEXT
  8
11
  6
CONTINUOUS
 62
     7
  5
8C
 10
932069.021
 20
7290208.145
 30
0.0
 40
8.0
  1
'
 50
87.803408
  7
ROMANS
 72
     1
 11
932069.072092
 21
7290209.477021
 31
0.0
210
0.0
220
0.0
230
1.0
  0
TEXT
  8
11
  6
CONTINUOUS
 62
     7
  5
8D
 10
932064.781
 20
7290315.225
 30
0.0
 40
8.0
  1
5
 50
268.198
  7
ROMANS
 72
     1
 11
932072.703335
 21
7290312.630594
 31
0.0
210
0.0
220
0.0
230
1.0
 73
     3
  0
TEXT
  8
11
  6
CONTINUOUS
 62
     7
  5
8E
 10
932064.53
 20
7290307.228
 30
0.0
 40
8.0
  1
9
 50
268.198
  7
ROMANS
 72
     1
 11
932072.452681
 21
7290304.644589
 31
0.0
210
0.0
220
0.0
230
1.0
 73
     3
  0
TEXT
  8
11
  6
CONTINUOUS
 62
     7
  5
8F
 10
932064.246
 20
7290298.225
 30
0.0
 40
8.0
  1
.
 50
268.198
  7
ROMANS
 72
     1
 11
932072.200473
 21
7290296.652089
 31
0.0
210
0.0
220
0.0
230
1.0
 73
     3
  0
TEXT
  8
11
  6
CONTINUOUS
 62
     7
  5
90
 10
932064.027
 20
7290291.236
 30
0.0
 40
8.0
  1
3
 50
268.198
  7
ROMANS
 72
     1
 11
932071.949681
 21
7290288.652589
 31
0.0
210
0.0
220
0.0
230
1.0
 73
     3
  0
TEXT
  8
11
  6
CONTINUOUS
 62
     7
  5
91
 10
932063.744
 20
7290282.233
 30
0.0
 40
8.0
  1
'
 50
268.198
  7
ROMANS
 72
     1
 11
932071.698127
 21
7290280.649094
 31
0.0
210
0.0
220
0.0
230
1.0
 73
     3
  0
TEXT
  8
11
  6
CONTINUOUS
 62
     7
  5
92
 10
931950.856
 20
7290642.774
 30
0.0
 40
8.0
  1
230'
 50
46.109714
  7
ROMANS
210
0.0
220
0.0
230
1.0
  0
TEXT
  8
11
  6
CONTINUOUS
 62
     7
  5
93
 10
932018.373
 20
7290802.958
 30
0.0
 40
8.0
  1
100'
 50
45.808094
  7
ROMANS
210
0.0
220
0.0
230
1.0
  0
TEXT
  8
11
  6
CONTINUOUS
 62
     7
  5
94
 10
930693.002
 20
7291720.49
 30
0.0
 40
8.0
  1
100'
 50
45.808094
  7
ROMANS
210
0.0
220
0.0
230
1.0
  0
TEXT
  8
11
  6
CONTINUOUS
 62
     7
  5
95
 10
930633.165
 20
7291557.47
 30
0.0
 40
8.0
  1
230'
 50
46.109714
  7
ROMANS
210
0.0
220
0.0
230
1.0
  0
TEXT
  8
11
  6
CONTINUOUS
 62
     7
  5
96
 10
928874.818
 20
7292786.613
 30
0.0
 40
8.0
  1
230'
 50
46.109714
  7
ROMANS
210
0.0
220
0.0
230
1.0
  0
TEXT
  8
11
  6
CONTINUOUS
 62
     7
  5
97
 10
929008.043
 20
7292895.5
 30
0.0
 40
8.0
  1
100'
 50
45.808094
  7
ROMANS
210
0.0
220
0.0
230
1.0
  0
TEXT
  8
11
  6
CONTINUOUS
 62
     7
  5
98
 10
927138.157
 20
7294200.706
 30
0.0
 40
8.0
  1
100'
 50
45.808094
  7
ROMANS
210
0.0
220
0.0
230
1.0
  0
TEXT
  8
11
  6
CONTINUOUS
 62
     7
  5
99
 10
927139.847
 20
7293936.484
 30
0.0
 40
8.0
  1
230'
 50
46.109714
  7
ROMANS
210
0.0
220
0.0
230
1.0
  0
TEXT
  8
11
  6
CONTINUOUS
 62
     7
  5
9A
 10
930769.267
 20
7290975.207
 30
0.0
 40
8.0
  1
5
 50
55.1586
  7
ROMANS
 72
     1
 11
930770.606143
 21
7290977.130807
 31
0.0
210
0.0
220
0.0
230
1.0
  0
TEXT
  8
11
  6
CONTINUOUS
 62
     7
  5
9B
 10
930773.658
 20
7290981.515
 30
0.0
 40
8.0
  1
0
 50
55.1586
  7
ROMANS
 72
     1
 11
930775.172534
 21
7290983.690773
 31
0.0
210
0.0
220
0.0
230
1.0
  0
TEXT
  8
11
  6
CONTINUOUS
 62
     7
  5
9C
 10
930778.228
 20
7290988.081
 30
0.0
 40
8.0
  1
0
 50
55.1586
  7
ROMANS
 72
     1
 11
930779.742534
 21
7290990.256773
 31
0.0
210
0.0
220
0.0
230
1.0
  0
TEXT
  8
11
  6
CONTINUOUS
 62
     7
  5
9D
 10
930783.555
 20
7290995.734
 30
0.0
 40
8.0
  1
'
 50
55.1586
  7
ROMANS
 72
     1
 11
930784.316552
 21
7290996.828042
 31
0.0
210
0.0
220
0.0
230
1.0
  0
TEXT
  8
11
  6
CONTINUOUS
 62
     7
  5
9E
 10
930786.614
 20
7291000.128
 30
0.0
 40
8.0
  1
 
 50
55.1586
  7
ROMANS
 72
     1
 11
930788.137104
 21
7291002.316084
 31
0.0
210
0.0
220
0.0
230
1.0
  0
TEXT
  8
11
  6
CONTINUOUS
 62
     7
  5
9F
 10
930791.185
 20
7291006.693
 30
0.0
 40
8.0
  1
 
 50
55.1586
  7
ROMANS
 72
     1
 11
930792.708104
 21
7291008.881084
 31
0.0
210
0.0
220
0.0
230
1.0
  0
TEXT
  8
11
  6
CONTINUOUS
 62
     7
  5
A0
 10
930795.754
 20
7291013.259
 30
0.0
 40
8.0
  1
 
 50
55.1586
  7
ROMANS
 72
     1
 11
930797.277104
 21
7291015.447084
 31
0.0
210
0.0
220
0.0
230
1.0
  0
TEXT
  8
11
  6
CONTINUOUS
 62
     7
  5
A1
 10
930800.324
 20
7291019.825
 30
0.0
 40
8.0
  1
 
 50
55.1586
  7
ROMANS
 72
     1
 11
930801.847104
 21
7291022.013084
 31
0.0
210
0.0
220
0.0
230
1.0
  0
TEXT
  8
11
  6
CONTINUOUS
 62
     7
  5
A2
 10
930805.723
 20
7291027.58
 30
0.0
 40
8.0
  1
N
 50
55.1586
  7
ROMANS
 72
     1
 11
930807.162693
 21
7291029.648256
 31
0.0
210
0.0
220
0.0
230
1.0
  0
TEXT
  8
11
  6
CONTINUOUS
 62
     7
  5
A3
 10
930810.402
 20
7291034.301
 30
0.0
 40
8.0
  1
3
 50
55.1586
  7
ROMANS
 72
     1
 11
930811.734859
 21
7291036.215779
 31
0.0
210
0.0
220
0.0
230
1.0
  0
TEXT
  8
11
  6
CONTINUOUS
 62
     7
  5
A4
 10
930814.972
 20
7291040.866
 30
0.0
 40
8.0
  1
3
 50
55.1586
  7
ROMANS
 72
     1
 11
930816.304859
 21
7291042.780779
 31
0.0
210
0.0
220
0.0
230
1.0
  0
TEXT
  8
11
  6
CONTINUOUS
 62
     7
  5
A5
 10
930820.047
 20
7291048.156
 30
0.0
 40
8.0
  1
%%d
 50
55.1586
  7
ROMANS
 72
     1
 11
930820.867968
 21
7291049.335399
 31
0.0
210
0.0
220
0.0
230
1.0
  0
TEXT
  8
11
  6
CONTINUOUS
 62
     7
  5
A6
 10
930824.113
 20
7291053.999
 30
0.0
 40
8.0
  1
2
 50
55.1586
  7
ROMANS
 72
     1
 11
930825.445859
 21
7291055.913779
 31
0.0
210
0.0
220
0.0
230
1.0
  0
TEXT
  8
11
  6
CONTINUOUS
 62
     7
  5
A7
 10
930829.259
 20
7291061.391
 30
0.0
 40
8.0
  1
'
 50
55.1586
  7
ROMANS
 72
     1
 11
930830.020552
 21
7291062.485042
 31
0.0
210
0.0
220
0.0
230
1.0
  0
TEXT
  8
11
  6
CONTINUOUS
 62
     7
  5
A8
 10
930833.165
 20
7291067.0
 30
0.0
 40
8.0
  1
E
 50
55.1586
  7
ROMANS
 72
     1
 11
930834.593267
 21
7291069.051842
 31
0.0
210
0.0
220
0.0
230
1.0
  0
TEXT
  8
11
  6
CONTINUOUS
 62
     7
  5
A9
 10
930946.085
 20
7290900.428
 30
0.0
 40
8.0
  1
5
 50
55.084122
  7
ROMANS
 72
     1
 11
930940.866696
 21
7290906.929049
 31
0.0
210
0.0
220
0.0
230
1.0
 73
     3
  0
TEXT
  8
11
  6
CONTINUOUS
 62
     7
  5
AA
 10
930950.483
 20
7290906.729
 30
0.0
 40
8.0
  1
0
 50
55.084122
  7
ROMANS
 72
     1
 11
930945.440415
 21
7290913.481787
 31
0.0
210
0.0
220
0.0
230
1.0
 73
     3
  0
TEXT
  8
11
  6
CONTINUOUS
 62
     7
  5
AB
 10
930955.063
 20
7290913.288
 30
0.0
 40
8.0
  1
0
 50
55.084122
  7
ROMANS
 72
     1
 11
930950.020415
 21
7290920.040787
 31
0.0
210
0.0
220
0.0
230
1.0
 73
     3
  0
TEXT
  8
11
  6
CONTINUOUS
 62
     7
  5
AC
 10
930960.399
 20
7290920.934
 30
0.0
 40
8.0
  1
'
 50
55.084122
  7
ROMANS
 72
     1
 11
930954.602027
 21
7290926.606036
 31
0.0
210
0.0
220
0.0
230
1.0
 73
     3
  0
TEXT
  8
11
  6
CONTINUOUS
 62
     7
  5
AD
 10
930957.232
 20
7290940.856
 30
0.0
 40
8.0
  1
4
 50
55.084122
  7
ROMANS
 72
     1
 11
930958.567347
 21
7290942.769044
 31
0.0
210
0.0
220
0.0
230
1.0
  0
TEXT
  8
11
  6
CONTINUOUS
 62
     7
  5
AE
 10
930961.703
 20
7290947.259
 30
0.0
 40
8.0
  1
6
 50
55.084122
  7
ROMANS
 72
     1
 11
930963.14538
 21
7290949.325383
 31
0.0
210
0.0
220
0.0
230
1.0
  0
TEXT
  8
11
  6
CONTINUOUS
 62
     7
  5
AF
 10
930966.39
 20
7290953.975
 30
0.0
 40
8.0
  1
2
 50
55.084122
  7
ROMANS
 72
     1
 11
930967.725347
 21
7290955.888044
 31
0.0
210
0.0
220
0.0
230
1.0
  0
TEXT
  8
11
  6
CONTINUOUS
 62
     7
  5
B0
 10
930971.545
 20
7290961.362
 30
0.0
 40
8.0
  1
.
 50
55.084122
  7
ROMANS
 72
     1
 11
930972.301677
 21
7290962.446031
 31
0.0
210
0.0
220
0.0
230
1.0
  0
TEXT
  8
11
  6
CONTINUOUS
 62
     7
  5
B1
 10
930975.549
 20
7290967.095
 30
0.0
 40
8.0
  1
5
 50
55.084122
  7
ROMANS
 72
     1
 11
930976.890643
 21
7290969.017064
 31
0.0
210
0.0
220
0.0
230
1.0
  0
TEXT
  8
11
  6
CONTINUOUS
 62
     7
  5
B2
 10
930980.703
 20
7290974.481
 30
0.0
 40
8.0
  1
'
 50
55.084122
  7
ROMANS
 72
     1
 11
930981.465973
 21
7290975.574051
 31
0.0
210
0.0
220
0.0
230
1.0
  0
TEXT
  8
11
  6
CONTINUOUS
 62
     7
  5
B3
 10
930984.932
 20
7291181.268
 30
0.0
 40
8.0
  1
1
 50
325.084164
  7
ROMANS
 72
     1
 11
930990.604032
 21
7291187.064977
 31
0.0
210
0.0
220
0.0
230
1.0
 73
     3
  0
TEXT
  8
11
  6
CONTINUOUS
 62
     7
  5
B4
 10
930990.667
 20
7291177.268
 30
0.0
 40
8.0
  1
7
 50
325.084164
  7
ROMANS
 72
     1
 11
930997.159026
 21
7291182.492605
 31
0.0
210
0.0
220
0.0
230
1.0
 73
     3
  0
TEXT
  8
11
  6
CONTINUOUS
 62
     7
  5
B5
 10
930997.228
 20
7291172.688
 30
0.0
 40
8.0
  1
4
 50
325.084164
  7
ROMANS
 72
     1
 11
931003.720026
 21
7291177.912605
 31
0.0
210
0.0
220
0.0
230
1.0
 73
     3
  0
TEXT
  8
11
  6
CONTINUOUS
 62
     7
  5
B6
 10
931004.612
 20
7291167.532
 30
0.0
 40
8.0
  1
.
 50
325.084164
  7
ROMANS
 72
     1
 11
931010.275012
 21
7291173.335273
 31
0.0
210
0.0
220
0.0
230
1.0
 73
     3
  0
TEXT
  8
11
  6
CONTINUOUS
 62
     7
  5
B7
 10
931010.346
 20
7291163.531
 30
0.0
 40
8.0
  1
2
 50
325.084164
  7
ROMANS
 72
     1
 11
931016.838026
 21
7291168.755605
 31
0.0
210
0.0
220
0.0
230
1.0
 73
     3
  0
TEXT
  8
11
  6
CONTINUOUS
 62
     7
  5
B8
 10
931016.906
 20
7291158.952
 30
0.0
 40
8.0
  1
4
 50
325.084164
  7
ROMANS
 72
     1
 11
931023.398026
 21
7291164.176605
 31
0.0
210
0.0
220
0.0
230
1.0
 73
     3
  0
TEXT
  8
11
  6
CONTINUOUS
 62
     7
  5
B9
 10
931024.292
 20
7291153.796
 30
0.0
 40
8.0
  1
'
 50
325.084164
  7
ROMANS
 72
     1
 11
931029.964032
 21
7291159.592977
 31
0.0
210
0.0
220
0.0
230
1.0
 73
     3
  0
TEXT
  8
11
  6
CONTINUOUS
 62
     7
  5
BA
 10
930723.505
 20
7290816.976
 30
0.0
 40
8.0
  1
1
 50
325.158561
  7
ROMANS
 72
     1
 11
930724.599041
 21
7290816.214447
 31
0.0
210
0.0
220
0.0
230
1.0
  0
TEXT
  8
11
  6
CONTINUOUS
 62
     7
  5
BB
 10
930729.244
 20
7290812.981
 30
0.0
 40
8.0
  1
7
 50
325.158561
  7
ROMANS
 72
     1
 11
930731.158778
 21
7290811.64814
 31
0.0
210
0.0
220
0.0
230
1.0
  0
TEXT
  8
11
  6
CONTINUOUS
 62
     7
  5
BC
 10
930735.811
 20
7290808.41
 30
0.0
 40
8.0
  1
4
 50
325.158561
  7
ROMANS
 72
     1
 11
930737.725778
 21
7290807.07714
 31
0.0
210
0.0
220
0.0
230
1.0
  0
TEXT
  8
11
  6
CONTINUOUS
 62
     7
  5
BD
 10
930743.204
 20
7290803.263
 30
0.0
 40
8.0
  1
.
 50
325.158561
  7
ROMANS
 72
     1
 11
930744.289013
 21
7290802.507732
 31
0.0
210
0.0
220
0.0
230
1.0
  0
TEXT
  8
11
  6
CONTINUOUS
 62
     7
  5
BE
 10
930748.943
 20
7290799.271
 30
0.0
 40
8.0
  1
2
 50
325.158561
  7
ROMANS
 72
     1
 11
930750.857778
 21
7290797.93814
 31
0.0
210
0.0
220
0.0
230
1.0
  0
TEXT
  8
11
  6
CONTINUOUS
 62
     7
  5
BF
 10
930755.508
 20
7290794.699
 30
0.0
 40
8.0
  1
4
 50
325.158561
  7
ROMANS
 72
     1
 11
930757.422778
 21
7290793.36614
 31
0.0
210
0.0
220
0.0
230
1.0
  0
TEXT
  8
11
  6
CONTINUOUS
 62
     7
  5
C0
 10
930762.901
 20
7290789.553
 30
0.0
 40
8.0
  1
'
 50
325.158561
  7
ROMANS
 72
     1
 11
930763.995041
 21
7290788.791447
 31
0.0
210
0.0
220
0.0
230
1.0
  0
TEXT
  8
11
  6
CONTINUOUS
 62
     7
  5
C1
 10
930697.76
 20
7290772.149
 30
0.0
 40
8.0
  1
1
 50
325.158561
  7
ROMANS
 72
     1
 11
930703.4245
 21
7290777.953337
 31
0.0
210
0.0
220
0.0
230
1.0
 73
     3
  0
TEXT
  8
11
  6
CONTINUOUS
 62
     7
  5
C2
 10
930703.497
 20
7290768.154
 30
0.0
 40
8.0
  1
7
 50
325.158561
  7
ROMANS
 72
     1
 11
930709.982236
 21
7290773.38703
 31
0.0
210
0.0
220
0.0
230
1.0
 73
     3
  0
TEXT
  8
11
  6
CONTINUOUS
 62
     7
  5
C3
 10
930710.063
 20
7290763.583
 30
0.0
 40
8.0
  1
4
 50
325.158561
  7
ROMANS
 72
     1
 11
930716.548236
 21
7290768.81603
 31
0.0
210
0.0
220
0.0
230
1.0
 73
     3
  0
TEXT
  8
11
  6
CONTINUOUS
 62
     7
  5
C4
 10
930717.457
 20
7290758.437
 30
0.0
 40
8.0
  1
.
 50
325.158561
  7
ROMANS
 72
     1
 11
930723.112472
 21
7290764.247622
 31
0.0
210
0.0
220
0.0
230
1.0
 73
     3
  0
TEXT
  8
11
  6
CONTINUOUS
 62
     7
  5
C5
 10
930723.196
 20
7290754.444
 30
0.0
 40
8.0
  1
2
 50
325.158561
  7
ROMANS
 72
     1
 11
930729.681236
 21
7290759.67703
 31
0.0
210
0.0
220
0.0
230
1.0
 73
     3
  0
TEXT
  8
11
  6
CONTINUOUS
 62
     7
  5
C6
 10
930729.761
 20
7290749.873
 30
0.0
 40
8.0
  1
4
 50
325.158561
  7
ROMANS
 72
     1
 11
930736.246236
 21
7290755.10603
 31
0.0
210
0.0
220
0.0
230
1.0
 73
     3
  0
TEXT
  8
11
  6
CONTINUOUS
 62
     7
  5
C7
 10
930810.507
 20
7290706.194
 30
0.0
 40
8.0
  1
3
 50
55.084122
  7
ROMANS
 72
     1
 11
930805.2824
 21
7290712.686029
 31
0.0
210
0.0
220
0.0
230
1.0
 73
     3
  0
TEXT
  8
11
  6
CONTINUOUS
 62
     7
  5
C8
 10
930815.086
 20
7290712.755
 30
0.0
 40
8.0
  1
7
 50
55.084122
  7
ROMANS
 72
     1
 11
930809.8614
 21
7290719.247029
 31
0.0
210
0.0
220
0.0
230
1.0
 73
     3
  0
TEXT
  8
11
  6
CONTINUOUS
 62
     7
  5
C9
 10
930820.242
 20
7290720.141
 30
0.0
 40
8.0
  1
.
 50
55.084122
  7
ROMANS
 72
     1
 11
930814.438731
 21
7290725.804016
 31
0.0
210
0.0
220
0.0
230
1.0
 73
     3
  0
TEXT
  8
11
  6
CONTINUOUS
 62
     7
  5
CA
 10
930824.244
 20
7290725.875
 30
0.0
 40
8.0
  1
5
 50
55.084122
  7
ROMANS
 72
     1
 11
930819.025696
 21
7290732.376049
 31
0.0
210
0.0
220
0.0
230
1.0
 73
     3
  0
TEXT
  8
11
  6
CONTINUOUS
 62
     7
  5
CB
 10
930829.4
 20
7290733.261
 30
0.0
 40
8.0
  1
'
 50
55.084122
  7
ROMANS
 72
     1
 11
930823.603027
 21
7290738.933036
 31
0.0
210
0.0
220
0.0
230
1.0
 73
     3
  0
TEXT
  8
11
  6
CONTINUOUS
 62
     7
  5
CC
 10
931652.882
 20
7291140.839
 30
0.0
 40
8.0
  1
9
 50
325.084161
  7
ROMANS
 72
     1
 11
931654.795045
 21
7291139.503655
 31
0.0
210
0.0
220
0.0
230
1.0
  0
TEXT
  8
11
  6
CONTINUOUS
 62
     7
  5
CD
 10
931660.269
 20
7291135.684
 30
0.0
 40
8.0
  1
1
 50
325.084161
  7
ROMANS
 72
     1
 11
931661.362052
 21
7291134.921027
 31
0.0
210
0.0
220
0.0
230
1.0
  0
TEXT
  8
11
  6
CONTINUOUS
 62
     7
  5
CE
 10
931666.828
 20
7291131.105
 30
0.0
 40
8.0
  1
1
 50
325.084161
  7
ROMANS
 72
     1
 11
931667.921052
 21
7291130.342027
 31
0.0
210
0.0
220
0.0
230
1.0
  0
TEXT
  8
11
  6
CONTINUOUS
 62
     7
  5
CF
 10
931673.389
 20
7291126.526
 30
0.0
 40
8.0
  1
.
 50
325.084161
  7
ROMANS
 72
     1
 11
931674.473032
 21
7291125.769323
 31
0.0
210
0.0
220
0.0
230
1.0
  0
TEXT
  8
11
  6
CONTINUOUS
 62
     7
  5
D0
 10
931679.123
 20
7291122.524
 30
0.0
 40
8.0
  1
2
 50
325.084161
  7
ROMANS
 72
     1
 11
931681.036045
 21
7291121.188655
 31
0.0
210
0.0
220
0.0
230
1.0
  0
TEXT
  8
11
  6
CONTINUOUS
 62
     7
  5
D1
 10
931685.681
 20
7291117.945
 30
0.0
 40
8.0
  1
2
 50
325.084161
  7
ROMANS
 72
     1
 11
931687.594045
 21
7291116.609655
 31
0.0
210
0.0
220
0.0
230
1.0
  0
TEXT
  8
11
  6
CONTINUOUS
 62
     7
  5
D2
 10
931693.067
 20
7291112.789
 30
0.0
 40
8.0
  1
'
 50
325.084161
  7
ROMANS
 72
     1
 11
931694.160052
 21
7291112.026027
 31
0.0
210
0.0
220
0.0
230
1.0
  0
TEXT
  8
11
  6
CONTINUOUS
 62
     7
  5
D3
 10
931697.459
 20
7291109.725
 30
0.0
 40
8.0
  1
 
 50
325.084161
  7
ROMANS
 72
     1
 11
931699.645103
 21
7291108.199055
 31
0.0
210
0.0
220
0.0
230
1.0
  0
TEXT
  8
11
  6
CONTINUOUS
 62
     7
  5
D4
 10
931704.018
 20
7291105.146
 30
0.0
 40
8.0
  1
 
 50
325.084161
  7
ROMANS
 72
     1
 11
931706.204103
 21
7291103.620055
 31
0.0
210
0.0
220
0.0
230
1.0
  0
TEXT
  8
11
  6
CONTINUOUS
 62
     7
  5
D5
 10
931710.579
 20
7291100.565
 30
0.0
 40
8.0
  1
 
 50
325.084161
  7
ROMANS
 72
     1
 11
931712.765103
 21
7291099.039055
 31
0.0
210
0.0
220
0.0
230
1.0
  0
TEXT
  8
11
  6
CONTINUOUS
 62
     7
  5
D6
 10
931717.139
 20
7291095.988
 30
0.0
 40
8.0
  1
 
 50
325.084161
  7
ROMANS
 72
     1
 11
931719.325103
 21
7291094.462055
 31
0.0
210
0.0
220
0.0
230
1.0
  0
TEXT
  8
11
  6
CONTINUOUS
 62
     7
  5
D7
 10
931723.698
 20
7291091.408
 30
0.0
 40
8.0
  1
 
 50
325.084161
  7
ROMANS
 72
     1
 11
931725.884103
 21
7291089.882055
 31
0.0
210
0.0
220
0.0
230
1.0
  0
TEXT
  8
11
  6
CONTINUOUS
 62
     7
  5
D8
 10
931731.446
 20
7291086.0
 30
0.0
 40
8.0
  1
N
 50
325.084161
  7
ROMANS
 72
     1
 11
931733.512384
 21
7291084.557621
 31
0.0
210
0.0
220
0.0
230
1.0
  0
TEXT
  8
11
  6
CONTINUOUS
 62
     7
  5
D9
 10
931738.161
 20
7291081.312
 30
0.0
 40
8.0
  1
5
 50
325.084161
  7
ROMANS
 72
     1
 11
931740.083065
 21
7291079.970359
 31
0.0
210
0.0
220
0.0
230
1.0
  0
TEXT
  8
11
  6
CONTINUOUS
 62
     7
  5
DA
 10
931744.567
 20
7291076.842
 30
0.0
 40
8.0
  1
6
 50
325.084161
  7
ROMANS
 72
     1
 11
931746.633384
 21
7291075.399621
 31
0.0
210
0.0
220
0.0
230
1.0
  0
TEXT
  8
11
  6
CONTINUOUS
 62
     7
  5
DB
 10
931752.003
 20
7291071.65
 30
0.0
 40
8.0
  1
%%d
 50
325.084161
  7
ROMANS
 72
     1
 11
931753.181331
 21
7291070.827501
 31
0.0
210
0.0
220
0.0
230
1.0
  0
TEXT
  8
11
  6
CONTINUOUS
 62
     7
  5
DC
 10
931757.841
 20
7291067.575
 30
0.0
 40
8.0
  1
5
 50
325.084161
  7
ROMANS
 72
     1
 11
931759.763065
 21
7291066.233359
 31
0.0
210
0.0
220
0.0
230
1.0
  0
TEXT
  8
11
  6
CONTINUOUS
 62
     7
  5
DD
 10
931764.401
 20
7291062.997
 30
0.0
 40
8.0
  1
4
 50
325.084161
  7
ROMANS
 72
     1
 11
931766.314045
 21
7291061.661655
 31
0.0
210
0.0
220
0.0
230
1.0
  0
TEXT
  8
11
  6
CONTINUOUS
 62
     7
  5
DE
 10
931771.787
 20
7291057.841
 30
0.0
 40
8.0
  1
'
 50
325.084161
  7
ROMANS
 72
     1
 11
931772.880052
 21
7291057.078027
 31
0.0
210
0.0
220
0.0
230
1.0
  0
TEXT
  8
11
  6
CONTINUOUS
 62
     7
  5
DF
 10
931777.52
 20
7291053.839
 30
0.0
 40
8.0
  1
2
 50
325.084161
  7
ROMANS
 72
     1
 11
931779.433045
 21
7291052.503655
 31
0.0
210
0.0
220
0.0
230
1.0
  0
TEXT
  8
11
  6
CONTINUOUS
 62
     7
  5
E0
 10
931784.081
 20
7291049.26
 30
0.0
 40
8.0
  1
5
 50
325.084161
  7
ROMANS
 72
     1
 11
931786.003065
 21
7291047.918359
 31
0.0
210
0.0
220
0.0
230
1.0
  0
TEXT
  8
11
  6
CONTINUOUS
 62
     7
  5
E1
 10
931790.434
 20
7291044.825
 30
0.0
 40
8.0
  1
"
 50
325.084161
  7
ROMANS
 72
     1
 11
931792.552044
 21
7291043.346562
 31
0.0
210
0.0
220
0.0
230
1.0
  0
TEXT
  8
11
  6
CONTINUOUS
 62
     7
  5
E2
 10
931796.761
 20
7291040.407
 30
0.0
 40
8.0
  1
W
 50
325.084161
  7
ROMANS
 72
     1
 11
931799.109462
 21
7291038.767725
 31
0.0
210
0.0
220
0.0
230
1.0
  0
TEXT
  8
11
  6
CONTINUOUS
 62
     7
  5
E3
 10
931043.268
 20
7291566.362
 30
0.0
 40
8.0
  1
7
 50
325.084122
  7
ROMANS
 72
     1
 11
931045.181044
 21
7291565.026653
 31
0.0
210
0.0
220
0.0
230
1.0
  0
TEXT
  8
11
  6
CONTINUOUS
 62
     7
  5
E4
 10
931049.829
 20
7291561.783
 30
0.0
 40
8.0
  1
9
 50
325.084122
  7
ROMANS
 72
     1
 11
931051.742044
 21
7291560.447653
 31
0.0
210
0.0
220
0.0
230
1.0
  0
TEXT
  8
11
  6
CONTINUOUS
 62
     7
  5
E5
 10
931056.389
 20
7291557.204
 30
0.0
 40
8.0
  1
3
 50
325.084122
  7
ROMANS
 72
     1
 11
931058.302044
 21
7291555.868653
 31
0.0
210
0.0
220
0.0
230
1.0
  0
TEXT
  8
11
  6
CONTINUOUS
 62
     7
  5
E6
 10
931063.775
 20
7291552.049
 30
0.0
 40
8.0
  1
.
 50
325.084122
  7
ROMANS
 72
     1
 11
931064.859031
 21
7291551.292323
 31
0.0
210
0.0
220
0.0
230
1.0
  0
TEXT
  8
11
  6
CONTINUOUS
 62
     7
  5
E7
 10
931069.508
 20
7291548.046
 30
0.0
 40
8.0
  1
9
 50
325.084122
  7
ROMANS
 72
     1
 11
931071.421044
 21
7291546.710653
 31
0.0
210
0.0
220
0.0
230
1.0
  0
TEXT
  8
11
  6
CONTINUOUS
 62
     7
  5
E8
 10
931076.069
 20
7291543.468
 30
0.0
 40
8.0
  1
5
 50
325.084122
  7
ROMANS
 72
     1
 11
931077.991064
 21
7291542.126357
 31
0.0
210
0.0
220
0.0
230
1.0
  0
TEXT
  8
11
  6
CONTINUOUS
 62
     7
  5
E9
 10
931083.455
 20
7291538.312
 30
0.0
 40
8.0
  1
'
 50
325.084122
  7
ROMANS
 72
     1
 11
931084.548051
 21
7291537.549027
 31
0.0
210
0.0
220
0.0
230
1.0
  0
TEXT
  8
11
  6
CONTINUOUS
 62
     7
  5
EA
 10
931735.142
 20
7291325.539
 30
0.0
 40
8.0
  1
763.40'
 50
358.198
  7
ROMANS
210
0.0
220
0.0
230
1.0
  0
TEXT
  8
11
  6
CONTINUOUS
 62
     7
  5
EB
 10
932110.319
 20
7290835.096
 30
0.0
 40
8.0
  1
55'
 50
358.198
  7
ROMANS
210
0.0
220
0.0
230
1.0
  0
TEXT
  8
11
  6
CONTINUOUS
 62
     7
  5
EC
 10
932125.526
 20
7291263.288
 30
0.0
 40
8.0
  1
55'
 50
358.198
  7
ROMANS
210
0.0
220
0.0
230
1.0
  0
TEXT
  8
11
  6
CONTINUOUS
 62
     7
  5
ED
 10
931040.244
 20
7291782.882
 30
0.0
 40
8.0
  1
675.70'
 50
358.198
  7
ROMANS
210
0.0
220
0.0
230
1.0
  0
TEXT
  8
11
  6
CONTINUOUS
 62
     7
  5
EE
 10
932101.122
 20
7291071.916
 30
0.0
 40
8.0
  1
497.92'
 50
88.198
  7
ROMANS
210
0.0
220
0.0
230
1.0
  0
TEXT
  8
11
  6
CONTINUOUS
 62
     7
  5
EF
 10
931353.312
 20
7291557.134
 30
0.0
 40
8.0
  1
433.57'
 50
88.198
  7
ROMANS
210
0.0
220
0.0
230
1.0
  0
TEXT
  8
11
  6
CONTINUOUS
 62
     7
  5
F0
 10
932135.78
 20
7291787.662
 30
0.0
 40
8.0
  1
60'
 50
88.198
  7
ROMANS
210
0.0
220
0.0
230
1.0
  0
TEXT
  8
11
  6
CONTINUOUS
 62
     7
  5
F1
 10
931385.479
 20
7291807.796
 30
0.0
 40
8.0
  1
60'
 50
88.198
  7
ROMANS
210
0.0
220
0.0
230
1.0
  0
TEXT
  8
11
  6
CONTINUOUS
 62
     7
  5
F2
 10
931343.57
 20
7291798.7
 30
0.0
 40
8.0
  1
67.5'
 50
88.198
  7
ROMANS
210
0.0
220
0.0
230
1.0
  0
TEXT
  8
11
  6
CONTINUOUS
 62
     7
  5
F3
 10
930709.513
 20
7291820.384
 30
0.0
 40
8.0
  1
67.5'
 50
88.198
  7
ROMANS
210
0.0
220
0.0
230
1.0
  0
TEXT
  8
15
  6
CONTINUOUS
 62
    30
  5
F4
 10
931022.973
 20
7291680.586
 30
0.0
 40
30.0
  1
T.C.I.
 50
28.198
  7
ROMANC
 72
     4
 11
931067.200935
 21
7291721.318749
 31
0.0
210
0.0
220
0.0
230
1.0
  0
TEXT
  8
15
  6
CONTINUOUS
 62
    30
  5
F5
 10
931087.06
 20
7291652.54
 30
0.0
 40
30.0
  1
 
 50
28.198
  7
ROMANC
 72
     4
 11
931088.785399
 21
7291670.484999
 31
0.0
210
0.0
220
0.0
230
1.0
  0
TEXT
  8
15
  6
CONTINUOUS
 62
    30
  5
F6
 10
931119.18
 20
7291624.375
 30
0.0
 40
30.0
  1
CHURCHRISES
 50
28.198
  7
ROMANC
 72
     4
 11
931265.099037
 21
7291719.629469
 31
0.0
210
0.0
220
0.0
230
1.0
  0
TEXT
  8
15
  6
CONTINUOUS
 62
    30
  5
F7
 10
931693.8
 20
7291163.294
 30
0.0
 40
30.0
  1
STAUFFER 
 50
28.198
  7
ROMANC
 72
     4
 11
931814.114049
 21
7291244.820346
 31
0.0
210
0.0
220
0.0
230
1.0
  0
TEXT
  8
15
  6
CONTINUOUS
 62
    30
  5
F8
 10
931838.976
 20
7291178.722
 30
0.0
 40
30.0
  1
 
 50
28.198
  7
ROMANC
 72
     4
 11
931840.701399
 21
7291196.666999
 31
0.0
210
0.0
220
0.0
230
1.0
  0
TEXT
  8
15
  6
CONTINUOUS
 62
    30
  5
F9
 10
931768.261
 20
7291078.403
 30
0.0
 40
30.0
  1
CHEMICAL
 50
28.198
  7
ROMANC
 72
     4
 11
931871.193657
 21
7291150.610306
 31
0.0
210
0.0
220
0.0
230
1.0
  0
TEXT
  8
15
  6
CONTINUOUS
 62
    30
  5
FA
 10
931890.953
 20
7291081.776
 30
0.0
 40
30.0
  1
 
 50
28.198
  7
ROMANC
 72
     4
 11
931892.678399
 21
7291099.720999
 31
0.0
210
0.0
220
0.0
230
1.0
  0
TEXT
  8
15
  6
CONTINUOUS
 62
    30
  5
FB
 10
931923.073
 20
7291053.613
 30
0.0
 40
30.0
  1
 13/32  1/8 %%2025, 7/8 zB 21/64  1/8 
 50
28.198
  7
ROMANC
 72
     4
 11
932112.715201
 21
7291172.309659
 31
0.0
210
0.0
220
0.0
230
1.0
  0
TEXT
  8
11
  6
CONTINUOUS
 62
     7
  5
FC
 10
931571.278
 20
7290771.989
 30
0.0
 40
8.0
  1
1
 50
325.084164
  7
ROMANS
 72
     1
 11
931576.950032
 21
7290777.785977
 31
0.0
210
0.0
220
0.0
230
1.0
 73
     3
  0
TEXT
  8
11
  6
CONTINUOUS
 62
     7
  5
FD
 10
931577.787
 20
7290767.445
 30
0.0
 40
8.0
  1
2
 50
325.084164
  7
ROMANS
 72
     1
 11
931584.279026
 21
7290772.669605
 31
0.0
210
0.0
220
0.0
230
1.0
 73
     3
  0
TEXT
  8
11
  6
CONTINUOUS
 62
     7
  5
FE
 10
931584.295
 20
7290762.902
 30
0.0
 40
8.0
  1
6
 50
325.084164
  7
ROMANS
 72
     1
 11
931590.940364
 21
7290768.019571
 31
0.0
210
0.0
220
0.0
230
1.0
 73
     3
  0
TEXT
  8
11
  6
CONTINUOUS
 62
     7
  5
FF
 10
931590.803
 20
7290758.359
 30
0.0
 40
8.0
  1
8
 50
325.084164
  7
ROMANS
 72
     1
 11
931597.295026
 21
7290763.583605
 31
0.0
210
0.0
220
0.0
230
1.0
 73
     3
  0
TEXT
  8
11
  6
CONTINUOUS
 62
     7
  5
100
 10
931597.312
 20
7290753.818
 30
0.0
 40
8.0
  1
.
 50
325.084164
  7
ROMANS
 72
     1
 11
931602.975012
 21
7290759.621273
 31
0.0
210
0.0
220
0.0
230
1.0
 73
     3
  0
TEXT
  8
11
  6
CONTINUOUS
 62
     7
  5
101
 10
931603.819
 20
7290749.274
 30
0.0
 40
8.0
  1
8
 50
325.084164
  7
ROMANS
 72
     1
 11
931610.311026
 21
7290754.498605
 31
0.0
210
0.0
220
0.0
230
1.0
 73
     3
  0
TEXT
  8
11
  6
CONTINUOUS
 62
     7
  5
102
 10
931610.328
 20
7290744.731
 30
0.0
 40
8.0
  1
8
 50
325.084164
  7
ROMANS
 72
     1
 11
931616.820026
 21
7290749.955605
 31
0.0
210
0.0
220
0.0
230
1.0
 73
     3
  0
TEXT
  8
11
  6
CONTINUOUS
 62
     7
  5
103
 10
931616.836
 20
7290740.189
 30
0.0
 40
8.0
  1
'
 50
325.084164
  7
ROMANS
 72
     1
 11
931622.508032
 21
7290745.985977
 31
0.0
210
0.0
220
0.0
230
1.0
 73
     3
  0
TEXT
  8
11
  6
CONTINUOUS
 62
     7
  5
104
 10
929563.706
 20
7292173.315
 30
0.0
 40
8.0
  1
3
 50
325.084164
  7
ROMANS
 72
     1
 11
929570.198026
 21
7292178.539605
 31
0.0
210
0.0
220
0.0
230
1.0
 73
     3
  0
TEXT
  8
11
  6
CONTINUOUS
 62
     7
  5
105
 10
929570.214
 20
7292168.773
 30
0.0
 40
8.0
  1
2
 50
325.084164
  7
ROMANS
 72
     1
 11
929576.706026
 21
7292173.997605
 31
0.0
210
0.0
220
0.0
230
1.0
 73
     3
  0
TEXT
  8
11
  6
CONTINUOUS
 62
     7
  5
106
 10
929576.723
 20
7292164.231
 30
0.0
 40
8.0
  1
9
 50
325.084164
  7
ROMANS
 72
     1
 11
929583.215026
 21
7292169.455605
 31
0.0
210
0.0
220
0.0
230
1.0
 73
     3
  0
TEXT
  8
11
  6
CONTINUOUS
 62
     7
  5
107
 10
929583.231
 20
7292159.688
 30
0.0
 40
8.0
  1
9
 50
325.084164
  7
ROMANS
 72
     1
 11
929589.723026
 21
7292164.912605
 31
0.0
210
0.0
220
0.0
230
1.0
 73
     3
  0
TEXT
  8
11
  6
CONTINUOUS
 62
     7
  5
108
 10
929589.739
 20
7292155.143
 30
0.0
 40
8.0
  1
.
 50
325.084164
  7
ROMANS
 72
     1
 11
929595.402012
 21
7292160.946273
 31
0.0
210
0.0
220
0.0
230
1.0
 73
     3
  0
TEXT
  8
11
  6
CONTINUOUS
 62
     7
  5
109
 10
929596.247
 20
7292150.602
 30
0.0
 40
8.0
  1
3
 50
325.084164
  7
ROMANS
 72
     1
 11
929602.739026
 21
7292155.826605
 31
0.0
210
0.0
220
0.0
230
1.0
 73
     3
  0
TEXT
  8
11
  6
CONTINUOUS
 62
     7
  5
10A
 10
929602.755
 20
7292146.058
 30
0.0
 40
8.0
  1
1
 50
325.084164
  7
ROMANS
 72
     1
 11
929608.427032
 21
7292151.854977
 31
0.0
210
0.0
220
0.0
230
1.0
 73
     3
  0
POLYLINE
  8
1
  6
HIDDEN
 62
   253
  5
10C
 66
     1
 10
0.0
 20
0.0
 30
0.0
 70
     1
  0
VERTEX
  8
1
  6
HIDDEN
 62
   253
  5
10D
 10
932109.884
 20
7289652.234
 30
0.0
  0
VERTEX
  8
1
  6
HIDDEN
 62
   253
  5
10E
 10
926850.248
 20
7289810.264
 30
0.0
  0
VERTEX
  8
1
  6
HIDDEN
 62
   253
  5
10F
 10
927017.224
 20
7295057.94
 30
0.0
  0
VERTEX
  8
1
  6
HIDDEN
 62
   253
  5
110
 10
932274.581
 20
7294911.836
 30
0.0
  0
SEQEND
  8
1
  6
HIDDEN
 62
   253
  5
111
  0
LINE
  8
7
  6
CONTINUOUS
 62
     7
  5
112
 10
931824.753
 20
7290302.822
 30
0.0
 11
931521.526
 21
7290513.847
 31
0.0
  0
LINE
  8
7
  6
CONTINUOUS
 62
     7
  5
113
 10
931521.526
 20
7290513.847
 30
0.0
 11
931664.989
 21
7290719.992
 31
0.0
  0
LINE
  8
7
  6
CONTINUOUS
 62
     7
  5
114
 10
931824.753
 20
7290302.822
 30
0.0
 11
931834.162
 21
7290601.905
 31
0.0
  0
TEXT
  8
11
  6
CONTINUOUS
 62
     7
  5
115
 10
931717.137
 20
7290670.176
 30
0.0
 40
8.0
  1
206.37'
 50
325.084164
  7
ROMANS
 72
     1
 11
931742.488881
 21
7290662.236036
 31
0.0
210
0.0
220
0.0
230
1.0
 73
     3
  0
TEXT
  8
11
  6
CONTINUOUS
 62
     7
  5
116
 10
931591.707
 20
7290595.435
 30
0.0
 40
8.0
  1
250'
 50
55.164778
  7
ROMANS
 72
     1
 11
931592.756667
 21
7290610.948449
 31
0.0
210
0.0
220
0.0
230
1.0
 73
     3
  0
TEXT
  8
11
  6
CONTINUOUS
 62
     7
  5
117
 10
931630.974
 20
7290441.335
 30
0.0
 40
8.0
  1
369.55'
 50
325.164697
  7
ROMANS
 72
     1
 11
931651.767261
 21
7290426.864299
 31
0.0
210
0.0
220
0.0
230
1.0
  0
TEXT
  8
11
  6
CONTINUOUS
 62
     7
  5
118
 10
931825.828
 20
7290432.39
 30
0.0
 40
8.0
  1
298.54'
 50
88.198
  7
ROMANS
 72
     1
 11
931826.624613
 21
7290457.710472
 31
0.0
210
0.0
220
0.0
230
1.0
  0
TEXT
  8
15
  6
CONTINUOUS
 62
    30
  5
119
 10
931606.986
 20
7290555.697
 30
0.0
 40
30.388
  1
ROLLINS
 50
358.198
  7
ROMANC
 72
     4
 11
931711.489315
 21
7290567.610717
 31
0.0
210
0.0
220
0.0
230
1.0
  0
TEXT
  8
15
  6
CONTINUOUS
 62
    30
  5
11A
 10
931699.461
 20
7290507.185
 30
0.0
 40
30.388
  1
 
 50
358.198
  7
ROMANC
 72
     4
 11
931710.062776
 21
7290522.052973
 31
0.0
210
0.0
220
0.0
230
1.0
  0
TEXT
  8
15
  6
CONTINUOUS
 62
    30
  5
11B
 10
931653.742
 20
7290463.02
 30
0.0
 40
30.388
  1
ADD.
 50
358.198
  7
ROMANC
 72
     4
 11
931708.624867
 21
7290476.494836
 31
0.0
210
0.0
220
0.0
230
1.0
  0
TEXT
  8
11
  6
CONTINUOUS
 62
     7
  5
11C
 10
931439.208
 20
7290426.187
 30
0.0
 40
8.0
  1
33
 50
358.198
  7
ROMANS
 72
     4
 11
931445.663651
 21
7290429.985877
 31
0.0
210
0.0
220
0.0
230
1.0
  0
TEXT
  8
19
  6
CONTINUOUS
 62
     1
  5
11E
 10
931409.433
 20
7291812.674
 30
0.0
 40
24.0
  1
DRAKE    ST
 50
358.198
  7
ROMANC
 72
     4
 11
931551.558214
 21
7291820.208507
 31
0.0
210
0.0
220
0.0
230
1.0
  0
TEXT
  8
19
  6
CONTINUOUS
 62
     1
  5
11F
 10
931401.527
 20
7291029.867
 30
0.0
 40
24.0
  1
CLOVIS RD U S 84
 50
326.198
  7
ROMANC
 72
     4
 11
931574.648519
 21
7290928.404534
 31
0.0
210
0.0
220
0.0
230
1.0
  0
TEXT
  8
19
  6
CONTINUOUS
 62
     1
  5
120
 10
932129.614
 20
7290856.082
 30
0.0
 40
24.0
  1
N  QUAKER  AVE
 50
88.198
  7
ROMANC
 72
     4
 11
932123.683882
 21
7291049.202982
 31
0.0
210
0.0
220
0.0
230
1.0
  0
TEXT
  8
19
  6
CONTINUOUS
 62
     1
  5
121
 10
930677.601
 20
7290807.573
 30
0.0
 40
24.0
  1
CLOVIS DR
 50
326.198
  7
ROMANC
 72
     4
 11
930773.780141
 21
7290757.622856
 31
0.0
210
0.0
220
0.0
230
1.0
  0
TEXT
  8
19
  6
CONTINUOUS
 62
     1
  5
122
 10
929675.309
 20
7292227.299
 30
0.0
 40
24.0
  1
CLOVIS RD U S 84
 50
326.198
  7
ROMANC
 72
     4
 11
929848.430519
 21
7292125.836534
 31
0.0
210
0.0
220
0.0
230
1.0
  0
TEXT
  8
19
  6
CONTINUOUS
 62
     1
  5
123
 10
927898.055
 20
7293486.898
 30
0.0
 40
24.0
  1
CLOVIS RD U S 84
 50
326.198
  7
ROMANC
 72
     4
 11
928071.176519
 21
7293385.435534
 31
0.0
210
0.0
220
0.0
230
1.0
  0
TEXT
  8
19
  6
CONTINUOUS
 62
     1
  5
124
 10
930318.74
 20
7289692.833
 30
0.0
 40
24.0
  1
URSULINE ST
 50
358.198
  7
ROMANC
 72
     4
 11
930456.804223
 21
7289700.49527
 31
0.0
210
0.0
220
0.0
230
1.0
  0
TEXT
  8
19
  6
CONTINUOUS
 62
     1
  5
125
 10
926866.464
 20
7290038.594
 30
0.0
 40
24.0
  1
N SLIDE RD
 50
88.198
  7
ROMANC
 72
     4
 11
926858.39171
 21
7290163.625671
 31
0.0
210
0.0
220
0.0
230
1.0
  0
TEXT
  8
19
  6
CONTINUOUS
 62
     1
  5
126
 10
927870.372
 20
7289780.809
 30
0.0
 40
24.0
  1
URSULINE ST
 50
358.198
  7
ROMANC
 72
     4
 11
928008.436223
 21
7289788.47127
 31
0.0
210
0.0
220
0.0
230
1.0
  0
LINE
  8
6
  6
CONTINUOUS
 62
     7
  5
127
 10
932079.421
 20
7290430.71
 30
0.0
 11
932074.219
 21
7290265.398
 31
0.0
  0
ARC
  8
27
  6
CONTINUOUS
 62
    32
  5
128
 10
926738.139131
 20
7294084.091146
 30
0.0
 40
409.171555
 50
33.004183
 51
50.962908
210
0.0
220
0.0
230
1.0
  0
ARC
  8
27
  6
CONTINUOUS
 62
    32
  5
129
 10
926409.128847
 20
7293109.451104
 30
0.0
 40
1344.429267
 50
48.766644
 51
54.261825
210
0.0
220
0.0
230
1.0
  0
ARC
  8
27
  6
CONTINUOUS
 62
    32
  5
12A
 10
928526.49372
 20
7295554.241785
 30
0.0
 40
1889.839602
 50
229.345839
 51
234.348875
210
0.0
220
0.0
230
1.0
  0
LINE
  8
27
  6
CONTINUOUS
 62
    32
  5
12B
 10
926993.834
 20
7294340.205
 30
0.0
 11
927194.386
 21
7294200.717
 31
0.0
  0
ARC
  8
27
  6
CONTINUOUS
 62
    32
  5
12C
 10
927446.486909
 20
7294582.402126
 30
0.0
 40
457.425845
 50
217.023431
 51
236.555458
210
0.0
220
0.0
230
1.0
  0
TEXT
  8
11
  6
CONTINUOUS
 62
     7
  5
12D
 10
927603.133
 20
7293500.376
 30
0.0
 40
8.0
  1
1500.38'
 50
328.848717
  7
ROMANS
 72
     1
 11
927628.236311
 21
7293485.202053
 31
0.0
210
0.0
220
0.0
230
1.0
  0
LINE
  8
6
  6
CONTINUOUS
 62
     7
  5
12E
 10
927016.532
 20
7295036.669
 30
0.0
 11
932223.928
 21
7294891.501
 31
0.0
  0
LINE
  8
6
  6
CONTINUOUS
 62
     7
  5
12F
 10
932223.928
 20
7294891.501
 30
0.0
 11
932112.558
 21
7291324.918
 31
0.0
  0
LINE
  8
58
  6
DIVIDE
 62
   216
  5
131
 10
926854.352
 20
7289938.754
 30
0.0
 11
930628.262
 21
7289820.022
 31
0.0
  0
POLYLINE
  8
58
  6
DIVIDE
 62
   216
  5
132
 66
     1
 10
0.0
 20
0.0
 30
0.0
  0
VERTEX
  8
58
  6
DIVIDE
 62
   216
  5
133
 10
930628.266
 20
7289820.648
 30
0.0
  0
VERTEX
  8
58
  6
DIVIDE
 62
   216
  5
134
 10
930659.461
 20
7290812.209
 30
0.0
  0
VERTEX
  8
58
  6
DIVIDE
 62
   216
  5
135
 10
930945.071
 20
7291222.609
 30
0.0
  0
VERTEX
  8
58
  6
DIVIDE
 62
   216
  5
136
 10
930963.296
 20
7291801.892
 30
0.0
  0
SEQEND
  8
58
  6
DIVIDE
 62
   216
  5
137
  0
LINE
  8
58
  6
DIVIDE
 62
   216
  5
138
 10
930973.282
 20
7291801.218
 30
0.0
 11
932131.397
 21
7291764.783
 31
0.0
  0
TEXT
  8
28
  6
CONTINUOUS
 62
    32
  5
13B
 10
927664.128
 20
7293865.411
 30
0.0
 40
24.0
  1
PANHANDLE & SANTA FE RR
 50
325.0
  7
txt
 72
     4
 11
927888.41387
 21
7293723.013638
 31
0.0
210
0.0
220
0.0
230
1.0
  0
TEXT
  8
28
  6
CONTINUOUS
 62
    32
  5
13C
 10
929264.851
 20
7292747.14
 30
0.0
 40
24.0
  1
PANHANDLE & SANTA FE RR
 50
325.0
  7
txt
 72
     4
 11
929489.13687
 21
7292604.742638
 31
0.0
210
0.0
220
0.0
230
1.0
  0
TEXT
  8
28
  6
CONTINUOUS
 62
    32
  5
13D
 10
931149.728
 20
7291432.268
 30
0.0
 40
24.0
  1
PANHANDLE & SANTA FE RR
 50
325.0
  7
txt
 72
     4
 11
931374.01387
 21
7291289.870638
 31
0.0
210
0.0
220
0.0
230
1.0
  0
TEXT
  8
10
  6
CONTINUOUS
 62
   134
  5
13F
 10
931101.732
 20
7291648.306
 30
0.0
 40
13.999
  1
A
 50
358.198
  7
ROMANS
 11
931102.172208
 21
7291662.298077
 31
0.0
210
0.0
220
0.0
230
1.0
 73
     3
  0
TEXT
  8
10
  6
CONTINUOUS
 62
   134
  5
140
 10
930846.538
 20
7290938.076
 30
0.0
 40
13.999
  1
1
 50
358.198
  7
ROMANS
 11
930846.978208
 21
7290952.068077
 31
0.0
210
0.0
220
0.0
230
1.0
 73
     3
  0
TEXT
  8
10
  6
CONTINUOUS
 62
   134
  5
141
 10
931760.639
 20
7291167.77
 30
0.0
 40
13.999
  1
TRACT A
 50
358.198
  7
ROMANS
 11
931761.079208
 21
7291181.762077
 31
0.0
210
0.0
220
0.0
230
1.0
 73
     3
  0
TEXT
  8
10
  6
CONTINUOUS
 62
   134
  5
142
 10
931634.661
 20
7290512.891
 30
0.0
 40
13.999
  1
TRACT "A"
 50
358.198
  7
ROMANS
 72
     4
 11
931695.367192
 21
7290517.984573
 31
0.0
210
0.0
220
0.0
230
1.0
  0
TEXT
  8
10
  6
CONTINUOUS
 62
   134
  5
143
 10
931702.958
 20
7291535.342
 30
0.0
 40
13.999
  1
UNSUBDIVIDED
 50
358.198
  7
ROMANS
 11
931703.398208
 21
7291549.334077
 31
0.0
210
0.0
220
0.0
230
1.0
 73
     3
  0
TEXT
  8
10
  6
CONTINUOUS
 62
   134
  5
144
 10
931311.071
 20
7290195.363
 30
0.0
 40
13.999
  1
UNSUBDIVIDED
 50
358.198
  7
ROMANS
 11
931311.511208
 21
7290209.355077
 31
0.0
210
0.0
220
0.0
230
1.0
 73
     3
  0
TEXT
  8
10
  6
CONTINUOUS
 62
   134
  5
145
 10
930183.339
 20
7293796.339
 30
0.0
 40
13.999
  1
UNSUBDIVIDED
 50
358.198
  7
ROMANS
 11
930183.779208
 21
7293810.331077
 31
0.0
210
0.0
220
0.0
230
1.0
 73
     3
  0
TEXT
  8
10
  6
CONTINUOUS
 62
   134
  5
146
 10
928251.017
 20
7291436.201
 30
0.0
 40
13.999
  1
UNSUBDIVIDED
 50
358.198
  7
ROMANS
 11
928251.457208
 21
7291450.193077
 31
0.0
210
0.0
220
0.0
230
1.0
 73
     3
  0
POLYLINE
  8
58
  6
DIVIDE
 62
   216
  5
147
 66
     1
 10
0.0
 20
0.0
 30
0.0
  0
VERTEX
  8
58
  6
DIVIDE
 62
   216
  5
148
 10
932188.055
 20
7292293.672
 30
0.0
  0
VERTEX
  8
58
  6
DIVIDE
 62
   216
  5
149
 10
932148.075
 20
7292294.931
 30
0.0
  0
VERTEX
  8
58
  6
DIVIDE
 62
   216
  5
14A
 10
932131.408
 20
7291765.142
 30
0.0
  0
SEQEND
  8
58
  6
DIVIDE
 62
   216
  5
14B
  0
ENDSEC
  0
EOF
