  0
SECTION
  2
HEADER
  9
$ACADVER
  1
AC1009
  9
$INSBASE
 10
0.0
 20
0.0
 30
0.0
  9
$EXTMIN
 10
921506.69
 20
7289810.264
 30
0.0
  9
$EXTMAX
 10
927017.633
 20
7295224.415
 30
0.0
  9
$LIMMIN
 10
0.0
 20
0.0
  9
$LIMMAX
 10
12.0
 20
9.0
  9
$ORTHOMODE
 70
     0
  9
$REGENMODE
 70
     1
  9
$FILLMODE
 70
     1
  9
$QTEXTMODE
 70
     0
  9
$MIRRTEXT
 70
     1
  9
$DRAGMODE
 70
     2
  9
$LTSCALE
 40
1.0
  9
$OSMODE
 70
     0
  9
$ATTMODE
 70
     1
  9
$TEXTSIZE
 40
0.2
  9
$TRACEWID
 40
0.05
  9
$TEXTSTYLE
  7
STANDARD
  9
$CLAYER
  8
0
  9
$CELTYPE
  6
CONTINUOUS
  9
$CECOLOR
 62
   256
  9
$DIMSCALE
 40
1.0
  9
$DIMASZ
 40
0.18
  9
$DIMEXO
 40
0.0625
  9
$DIMDLI
 40
0.38
  9
$DIMRND
 40
0.0
  9
$DIMDLE
 40
0.0
  9
$DIMEXE
 40
0.18
  9
$DIMTP
 40
0.0
  9
$DIMTM
 40
0.0
  9
$DIMTXT
 40
0.18
  9
$DIMCEN
 40
0.09
  9
$DIMTSZ
 40
0.0
  9
$DIMTOL
 70
     0
  9
$DIMLIM
 70
     0
  9
$DIMTIH
 70
     1
  9
$DIMTOH
 70
     1
  9
$DIMSE1
 70
     0
  9
$DIMSE2
 70
     0
  9
$DIMTAD
 70
     0
  9
$DIMZIN
 70
     0
  9
$DIMBLK
  1

  9
$DIMASO
 70
     1
  9
$DIMSHO
 70
     1
  9
$DIMPOST
  1

  9
$DIMAPOST
  1

  9
$DIMALT
 70
     0
  9
$DIMALTD
 70
     2
  9
$DIMALTF
 40
25.4
  9
$DIMLFAC
 40
1.0
  9
$DIMTOFL
 70
     0
  9
$DIMTVP
 40
0.0
  9
$DIMTIX
 70
     0
  9
$DIMSOXD
 70
     0
  9
$DIMSAH
 70
     0
  9
$DIMBLK1
  1

  9
$DIMBLK2
  1

  9
$DIMSTYLE
  2
STANDARD
  9
$DIMCLRD
 70
     0
  9
$DIMCLRE
 70
     0
  9
$DIMCLRT
 70
     0
  9
$DIMTFAC
 40
1.0
  9
$DIMGAP
 40
0.09
  9
$LUNITS
 70
     2
  9
$LUPREC
 70
     4
  9
$AXISMODE
 70
     0
  9
$AXISUNIT
 10
0.0
 20
0.0
  9
$SKETCHINC
 40
0.1
  9
$FILLETRAD
 40
0.0
  9
$AUNITS
 70
     0
  9
$AUPREC
 70
     0
  9
$MENU
  1
acad
  9
$ELEVATION
 40
0.0
  9
$PELEVATION
 40
0.0
  9
$THICKNESS
 40
0.0
  9
$LIMCHECK
 70
     0
  9
$BLIPMODE
 70
     1
  9
$CHAMFERA
 40
0.0
  9
$CHAMFERB
 40
0.0
  9
$SKPOLY
 70
     0
  9
$TDCREATE
 40
2453013.900138889
  9
$TDUPDATE
 40
2453013.900138889
  9
$TDINDWG
 40
0.0000000000
  9
$TDUSRTIMER
 40
0.0000000000
  9
$USRTIMER
 70
     1
  9
$ANGBASE
 50
0.0
  9
$ANGDIR
 70
     0
  9
$PDMODE
 70
     0
  9
$PDSIZE
 40
0.0
  9
$PLINEWID
 40
0.0
  9
$COORDS
 70
     0
  9
$SPLFRAME
 70
     0
  9
$SPLINETYPE
 70
     6
  9
$SPLINESEGS
 70
    10
  9
$ATTDIA
 70
     0
  9
$ATTREQ
 70
     1
  9
$HANDLING
 70
     1
  9
$HANDSEED
  5
6F
  9
$SURFTAB1
 70
     6
  9
$SURFTAB2
 70
     6
  9
$SURFTYPE
 70
     6
  9
$SURFU
 70
     6
  9
$SURFV
 70
     6
  9
$UCSNAME
  2

  9
$UCSORG
 10
0.0
 20
0.0
 30
0.0
  9
$UCSXDIR
 10
1.0
 20
0.0
 30
0.0
  9
$UCSYDIR
 10
0.0
 20
1.0
 30
0.0
  9
$PUCSNAME
  2

  9
$PUCSORG
 10
0.0
 20
0.0
 30
0.0
  9
$PUCSXDIR
 10
1.0
 20
0.0
 30
0.0
  9
$PUCSYDIR
 10
0.0
 20
1.0
 30
0.0
  9
$USERI1
 70
     0
  9
$USERI2
 70
     0
  9
$USERI3
 70
     0
  9
$USERI4
 70
     0
  9
$USERI5
 70
     0
  9
$USERR1
 40
0.0
  9
$USERR2
 40
0.0
  9
$USERR3
 40
0.0
  9
$USERR4
 40
0.0
  9
$USERR5
 40
0.0
  9
$WORLDVIEW
 70
     1
  9
$SHADEDGE
 70
     3
  9
$SHADEDIF
 70
    70
  9
$TILEMODE
 70
     1
  9
$MAXACTVP
 70
    16
  9
$PINSBASE
 10
0.0
 20
0.0
 30
0.0
  9
$PLIMCHECK
 70
     0
  9
$PEXTMIN
 10
-1.000000E+20
 20
-1.000000E+20
 30
-1.000000E+20
  9
$PEXTMAX
 10
-1.000000E+20
 20
-1.000000E+20
 30
-1.000000E+20
  9
$PLIMMIN
 10
0.0
 20
0.0
  9
$PLIMMAX
 10
12.0
 20
9.0
  9
$UNITMODE
 70
     0
  9
$VISRETAIN
 70
     0
  9
$PLINEGEN
 70
     1
  9
$PSLTSCALE
 70
     0
  9
$TREEDEPTH
 70
  3020
  9
$DWGCODEPAGE
  3
ansi_1252
  0
ENDSEC
  0
SECTION
  2
TABLES
  0
TABLE
  2
VPORT
 70
     1
  0
VPORT
  2
*ACTIVE
 70
     0
 10
0.0
 20
0.0
 11
1.0
 21
1.0
 12
0.0
 22
0.0
 13
0.0
 23
0.0
 14
0.0
 24
0.0
 15
0.0
 25
0.0
 16
0.0
 26
0.0
 36
1.0
 17
924000.005144
 27
7292403.816202
 37
0.0
 40
5484.224
 41
1.259629
 42
50.0
 43
0.004
 44
0.0
 50
1.880605
 51
0.0
 71
     0
 72
   100
 73
     1
 74
     0
 75
     0
 76
     0
 77
     0
 78
     0
  0
ENDTAB
  0
TABLE
  2
LTYPE
 70
     7
  0
LTYPE
  2
CONTINUOUS
 70
     0
  3
Solid line
 72
    65
 73
     0
 40
0.0
  0
LTYPE
  2
DOT
 70
    64
  3
. . . . . . . . . . . . . . . . . . . . . . . . . . . . . . . . .
 72
    65
 73
     2
 40
0.25
 49
0.0
 49
-0.25
  0
LTYPE
  2
HIDDEN
 70
    64
  3
__ __ __ __ __ __ __ __ __ __ __ __ __ __ __ __ __ __ __ __ __ 
 72
    65
 73
     2
 40
0.375
 49
0.25
 49
-0.125
  0
LTYPE
  2
DASHED
 70
    64
  3
__ __ __ __ __ __ __ __ __ __ __ __ __ __ __ __ __ __ __ __ __
 72
    65
 73
     2
 40
0.75
 49
0.5
 49
-0.25
  0
LTYPE
  2
DASHDOT
 70
    64
  3
__ . __ . __ . __ . __ . __ . __ . __ . __ . __ . __ . __ . _
 72
    65
 73
     4
 40
1.0
 49
0.5
 49
-0.25
 49
0.0
 49
-0.25
  0
LTYPE
  2
DIVIDE
 70
    64
  3
____ . . ____ . . ____ . . ____ . . ____ . . ____ . . ____ . .
 72
    65
 73
     6
 40
1.25
 49
0.5
 49
-0.25
 49
0.0
 49
-0.25
 49
0.0
 49
-0.25
  0
LTYPE
  2
CENTER
 70
    64
  3
____ _ ____ _ ____ _ ____ _ ____ _ ____ _ ____ _ ____ _ ____ _
 72
    65
 73
     4
 40
2.0
 49
1.25
 49
-0.25
 49
0.25
 49
-0.25
  0
ENDTAB
  0
TABLE
  2
LAYER
 70
    11
  0
LAYER
  2
0
 70
     0
 62
     7
  6
CONTINUOUS
  0
LAYER
  2
CONSTRUCTION_CLASS
 70
     1
 62
     7
  6
CONTINUOUS
  0
LAYER
  2
PATTERN_CLASS
 70
     0
 62
     7
  6
CONTINUOUS
  0
LAYER
  2
27
 70
    64
 62
     7
  6
CONTINUOUS
  0
LAYER
  2
6
 70
    64
 62
     7
  6
CONTINUOUS
  0
LAYER
  2
11
 70
    64
 62
     7
  6
CONTINUOUS
  0
LAYER
  2
1
 70
    64
 62
     7
  6
CONTINUOUS
  0
LAYER
  2
19
 70
    64
 62
     7
  6
CONTINUOUS
  0
LAYER
  2
58
 70
    64
 62
     7
  6
CONTINUOUS
  0
LAYER
  2
10
 70
    64
 62
     7
  6
CONTINUOUS
  0
LAYER
  2
28
 70
    64
 62
     7
  6
CONTINUOUS
  0
ENDTAB
  0
TABLE
  2
STYLE
 70
     4
  0
STYLE
  2
STANDARD
 70
     0
 40
0.0
 41
1.0
 50
0.0
 71
     0
 42
0.0
  3
txt
  4

  0
STYLE
  2
ROMANS
 70
     0
 40
0.2
 41
1.0
 50
0.0
 71
     0
 42
0.2
  3
ROMANS
  4

  0
STYLE
  2
ROMANC
 70
     0
 40
0.2
 41
1.0
 50
0.0
 71
     0
 42
0.2
  3
ROMANC
  4

  0
STYLE
  2
txt
 70
     0
 40
0.2
 41
1.0
 50
0.0
 71
     0
 42
0.2
  3
TXT
  4

  0
ENDTAB
  0
TABLE
  2
VIEW
 70
     0
  0
ENDTAB
  0
TABLE
  2
UCS
 70
     0
  0
ENDTAB
  0
TABLE
  2
APPID
 70
     1
  0
APPID
  2
ACAD
 70
     0
  0
ENDTAB
  0
TABLE
  2
DIMSTYLE
 70
     1
  0
DIMSTYLE
  2
STANDARD
 70
     0
  3

  4

  5

  6

  7

 40
1.0
 41
0.18
 42
0.0625
 43
0.38
 44
0.18
 45
0.0
 46
0.0
 47
0.0
 48
0.0
140
0.18
141
0.09
142
0.0
143
25.4
144
1.0
145
0.0
146
1.0
147
0.09
 71
     0
 72
     0
 73
     1
 74
     1
 75
     0
 76
     0
 77
     0
 78
     0
170
     0
171
     2
172
     0
173
     0
174
     0
175
     0
176
     0
177
     0
178
     0
  0
ENDTAB
  0
ENDSEC
  0
SECTION
  2
BLOCKS
  0
ENDSEC
  0
SECTION
  2
ENTITIES
  0
LINE
  8
27
  6
CONTINUOUS
 62
    32
  5
29
 10
925865.219
 20
7295104.394
 30
0.0
 11
927002.003
 21
7294334.674
 31
0.0
  0
POLYLINE
  8
6
  6
CONTINUOUS
 62
     7
  5
2B
 66
     1
 10
0.0
 20
0.0
 30
0.0
  0
VERTEX
  8
6
  6
CONTINUOUS
 62
     7
  5
2C
 10
926979.509
 20
7293872.657
 30
0.0
  0
VERTEX
  8
6
  6
CONTINUOUS
 62
     7
  5
2D
 10
925085.921
 20
7295018.517
 30
0.0
  0
VERTEX
  8
6
  6
CONTINUOUS
 62
     7
  5
2E
 10
924845.965
 20
7295078.624
 30
0.0
  0
VERTEX
  8
6
  6
CONTINUOUS
 62
     7
  5
2F
 10
924845.875
 20
7295122.451
 30
0.0
  0
SEQEND
  8
6
  6
CONTINUOUS
 62
     7
  5
30
  0
LINE
  8
6
  6
CONTINUOUS
 62
     7
  5
31
 10
926989.651
 20
7294198.926
 30
0.0
 11
925503.045
 21
7295100.873
 31
0.0
  0
LINE
  8
6
  6
CONTINUOUS
 62
     7
  5
32
 10
926989.667
 20
7294199.439
 30
0.0
 11
925677.198
 21
7295095.155
 31
0.0
  0
LINE
  8
6
  6
CONTINUOUS
 62
     7
  5
33
 10
926049.758
 20
7295082.922
 30
0.0
 11
926997.422
 21
7294435.603
 31
0.0
  0
LINE
  8
6
  6
CONTINUOUS
 62
     7
  5
34
 10
926847.347
 20
7289845.532
 30
0.0
 11
921660.142
 21
7290015.851
 31
0.0
  0
LINE
  8
6
  6
CONTINUOUS
 62
     7
  5
35
 10
921631.143
 20
7290046.819
 30
0.0
 11
921715.154
 21
7292605.441
 31
0.0
  0
ARC
  8
6
  6
CONTINUOUS
 62
     7
  5
36
 10
921661.126754
 20
7290045.834941
 30
0.0
 40
30.0
 50
178.1194
 51
268.1194
210
0.0
220
0.0
230
1.0
  0
LINE
  8
6
  6
CONTINUOUS
 62
     7
  5
37
 10
921715.154
 20
7292605.441
 30
0.0
 11
921655.186
 21
7292607.41
 31
0.0
  0
TEXT
  8
11
  6
CONTINUOUS
 62
     7
  5
3A
 10
921677.506
 20
7292591.627
 30
0.0
 40
8.0
  1
60'
 50
358.1194
  7
ROMANS
 72
     4
 11
921686.96524
 21
7292595.318567
 31
0.0
210
0.0
220
0.0
230
1.0
  0
TEXT
  8
11
  6
CONTINUOUS
 62
     7
  5
3B
 10
921595.481
 20
7290095.291
 30
0.0
 40
8.0
  1
60'
 50
358.1194
  7
ROMANS
 72
     4
 11
921604.94024
 21
7290098.982567
 31
0.0
210
0.0
220
0.0
230
1.0
  0
TEXT
  8
11
  6
CONTINUOUS
 62
     7
  5
3C
 10
921695.327
 20
7291607.919
 30
0.0
 40
8.0
  1
2560'
 50
88.1194
  7
ROMANS
 72
     4
 11
921691.897968
 21
7291625.373931
 31
0.0
210
0.0
220
0.0
230
1.0
  0
TEXT
  8
11
  6
CONTINUOUS
 62
     7
  5
3D
 10
921634.833
 20
7290039.77
 30
0.0
 40
8.0
  1
R
 50
286.970617
  7
ROMANS
 72
     1
 11
921635.568541
 21
7290037.359734
 31
0.0
210
0.0
220
0.0
230
1.0
  0
TEXT
  8
11
  6
CONTINUOUS
 62
     7
  5
3E
 10
921637.238
 20
7290033.135
 30
0.0
 40
8.0
  1
=
 50
303.711508
  7
ROMANS
 72
     1
 11
921639.087853
 21
7290030.362468
 31
0.0
210
0.0
220
0.0
230
1.0
  0
TEXT
  8
11
  6
CONTINUOUS
 62
     7
  5
3F
 10
921641.276
 20
7290027.314
 30
0.0
 40
8.0
  1
3
 50
320.452397
  7
ROMANS
 72
     1
 11
921643.074967
 21
7290025.828534
 31
0.0
210
0.0
220
0.0
230
1.0
  0
TEXT
  8
11
  6
CONTINUOUS
 62
     7
  5
40
 10
921646.696
 20
7290022.7
 30
0.0
 40
8.0
  1
0
 50
337.193286
  7
ROMANS
 72
     1
 11
921649.139739
 21
7290021.67241
 31
0.0
210
0.0
220
0.0
230
1.0
  0
TEXT
  8
11
  6
CONTINUOUS
 62
     7
  5
41
 10
921653.663
 20
7290019.959
 30
0.0
 40
8.0
  1
'
 50
345.563733
  7
ROMANS
 72
     1
 11
921654.953911
 21
7290019.626679
 31
0.0
210
0.0
220
0.0
230
1.0
  0
TEXT
  8
11
  6
CONTINUOUS
 62
     7
  5
42
 10
924050.807
 20
7289921.098
 30
0.0
 40
8.0
  1
5190'
 50
358.1194
  7
ROMANS
 72
     4
 11
924068.261931
 21
7289924.527032
 31
0.0
210
0.0
220
0.0
230
1.0
  0
TEXT
  8
11
  6
CONTINUOUS
 62
     7
  5
43
 10
926821.289
 20
7289820.976
 30
0.0
 40
8.0
  1
50'
 50
88.1194
  7
ROMANS
 72
     4
 11
926817.597433
 21
7289830.43524
 31
0.0
210
0.0
220
0.0
230
1.0
  0
TEXT
  8
11
  6
CONTINUOUS
 62
     7
  5
44
 10
921717.541
 20
7289980.975
 30
0.0
 40
8.0
  1
50'
 50
88.1194
  7
ROMANS
 72
     4
 11
921713.849433
 21
7289990.43424
 31
0.0
210
0.0
220
0.0
230
1.0
  0
TEXT
  8
11
  6
CONTINUOUS
 62
     7
  5
45
 10
924840.556
 20
7295078.306
 30
0.0
 40
8.0
  1
43.83'
 50
88.1194
  7
ROMANS
 72
     4
 11
924837.258235
 21
7295099.758777
 31
0.0
210
0.0
220
0.0
230
1.0
  0
TEXT
  8
11
  6
CONTINUOUS
 62
     7
  5
46
 10
925494.541
 20
7294916.796
 30
0.0
 40
8.0
  1
285'
 50
54.1194
  7
ROMANS
 72
     4
 11
925499.114485
 21
7294929.943324
 31
0.0
210
0.0
220
0.0
230
1.0
  0
TEXT
  8
11
  6
CONTINUOUS
 62
     7
  5
47
 10
926824.399
 20
7294122.704
 30
0.0
 40
8.0
  1
285'
 50
54.1194
  7
ROMANS
 72
     4
 11
926828.972485
 21
7294135.851324
 31
0.0
210
0.0
220
0.0
230
1.0
  0
TEXT
  8
11
  6
CONTINUOUS
 62
     7
  5
48
 10
926063.857
 20
7294995.912
 30
0.0
 40
8.0
  1
100'
 50
53.1194
  7
ROMANS
 72
     4
 11
926068.659241
 21
7295008.977503
 31
0.0
210
0.0
220
0.0
230
1.0
  0
TEXT
  8
11
  6
CONTINUOUS
 62
     7
  5
49
 10
925996.654
 20
7294913.109
 30
0.0
 40
8.0
  1
100'
 50
53.1194
  7
ROMANS
 72
     4
 11
926001.456241
 21
7294926.174503
 31
0.0
210
0.0
220
0.0
230
1.0
  0
TEXT
  8
11
  6
CONTINUOUS
 62
     7
  5
4A
 10
926938.853
 20
7294407.505
 30
0.0
 40
8.0
  1
100'
 50
53.1194
  7
ROMANS
 72
     4
 11
926943.655241
 21
7294420.570503
 31
0.0
210
0.0
220
0.0
230
1.0
  0
TEXT
  8
11
  6
CONTINUOUS
 62
     7
  5
4B
 10
926883.971
 20
7294315.142
 30
0.0
 40
8.0
  1
100'
 50
53.1194
  7
ROMANS
 72
     4
 11
926888.773241
 21
7294328.207503
 31
0.0
210
0.0
220
0.0
230
1.0
  0
TEXT
  8
11
  6
CONTINUOUS
 62
     7
  5
4C
 10
926545.274
 20
7295053.306
 30
0.0
 40
8.0
  1
968.4'
 50
358.1194
  7
ROMANS
 72
     4
 11
926566.726777
 21
7295056.603765
 31
0.0
210
0.0
220
0.0
230
1.0
  0
TEXT
  8
11
  6
CONTINUOUS
 62
     7
  5
4D
 10
925586.725
 20
7295084.701
 30
0.0
 40
8.0
  1
174.25'
 50
358.1194
  7
ROMANS
 72
     4
 11
925612.175622
 21
7295087.867498
 31
0.0
210
0.0
220
0.0
230
1.0
  0
TEXT
  8
11
  6
CONTINUOUS
 62
     7
  5
4E
 10
927001.777
 20
7294743.954
 30
0.0
 40
8.0
  1
615.87'
 50
88.1194
  7
ROMANS
 72
     4
 11
926998.610502
 21
7294769.404622
 31
0.0
210
0.0
220
0.0
230
1.0
  0
TEXT
  8
11
  6
CONTINUOUS
 62
     7
  5
4F
 10
926839.921
 20
7289860.187
 30
0.0
 40
8.0
  1
100'
 50
88.1194
  7
ROMANS
 72
     4
 11
926836.3607
 21
7289873.644086
 31
0.0
210
0.0
220
0.0
230
1.0
  0
TEXT
  8
11
  6
CONTINUOUS
 62
     7
  5
50
 10
921646.375
 20
7290072.675
 30
0.0
 40
8.0
  1
70'
 50
88.1194
  7
ROMANS
 72
     4
 11
921642.683433
 21
7290082.13424
 31
0.0
210
0.0
220
0.0
230
1.0
  0
POLYLINE
  8
1
  6
HIDDEN
 62
   253
  5
52
 66
     1
 10
0.0
 20
0.0
 30
0.0
 70
     1
  0
VERTEX
  8
1
  6
HIDDEN
 62
   253
  5
53
 10
927017.633
 20
7295051.142
 30
0.0
  0
VERTEX
  8
1
  6
HIDDEN
 62
   253
  5
54
 10
921740.476
 20
7295224.415
 30
0.0
  0
VERTEX
  8
1
  6
HIDDEN
 62
   253
  5
55
 10
921559.875
 20
7289969.217
 30
0.0
  0
VERTEX
  8
1
  6
HIDDEN
 62
   253
  5
56
 10
926850.248
 20
7289810.264
 30
0.0
  0
SEQEND
  8
1
  6
HIDDEN
 62
   253
  5
57
  0
TEXT
  8
19
  6
CONTINUOUS
 62
     1
  5
5A
 10
922675.409
 20
7289943.845
 30
0.0
 40
24.0
  1
URSULINE   ST
 50
358.1194
  7
ROMANC
 72
     4
 11
922839.546559
 21
7289950.4621
 31
0.0
210
0.0
220
0.0
230
1.0
  0
TEXT
  8
19
  6
CONTINUOUS
 62
     1
  5
5B
 10
924938.369
 20
7289859.375
 30
0.0
 40
24.0
  1
URSULINE   ST
 50
358.1194
  7
ROMANC
 72
     4
 11
925102.506559
 21
7289865.9921
 31
0.0
210
0.0
220
0.0
230
1.0
  0
TEXT
  8
19
  6
CONTINUOUS
 62
     1
  5
5C
 10
926007.387
 20
7294617.742
 30
0.0
 40
24.0
  1
U.S. 84 (CLOVIS RD)
 50
328.770106
  7
ROMANC
 72
     1
 11
926181.655129
 21
7294512.077156
 31
0.0
210
0.0
220
0.0
230
1.0
  0
TEXT
  8
11
  6
CONTINUOUS
 62
     7
  5
5D
 10
926508.018
 20
7294774.743
 30
0.0
 40
8.0
  1
1147.64'
 50
325.664256
  7
ROMANS
 72
     1
 11
926532.239624
 21
7294758.197976
 31
0.0
210
0.0
220
0.0
230
1.0
  0
TEXT
  8
11
  6
CONTINUOUS
 62
     7
  5
5E
 10
926004.536
 20
7294801.289
 30
0.0
 40
8.0
  1
1738.82'
 50
328.754172
  7
ROMANS
 72
     1
 11
926029.614238
 21
7294786.07365
 31
0.0
210
0.0
220
0.0
230
1.0
  0
TEXT
  8
11
  6
CONTINUOUS
 62
     7
  5
5F
 10
925987.004
 20
7294476.838
 30
0.0
 40
8.0
  1
2213.74'
 50
328.770106
  7
ROMANS
 72
     1
 11
926012.086468
 21
7294461.629625
 31
0.0
210
0.0
220
0.0
230
1.0
  0
TEXT
  8
11
  6
CONTINUOUS
 62
     7
  5
60
 10
924936.657
 20
7295060.03
 30
0.0
 40
8.0
  1
247.37'
 50
345.937286
  7
ROMANS
 72
     1
 11
924961.230779
 21
7295053.874491
 31
0.0
210
0.0
220
0.0
230
1.0
  0
TEXT
  8
11
  6
CONTINUOUS
 62
     7
  5
61
 10
924915.904
 20
7295048.734
 30
0.0
 40
8.0
  1
N77%%d49'04"W
 50
345.937286
  7
ROMANS
 72
     1
 11
924959.427251
 21
7295046.078985
 31
0.0
210
0.0
220
0.0
230
1.0
 73
     3
  0
TEXT
  8
19
  6
CONTINUOUS
 62
     1
  5
62
 10
921614.84
 20
7290129.38
 30
0.0
 40
24.0
  1
N FRANKFORD AVE
 50
88.1194
  7
ROMANC
 72
     4
 11
921609.546893
 21
7290333.840828
 31
0.0
210
0.0
220
0.0
230
1.0
  0
LINE
  8
27
  6
CONTINUOUS
 62
    32
  5
63
 10
925855.55
 20
7295090.115
 30
0.0
 11
926992.334
 21
7294320.395
 31
0.0
  0
LINE
  8
58
  6
DIVIDE
 62
   216
  5
65
 10
926854.352
 20
7289938.754
 30
0.0
 11
921506.69
 21
7290114.342
 31
0.0
  0
TEXT
  8
10
  6
CONTINUOUS
 62
   134
  5
67
 10
924141.667
 20
7292506.747
 30
0.0
 40
13.999
  1
UNSUBDIVIDED
 50
358.1194
  7
ROMANS
 11
924142.126402
 21
7292520.73846
 31
0.0
210
0.0
220
0.0
230
1.0
 73
     3
  0
TEXT
  8
10
  6
CONTINUOUS
 62
   134
  5
68
 10
926661.631
 20
7294873.986
 30
0.0
 40
13.999
  1
UNSUBDIVIDED
 50
358.1194
  7
ROMANS
 11
926662.090402
 21
7294887.97746
 31
0.0
210
0.0
220
0.0
230
1.0
 73
     3
  0
TEXT
  8
28
  6
CONTINUOUS
 62
    32
  5
6B
 10
926165.432
 20
7294910.86
 30
0.0
 40
24.0
  1
PANHANDLE & SANTA FE RR
 50
327.0
  7
txt
 72
     4
 11
926394.550837
 21
7294776.376847
 31
0.0
210
0.0
220
0.0
230
1.0
  0
ENDSEC
  0
EOF
