  0
SECTION
  2
HEADER
  9
$ACADVER
  1
AC1009
  9
$INSBASE
 10
0.0
 20
0.0
 30
0.0
  9
$EXTMIN
 10
921379.823
 20
7284513.606
 30
0.0
  9
$EXTMAX
 10
926850.249
 20
7289997.595
 30
0.0
  9
$LIMMIN
 10
0.0
 20
0.0
  9
$LIMMAX
 10
12.0
 20
9.0
  9
$ORTHOMODE
 70
     0
  9
$REGENMODE
 70
     1
  9
$FILLMODE
 70
     1
  9
$QTEXTMODE
 70
     0
  9
$MIRRTEXT
 70
     1
  9
$DRAGMODE
 70
     2
  9
$LTSCALE
 40
1.0
  9
$OSMODE
 70
     0
  9
$ATTMODE
 70
     1
  9
$TEXTSIZE
 40
0.2
  9
$TRACEWID
 40
0.05
  9
$TEXTSTYLE
  7
STANDARD
  9
$CLAYER
  8
0
  9
$CELTYPE
  6
CONTINUOUS
  9
$CECOLOR
 62
   256
  9
$DIMSCALE
 40
1.0
  9
$DIMASZ
 40
0.18
  9
$DIMEXO
 40
0.0625
  9
$DIMDLI
 40
0.38
  9
$DIMRND
 40
0.0
  9
$DIMDLE
 40
0.0
  9
$DIMEXE
 40
0.18
  9
$DIMTP
 40
0.0
  9
$DIMTM
 40
0.0
  9
$DIMTXT
 40
0.18
  9
$DIMCEN
 40
0.09
  9
$DIMTSZ
 40
0.0
  9
$DIMTOL
 70
     0
  9
$DIMLIM
 70
     0
  9
$DIMTIH
 70
     1
  9
$DIMTOH
 70
     1
  9
$DIMSE1
 70
     0
  9
$DIMSE2
 70
     0
  9
$DIMTAD
 70
     0
  9
$DIMZIN
 70
     0
  9
$DIMBLK
  1

  9
$DIMASO
 70
     1
  9
$DIMSHO
 70
     1
  9
$DIMPOST
  1

  9
$DIMAPOST
  1

  9
$DIMALT
 70
     0
  9
$DIMALTD
 70
     2
  9
$DIMALTF
 40
25.4
  9
$DIMLFAC
 40
1.0
  9
$DIMTOFL
 70
     0
  9
$DIMTVP
 40
0.0
  9
$DIMTIX
 70
     0
  9
$DIMSOXD
 70
     0
  9
$DIMSAH
 70
     0
  9
$DIMBLK1
  1

  9
$DIMBLK2
  1

  9
$DIMSTYLE
  2
STANDARD
  9
$DIMCLRD
 70
     0
  9
$DIMCLRE
 70
     0
  9
$DIMCLRT
 70
     0
  9
$DIMTFAC
 40
1.0
  9
$DIMGAP
 40
0.09
  9
$LUNITS
 70
     2
  9
$LUPREC
 70
     4
  9
$AXISMODE
 70
     0
  9
$AXISUNIT
 10
0.0
 20
0.0
  9
$SKETCHINC
 40
0.1
  9
$FILLETRAD
 40
0.0
  9
$AUNITS
 70
     0
  9
$AUPREC
 70
     0
  9
$MENU
  1
acad
  9
$ELEVATION
 40
0.0
  9
$PELEVATION
 40
0.0
  9
$THICKNESS
 40
0.0
  9
$LIMCHECK
 70
     0
  9
$BLIPMODE
 70
     1
  9
$CHAMFERA
 40
0.0
  9
$CHAMFERB
 40
0.0
  9
$SKPOLY
 70
     0
  9
$TDCREATE
 40
2453013.900104167
  9
$TDUPDATE
 40
2453013.900104167
  9
$TDINDWG
 40
0.0000000000
  9
$TDUSRTIMER
 40
0.0000000000
  9
$USRTIMER
 70
     1
  9
$ANGBASE
 50
0.0
  9
$ANGDIR
 70
     0
  9
$PDMODE
 70
     0
  9
$PDSIZE
 40
0.0
  9
$PLINEWID
 40
0.0
  9
$COORDS
 70
     0
  9
$SPLFRAME
 70
     0
  9
$SPLINETYPE
 70
     6
  9
$SPLINESEGS
 70
    10
  9
$ATTDIA
 70
     0
  9
$ATTREQ
 70
     1
  9
$HANDLING
 70
     1
  9
$HANDSEED
  5
5B7
  9
$SURFTAB1
 70
     6
  9
$SURFTAB2
 70
     6
  9
$SURFTYPE
 70
     6
  9
$SURFU
 70
     6
  9
$SURFV
 70
     6
  9
$UCSNAME
  2

  9
$UCSORG
 10
0.0
 20
0.0
 30
0.0
  9
$UCSXDIR
 10
1.0
 20
0.0
 30
0.0
  9
$UCSYDIR
 10
0.0
 20
1.0
 30
0.0
  9
$PUCSNAME
  2

  9
$PUCSORG
 10
0.0
 20
0.0
 30
0.0
  9
$PUCSXDIR
 10
1.0
 20
0.0
 30
0.0
  9
$PUCSYDIR
 10
0.0
 20
1.0
 30
0.0
  9
$USERI1
 70
     0
  9
$USERI2
 70
     0
  9
$USERI3
 70
     0
  9
$USERI4
 70
     0
  9
$USERI5
 70
     0
  9
$USERR1
 40
0.0
  9
$USERR2
 40
0.0
  9
$USERR3
 40
0.0
  9
$USERR4
 40
0.0
  9
$USERR5
 40
0.0
  9
$WORLDVIEW
 70
     1
  9
$SHADEDGE
 70
     3
  9
$SHADEDIF
 70
    70
  9
$TILEMODE
 70
     1
  9
$MAXACTVP
 70
    16
  9
$PINSBASE
 10
0.0
 20
0.0
 30
0.0
  9
$PLIMCHECK
 70
     0
  9
$PEXTMIN
 10
-1.000000E+20
 20
-1.000000E+20
 30
-1.000000E+20
  9
$PEXTMAX
 10
-1.000000E+20
 20
-1.000000E+20
 30
-1.000000E+20
  9
$PLIMMIN
 10
0.0
 20
0.0
  9
$PLIMMAX
 10
12.0
 20
9.0
  9
$UNITMODE
 70
     0
  9
$VISRETAIN
 70
     0
  9
$PLINEGEN
 70
     1
  9
$PSLTSCALE
 70
     0
  9
$TREEDEPTH
 70
  3020
  9
$DWGCODEPAGE
  3
ansi_1252
  0
ENDSEC
  0
SECTION
  2
TABLES
  0
TABLE
  2
VPORT
 70
     1
  0
VPORT
  2
*ACTIVE
 70
     0
 10
0.0
 20
0.0
 11
1.0
 21
1.0
 12
0.0
 22
0.0
 13
0.0
 23
0.0
 14
0.0
 24
0.0
 15
0.0
 25
0.0
 16
0.0
 26
0.0
 36
1.0
 17
922290.54017
 27
7285697.5545
 37
0.0
 40
223.019
 41
1.143223
 42
50.0
 43
0.004
 44
0.0
 50
0.0
 51
0.0
 71
     0
 72
   100
 73
     1
 74
     0
 75
     0
 76
     0
 77
     0
 78
     0
  0
ENDTAB
  0
TABLE
  2
LTYPE
 70
     7
  0
LTYPE
  2
CONTINUOUS
 70
     0
  3
Solid line
 72
    65
 73
     0
 40
0.0
  0
LTYPE
  2
DOT
 70
    64
  3
. . . . . . . . . . . . . . . . . . . . . . . . . . . . . . . . .
 72
    65
 73
     2
 40
0.25
 49
0.0
 49
-0.25
  0
LTYPE
  2
HIDDEN
 70
    64
  3
__ __ __ __ __ __ __ __ __ __ __ __ __ __ __ __ __ __ __ __ __ 
 72
    65
 73
     2
 40
0.375
 49
0.25
 49
-0.125
  0
LTYPE
  2
DASHED
 70
    64
  3
__ __ __ __ __ __ __ __ __ __ __ __ __ __ __ __ __ __ __ __ __
 72
    65
 73
     2
 40
0.75
 49
0.5
 49
-0.25
  0
LTYPE
  2
DASHDOT
 70
    64
  3
__ . __ . __ . __ . __ . __ . __ . __ . __ . __ . __ . __ . _
 72
    65
 73
     4
 40
1.0
 49
0.5
 49
-0.25
 49
0.0
 49
-0.25
  0
LTYPE
  2
DIVIDE
 70
    64
  3
____ . . ____ . . ____ . . ____ . . ____ . . ____ . . ____ . .
 72
    65
 73
     6
 40
1.25
 49
0.5
 49
-0.25
 49
0.0
 49
-0.25
 49
0.0
 49
-0.25
  0
LTYPE
  2
CENTER
 70
    64
  3
____ _ ____ _ ____ _ ____ _ ____ _ ____ _ ____ _ ____ _ ____ _
 72
    65
 73
     4
 40
2.0
 49
1.25
 49
-0.25
 49
0.25
 49
-0.25
  0
ENDTAB
  0
TABLE
  2
LAYER
 70
    14
  0
LAYER
  2
0
 70
     0
 62
     7
  6
CONTINUOUS
  0
LAYER
  2
CONSTRUCTION_CLASS
 70
     1
 62
     7
  6
CONTINUOUS
  0
LAYER
  2
PATTERN_CLASS
 70
     0
 62
     7
  6
CONTINUOUS
  0
LAYER
  2
6
 70
    64
 62
     7
  6
CONTINUOUS
  0
LAYER
  2
10
 70
    64
 62
     7
  6
CONTINUOUS
  0
LAYER
  2
7
 70
    64
 62
     7
  6
CONTINUOUS
  0
LAYER
  2
19
 70
    64
 62
     7
  6
CONTINUOUS
  0
LAYER
  2
15
 70
    64
 62
     7
  6
CONTINUOUS
  0
LAYER
  2
11
 70
    64
 62
     7
  6
CONTINUOUS
  0
LAYER
  2
21
 70
    64
 62
     7
  6
CONTINUOUS
  0
LAYER
  2
22
 70
    64
 62
     7
  6
CONTINUOUS
  0
LAYER
  2
1
 70
    64
 62
     7
  6
CONTINUOUS
  0
LAYER
  2
13
 70
    64
 62
     7
  6
CONTINUOUS
  0
LAYER
  2
25
 70
    64
 62
     7
  6
CONTINUOUS
  0
ENDTAB
  0
TABLE
  2
STYLE
 70
     4
  0
STYLE
  2
STANDARD
 70
     0
 40
0.0
 41
1.0
 50
0.0
 71
     0
 42
0.0
  3
txt
  4

  0
STYLE
  2
ROMANS
 70
     0
 40
0.2
 41
1.0
 50
0.0
 71
     0
 42
0.2
  3
ROMANS
  4

  0
STYLE
  2
ROMANC
 70
     0
 40
0.2
 41
1.0
 50
0.0
 71
     0
 42
0.2
  3
ROMANC
  4

  0
STYLE
  2
txt
 70
     0
 40
0.2
 41
1.0
 50
0.0
 71
     0
 42
0.2
  3
TXT
  4

  0
ENDTAB
  0
TABLE
  2
VIEW
 70
     0
  0
ENDTAB
  0
TABLE
  2
UCS
 70
     0
  0
ENDTAB
  0
TABLE
  2
APPID
 70
     1
  0
APPID
  2
ACAD
 70
     0
  0
ENDTAB
  0
TABLE
  2
DIMSTYLE
 70
     1
  0
DIMSTYLE
  2
STANDARD
 70
     0
  3

  4

  5

  6

  7

 40
1.0
 41
0.18
 42
0.0625
 43
0.38
 44
0.18
 45
0.0
 46
0.0
 47
0.0
 48
0.0
140
0.18
141
0.09
142
0.0
143
25.4
144
1.0
145
0.0
146
1.0
147
0.09
 71
     0
 72
     0
 73
     1
 74
     1
 75
     0
 76
     0
 77
     0
 78
     0
170
     0
171
     2
172
     0
173
     0
174
     0
175
     0
176
     0
177
     0
178
     0
  0
ENDTAB
  0
ENDSEC
  0
SECTION
  2
BLOCKS
  0
ENDSEC
  0
SECTION
  2
ENTITIES
  0
LINE
  8
6
  6
CONTINUOUS
 62
     7
  5
29
 10
924020.051
 20
7284649.567
 30
0.0
 11
926674.766
 21
7284550.737
 31
0.0
  0
LINE
  8
6
  6
CONTINUOUS
 62
     7
  5
2A
 10
921875.49
 20
7287000.665
 30
0.0
 11
921965.442
 21
7286997.733
 31
0.0
  0
TEXT
  8
10
  6
CONTINUOUS
 62
   134
  5
2D
 10
921502.552
 20
7286009.003
 30
0.0
 40
13.999
  1
 1
 50
358.1335
  7
ROMANS
 11
921503.007959
 21
7286022.994573
 31
0.0
210
0.0
220
0.0
230
1.0
 73
     3
  0
TEXT
  8
10
  6
CONTINUOUS
 62
   134
  5
2E
 10
921568.829
 20
7286006.843
 30
0.0
 40
13.999
  1
2 
 50
358.1335
  7
ROMANS
 11
921569.284959
 21
7286020.834573
 31
0.0
210
0.0
220
0.0
230
1.0
 73
     3
  0
TEXT
  8
10
  6
CONTINUOUS
 62
   134
  5
2F
 10
921635.104
 20
7286004.684
 30
0.0
 40
13.999
  1
3 
 50
358.1335
  7
ROMANS
 11
921635.559959
 21
7286018.675573
 31
0.0
210
0.0
220
0.0
230
1.0
 73
     3
  0
TEXT
  8
10
  6
CONTINUOUS
 62
   134
  5
30
 10
921698.73
 20
7286002.61
 30
0.0
 40
13.999
  1
4 
 50
358.1335
  7
ROMANS
 11
921699.185959
 21
7286016.601573
 31
0.0
210
0.0
220
0.0
230
1.0
 73
     3
  0
TEXT
  8
10
  6
CONTINUOUS
 62
   134
  5
31
 10
921767.656
 20
7286000.364
 30
0.0
 40
13.999
  1
5 
 50
358.1335
  7
ROMANS
 11
921768.111959
 21
7286014.355573
 31
0.0
210
0.0
220
0.0
230
1.0
 73
     3
  0
TEXT
  8
10
  6
CONTINUOUS
 62
   134
  5
32
 10
921894.907
 20
7285996.217
 30
0.0
 40
13.999
  1
6 
 50
358.1335
  7
ROMANS
 11
921895.362959
 21
7286010.208573
 31
0.0
210
0.0
220
0.0
230
1.0
 73
     3
  0
TEXT
  8
10
  6
CONTINUOUS
 62
   134
  5
33
 10
921966.485
 20
7285993.884
 30
0.0
 40
13.999
  1
7 
 50
358.1335
  7
ROMANS
 11
921966.940959
 21
7286007.875573
 31
0.0
210
0.0
220
0.0
230
1.0
 73
     3
  0
TEXT
  8
10
  6
CONTINUOUS
 62
   134
  5
34
 10
922043.365
 20
7285991.379
 30
0.0
 40
13.999
  1
8 
 50
358.1335
  7
ROMANS
 11
922043.820959
 21
7286005.370573
 31
0.0
210
0.0
220
0.0
230
1.0
 73
     3
  0
TEXT
  8
10
  6
CONTINUOUS
 62
   134
  5
35
 10
922099.441
 20
7285920.523
 30
0.0
 40
13.999
  1
9 
 50
358.1335
  7
ROMANS
 11
922099.896959
 21
7285934.514573
 31
0.0
210
0.0
220
0.0
230
1.0
 73
     3
  0
TEXT
  8
10
  6
CONTINUOUS
 62
   134
  5
36
 10
922150.646
 20
7285863.1
 30
0.0
 40
13.999
  1
10
 50
358.1335
  7
ROMANS
 11
922151.101959
 21
7285877.091573
 31
0.0
210
0.0
220
0.0
230
1.0
 73
     3
  0
TEXT
  8
10
  6
CONTINUOUS
 62
   134
  5
37
 10
922191.594
 20
7285816.632
 30
0.0
 40
13.999
  1
11
 50
358.1335
  7
ROMANS
 11
922192.049959
 21
7285830.623573
 31
0.0
210
0.0
220
0.0
230
1.0
 73
     3
  0
TEXT
  8
10
  6
CONTINUOUS
 62
   134
  5
38
 10
922243.145
 20
7285769.817
 30
0.0
 40
13.999
  1
12
 50
358.1335
  7
ROMANS
 11
922243.600959
 21
7285783.808573
 31
0.0
210
0.0
220
0.0
230
1.0
 73
     3
  0
TEXT
  8
10
  6
CONTINUOUS
 62
   134
  5
39
 10
922289.222
 20
7285717.872
 30
0.0
 40
13.999
  1
13
 50
358.1335
  7
ROMANS
 11
922289.677959
 21
7285731.863573
 31
0.0
210
0.0
220
0.0
230
1.0
 73
     3
  0
TEXT
  8
10
  6
CONTINUOUS
 62
   134
  5
3A
 10
922335.472
 20
7285671.23
 30
0.0
 40
13.999
  1
14
 50
358.1335
  7
ROMANS
 11
922335.927959
 21
7285685.221573
 31
0.0
210
0.0
220
0.0
230
1.0
 73
     3
  0
TEXT
  8
10
  6
CONTINUOUS
 62
   134
  5
3B
 10
922381.635
 20
7285621.936
 30
0.0
 40
13.999
  1
15
 50
358.1335
  7
ROMANS
 11
922382.090959
 21
7285635.927573
 31
0.0
210
0.0
220
0.0
230
1.0
 73
     3
  0
TEXT
  8
10
  6
CONTINUOUS
 62
   134
  5
3C
 10
922422.668
 20
7285578.119
 30
0.0
 40
13.999
  1
16
 50
358.1335
  7
ROMANS
 11
922423.123959
 21
7285592.110573
 31
0.0
210
0.0
220
0.0
230
1.0
 73
     3
  0
TEXT
  8
10
  6
CONTINUOUS
 62
   134
  5
3D
 10
922457.709
 20
7285513.259
 30
0.0
 40
13.999
  1
17
 50
358.1335
  7
ROMANS
 11
922458.164959
 21
7285527.250573
 31
0.0
210
0.0
220
0.0
230
1.0
 73
     3
  0
TEXT
  8
10
  6
CONTINUOUS
 62
   134
  5
3E
 10
922526.635
 20
7285511.013
 30
0.0
 40
13.999
  1
18
 50
358.1335
  7
ROMANS
 11
922527.090959
 21
7285525.004573
 31
0.0
210
0.0
220
0.0
230
1.0
 73
     3
  0
TEXT
  8
10
  6
CONTINUOUS
 62
   134
  5
3F
 10
922600.865
 20
7285508.593
 30
0.0
 40
13.999
  1
19
 50
358.1335
  7
ROMANS
 11
922601.320959
 21
7285522.584573
 31
0.0
210
0.0
220
0.0
230
1.0
 73
     3
  0
TEXT
  8
10
  6
CONTINUOUS
 62
   134
  5
40
 10
922664.49
 20
7285506.52
 30
0.0
 40
13.999
  1
20
 50
358.1335
  7
ROMANS
 11
922664.945959
 21
7285520.511573
 31
0.0
210
0.0
220
0.0
230
1.0
 73
     3
  0
TEXT
  8
10
  6
CONTINUOUS
 62
   134
  5
41
 10
922728.116
 20
7285504.447
 30
0.0
 40
13.999
  1
21
 50
358.1335
  7
ROMANS
 11
922728.571959
 21
7285518.438573
 31
0.0
210
0.0
220
0.0
230
1.0
 73
     3
  0
TEXT
  8
10
  6
CONTINUOUS
 62
   134
  5
42
 10
922797.042
 20
7285502.201
 30
0.0
 40
13.999
  1
22
 50
358.1335
  7
ROMANS
 11
922797.497959
 21
7285516.192573
 31
0.0
210
0.0
220
0.0
230
1.0
 73
     3
  0
TEXT
  8
10
  6
CONTINUOUS
 62
   134
  5
43
 10
922863.319
 20
7285500.041
 30
0.0
 40
13.999
  1
23
 50
358.1335
  7
ROMANS
 11
922863.774959
 21
7285514.032573
 31
0.0
210
0.0
220
0.0
230
1.0
 73
     3
  0
TEXT
  8
10
  6
CONTINUOUS
 62
   134
  5
44
 10
922995.871
 20
7285495.722
 30
0.0
 40
13.999
  1
24
 50
358.1335
  7
ROMANS
 11
922996.326959
 21
7285509.713573
 31
0.0
210
0.0
220
0.0
230
1.0
 73
     3
  0
TEXT
  8
10
  6
CONTINUOUS
 62
   134
  5
45
 10
923056.844
 20
7285493.735
 30
0.0
 40
13.999
  1
25
 50
358.1335
  7
ROMANS
 11
923057.299959
 21
7285507.726573
 31
0.0
210
0.0
220
0.0
230
1.0
 73
     3
  0
TEXT
  8
10
  6
CONTINUOUS
 62
   134
  5
46
 10
923125.772
 20
7285491.487
 30
0.0
 40
13.999
  1
26
 50
358.1335
  7
ROMANS
 11
923126.227959
 21
7285505.478573
 31
0.0
210
0.0
220
0.0
230
1.0
 73
     3
  0
TEXT
  8
10
  6
CONTINUOUS
 62
   134
  5
47
 10
923189.396
 20
7285489.414
 30
0.0
 40
13.999
  1
27
 50
358.1335
  7
ROMANS
 11
923189.851959
 21
7285503.405573
 31
0.0
210
0.0
220
0.0
230
1.0
 73
     3
  0
TEXT
  8
10
  6
CONTINUOUS
 62
   134
  5
48
 10
923263.625
 20
7285486.995
 30
0.0
 40
13.999
  1
28
 50
358.1335
  7
ROMANS
 11
923264.080959
 21
7285500.986573
 31
0.0
210
0.0
220
0.0
230
1.0
 73
     3
  0
TEXT
  8
10
  6
CONTINUOUS
 62
   134
  5
49
 10
923316.646
 20
7285485.267
 30
0.0
 40
13.999
  1
29
 50
358.1335
  7
ROMANS
 11
923317.101959
 21
7285499.258573
 31
0.0
210
0.0
220
0.0
230
1.0
 73
     3
  0
TEXT
  8
10
  6
CONTINUOUS
 62
   134
  5
4A
 10
923385.574
 20
7285483.021
 30
0.0
 40
13.999
  1
30
 50
358.1335
  7
ROMANS
 11
923386.029959
 21
7285497.012573
 31
0.0
210
0.0
220
0.0
230
1.0
 73
     3
  0
TEXT
  8
10
  6
CONTINUOUS
 62
   134
  5
4B
 10
923512.824
 20
7285478.875
 30
0.0
 40
13.999
  1
31
 50
358.1335
  7
ROMANS
 11
923513.279959
 21
7285492.866573
 31
0.0
210
0.0
220
0.0
230
1.0
 73
     3
  0
TEXT
  8
10
  6
CONTINUOUS
 62
   134
  5
4C
 10
923576.448
 20
7285476.801
 30
0.0
 40
13.999
  1
32
 50
358.1335
  7
ROMANS
 11
923576.903959
 21
7285490.792573
 31
0.0
210
0.0
220
0.0
230
1.0
 73
     3
  0
TEXT
  8
10
  6
CONTINUOUS
 62
   134
  5
4D
 10
923634.771
 20
7285474.901
 30
0.0
 40
13.999
  1
33
 50
358.1335
  7
ROMANS
 11
923635.226959
 21
7285488.892573
 31
0.0
210
0.0
220
0.0
230
1.0
 73
     3
  0
TEXT
  8
10
  6
CONTINUOUS
 62
   134
  5
4E
 10
923709.0
 20
7285472.482
 30
0.0
 40
13.999
  1
34
 50
358.1335
  7
ROMANS
 11
923709.455959
 21
7285486.473573
 31
0.0
210
0.0
220
0.0
230
1.0
 73
     3
  0
TEXT
  8
10
  6
CONTINUOUS
 62
   134
  5
4F
 10
923772.626
 20
7285470.409
 30
0.0
 40
13.999
  1
35
 50
358.1335
  7
ROMANS
 11
923773.081959
 21
7285484.400573
 31
0.0
210
0.0
220
0.0
230
1.0
 73
     3
  0
TEXT
  8
10
  6
CONTINUOUS
 62
   134
  5
50
 10
923836.25
 20
7285468.334
 30
0.0
 40
13.999
  1
36
 50
358.1335
  7
ROMANS
 11
923836.705959
 21
7285482.325573
 31
0.0
210
0.0
220
0.0
230
1.0
 73
     3
  0
TEXT
  8
10
  6
CONTINUOUS
 62
   134
  5
51
 10
923905.178
 20
7285466.088
 30
0.0
 40
13.999
  1
37
 50
358.1335
  7
ROMANS
 11
923905.633959
 21
7285480.079573
 31
0.0
210
0.0
220
0.0
230
1.0
 73
     3
  0
TEXT
  8
10
  6
CONTINUOUS
 62
   134
  5
52
 10
923968.803
 20
7285464.015
 30
0.0
 40
13.999
  1
38
 50
358.1335
  7
ROMANS
 11
923969.258959
 21
7285478.006573
 31
0.0
210
0.0
220
0.0
230
1.0
 73
     3
  0
TEXT
  8
10
  6
CONTINUOUS
 62
   134
  5
53
 10
923963.099
 20
7285288.975
 30
0.0
 40
13.999
  1
39
 50
358.1335
  7
ROMANS
 11
923963.554959
 21
7285302.966573
 31
0.0
210
0.0
220
0.0
230
1.0
 73
     3
  0
TEXT
  8
10
  6
CONTINUOUS
 62
   134
  5
54
 10
923896.823
 20
7285291.134
 30
0.0
 40
13.999
  1
40
 50
358.1335
  7
ROMANS
 11
923897.278959
 21
7285305.125573
 31
0.0
210
0.0
220
0.0
230
1.0
 73
     3
  0
TEXT
  8
10
  6
CONTINUOUS
 62
   134
  5
55
 10
923830.546
 20
7285293.294
 30
0.0
 40
13.999
  1
41
 50
358.1335
  7
ROMANS
 11
923831.001959
 21
7285307.285573
 31
0.0
210
0.0
220
0.0
230
1.0
 73
     3
  0
TEXT
  8
10
  6
CONTINUOUS
 62
   134
  5
56
 10
923777.526
 20
7285295.022
 30
0.0
 40
13.999
  1
42
 50
358.1335
  7
ROMANS
 11
923777.981959
 21
7285309.013573
 31
0.0
210
0.0
220
0.0
230
1.0
 73
     3
  0
TEXT
  8
10
  6
CONTINUOUS
 62
   134
  5
57
 10
923713.901
 20
7285297.095
 30
0.0
 40
13.999
  1
43
 50
358.1335
  7
ROMANS
 11
923714.356959
 21
7285311.086573
 31
0.0
210
0.0
220
0.0
230
1.0
 73
     3
  0
TEXT
  8
10
  6
CONTINUOUS
 62
   134
  5
58
 10
923650.276
 20
7285299.169
 30
0.0
 40
13.999
  1
44
 50
358.1335
  7
ROMANS
 11
923650.731959
 21
7285313.160573
 31
0.0
210
0.0
220
0.0
230
1.0
 73
     3
  0
TEXT
  8
10
  6
CONTINUOUS
 62
   134
  5
59
 10
923586.651
 20
7285301.242
 30
0.0
 40
13.999
  1
45
 50
358.1335
  7
ROMANS
 11
923587.106959
 21
7285315.233573
 31
0.0
210
0.0
220
0.0
230
1.0
 73
     3
  0
TEXT
  8
10
  6
CONTINUOUS
 62
   134
  5
5A
 10
923523.025
 20
7285303.315
 30
0.0
 40
13.999
  1
46
 50
358.1335
  7
ROMANS
 11
923523.480959
 21
7285317.306573
 31
0.0
210
0.0
220
0.0
230
1.0
 73
     3
  0
TEXT
  8
10
  6
CONTINUOUS
 62
   134
  5
5B
 10
923454.099
 20
7285305.561
 30
0.0
 40
13.999
  1
47
 50
358.1335
  7
ROMANS
 11
923454.554959
 21
7285319.552573
 31
0.0
210
0.0
220
0.0
230
1.0
 73
     3
  0
TEXT
  8
10
  6
CONTINUOUS
 62
   134
  5
5C
 10
923390.474
 20
7285307.635
 30
0.0
 40
13.999
  1
48
 50
358.1335
  7
ROMANS
 11
923390.929959
 21
7285321.626573
 31
0.0
210
0.0
220
0.0
230
1.0
 73
     3
  0
TEXT
  8
10
  6
CONTINUOUS
 62
   134
  5
5D
 10
923324.197
 20
7285309.794
 30
0.0
 40
13.999
  1
49
 50
358.1335
  7
ROMANS
 11
923324.652959
 21
7285323.785573
 31
0.0
210
0.0
220
0.0
230
1.0
 73
     3
  0
TEXT
  8
10
  6
CONTINUOUS
 62
   134
  5
5E
 10
923263.223
 20
7285311.781
 30
0.0
 40
13.999
  1
50
 50
358.1335
  7
ROMANS
 11
923263.678959
 21
7285325.772573
 31
0.0
210
0.0
220
0.0
230
1.0
 73
     3
  0
TEXT
  8
10
  6
CONTINUOUS
 62
   134
  5
5F
 10
923194.296
 20
7285314.028
 30
0.0
 40
13.999
  1
51
 50
358.1335
  7
ROMANS
 11
923194.751959
 21
7285328.019573
 31
0.0
210
0.0
220
0.0
230
1.0
 73
     3
  0
TEXT
  8
10
  6
CONTINUOUS
 62
   134
  5
60
 10
923125.369
 20
7285316.274
 30
0.0
 40
13.999
  1
52
 50
358.1335
  7
ROMANS
 11
923125.824959
 21
7285330.265573
 31
0.0
210
0.0
220
0.0
230
1.0
 73
     3
  0
TEXT
  8
10
  6
CONTINUOUS
 62
   134
  5
61
 10
923067.046
 20
7285318.175
 30
0.0
 40
13.999
  1
53
 50
358.1335
  7
ROMANS
 11
923067.501959
 21
7285332.166573
 31
0.0
210
0.0
220
0.0
230
1.0
 73
     3
  0
TEXT
  8
10
  6
CONTINUOUS
 62
   134
  5
62
 10
923003.421
 20
7285320.248
 30
0.0
 40
13.999
  1
54
 50
358.1335
  7
ROMANS
 11
923003.876959
 21
7285334.239573
 31
0.0
210
0.0
220
0.0
230
1.0
 73
     3
  0
TEXT
  8
10
  6
CONTINUOUS
 62
   134
  5
63
 10
922934.494
 20
7285322.494
 30
0.0
 40
13.999
  1
55
 50
358.1335
  7
ROMANS
 11
922934.949959
 21
7285336.485573
 31
0.0
210
0.0
220
0.0
230
1.0
 73
     3
  0
TEXT
  8
10
  6
CONTINUOUS
 62
   134
  5
64
 10
922868.218
 20
7285324.654
 30
0.0
 40
13.999
  1
56
 50
358.1335
  7
ROMANS
 11
922868.673959
 21
7285338.645573
 31
0.0
210
0.0
220
0.0
230
1.0
 73
     3
  0
TEXT
  8
10
  6
CONTINUOUS
 62
   134
  5
65
 10
922807.244
 20
7285326.641
 30
0.0
 40
13.999
  1
57
 50
358.1335
  7
ROMANS
 11
922807.699959
 21
7285340.632573
 31
0.0
210
0.0
220
0.0
230
1.0
 73
     3
  0
TEXT
  8
10
  6
CONTINUOUS
 62
   134
  5
66
 10
922803.009
 20
7285196.686
 30
0.0
 40
13.999
  1
58
 50
358.1335
  7
ROMANS
 11
922803.464959
 21
7285210.677573
 31
0.0
210
0.0
220
0.0
230
1.0
 73
     3
  0
TEXT
  8
10
  6
CONTINUOUS
 62
   134
  5
67
 10
922869.285
 20
7285194.526
 30
0.0
 40
13.999
  1
59
 50
358.1335
  7
ROMANS
 11
922869.740959
 21
7285208.517573
 31
0.0
210
0.0
220
0.0
230
1.0
 73
     3
  0
TEXT
  8
10
  6
CONTINUOUS
 62
   134
  5
68
 10
922932.91
 20
7285192.453
 30
0.0
 40
13.999
  1
60
 50
358.1335
  7
ROMANS
 11
922933.365959
 21
7285206.444573
 31
0.0
210
0.0
220
0.0
230
1.0
 73
     3
  0
TEXT
  8
10
  6
CONTINUOUS
 62
   134
  5
69
 10
922996.536
 20
7285190.38
 30
0.0
 40
13.999
  1
61
 50
358.1335
  7
ROMANS
 11
922996.991959
 21
7285204.371573
 31
0.0
210
0.0
220
0.0
230
1.0
 73
     3
  0
TEXT
  8
10
  6
CONTINUOUS
 62
   134
  5
6A
 10
923057.509
 20
7285188.393
 30
0.0
 40
13.999
  1
62
 50
358.1335
  7
ROMANS
 11
923057.964959
 21
7285202.384573
 31
0.0
210
0.0
220
0.0
230
1.0
 73
     3
  0
TEXT
  8
10
  6
CONTINUOUS
 62
   134
  5
6B
 10
923126.437
 20
7285186.147
 30
0.0
 40
13.999
  1
63
 50
358.1335
  7
ROMANS
 11
923126.892959
 21
7285200.138573
 31
0.0
210
0.0
220
0.0
230
1.0
 73
     3
  0
TEXT
  8
10
  6
CONTINUOUS
 62
   134
  5
6C
 10
923192.712
 20
7285183.987
 30
0.0
 40
13.999
  1
64
 50
358.1335
  7
ROMANS
 11
923193.167959
 21
7285197.978573
 31
0.0
210
0.0
220
0.0
230
1.0
 73
     3
  0
TEXT
  8
10
  6
CONTINUOUS
 62
   134
  5
6D
 10
923253.686
 20
7285182.0
 30
0.0
 40
13.999
  1
65
 50
358.1335
  7
ROMANS
 11
923254.141959
 21
7285195.991573
 31
0.0
210
0.0
220
0.0
230
1.0
 73
     3
  0
TEXT
  8
10
  6
CONTINUOUS
 62
   134
  5
6E
 10
923319.962
 20
7285179.839
 30
0.0
 40
13.999
  1
66
 50
358.1335
  7
ROMANS
 11
923320.417959
 21
7285193.830573
 31
0.0
210
0.0
220
0.0
230
1.0
 73
     3
  0
TEXT
  8
10
  6
CONTINUOUS
 62
   134
  5
6F
 10
923388.889
 20
7285177.593
 30
0.0
 40
13.999
  1
67
 50
358.1335
  7
ROMANS
 11
923389.344959
 21
7285191.584573
 31
0.0
210
0.0
220
0.0
230
1.0
 73
     3
  0
TEXT
  8
10
  6
CONTINUOUS
 62
   134
  5
70
 10
923452.515
 20
7285175.52
 30
0.0
 40
13.999
  1
68
 50
358.1335
  7
ROMANS
 11
923452.970959
 21
7285189.511573
 31
0.0
210
0.0
220
0.0
230
1.0
 73
     3
  0
TEXT
  8
10
  6
CONTINUOUS
 62
   134
  5
71
 10
923516.14
 20
7285173.447
 30
0.0
 40
13.999
  1
69
 50
358.1335
  7
ROMANS
 11
923516.595959
 21
7285187.438573
 31
0.0
210
0.0
220
0.0
230
1.0
 73
     3
  0
TEXT
  8
10
  6
CONTINUOUS
 62
   134
  5
72
 10
923585.067
 20
7285171.201
 30
0.0
 40
13.999
  1
70
 50
358.1335
  7
ROMANS
 11
923585.522959
 21
7285185.192573
 31
0.0
210
0.0
220
0.0
230
1.0
 73
     3
  0
TEXT
  8
10
  6
CONTINUOUS
 62
   134
  5
73
 10
923651.343
 20
7285169.041
 30
0.0
 40
13.999
  1
71
 50
358.1335
  7
ROMANS
 11
923651.798959
 21
7285183.032573
 31
0.0
210
0.0
220
0.0
230
1.0
 73
     3
  0
TEXT
  8
10
  6
CONTINUOUS
 62
   134
  5
74
 10
923707.015
 20
7285167.227
 30
0.0
 40
13.999
  1
72
 50
358.1335
  7
ROMANS
 11
923707.470959
 21
7285181.218573
 31
0.0
210
0.0
220
0.0
230
1.0
 73
     3
  0
TEXT
  8
10
  6
CONTINUOUS
 62
   134
  5
75
 10
923767.989
 20
7285165.24
 30
0.0
 40
13.999
  1
73
 50
358.1335
  7
ROMANS
 11
923768.444959
 21
7285179.231573
 31
0.0
210
0.0
220
0.0
230
1.0
 73
     3
  0
TEXT
  8
10
  6
CONTINUOUS
 62
   134
  5
76
 10
923821.01
 20
7285163.512
 30
0.0
 40
13.999
  1
74
 50
358.1335
  7
ROMANS
 11
923821.465959
 21
7285177.503573
 31
0.0
210
0.0
220
0.0
230
1.0
 73
     3
  0
TEXT
  8
10
  6
CONTINUOUS
 62
   134
  5
77
 10
923892.588
 20
7285161.179
 30
0.0
 40
13.999
  1
75
 50
358.1335
  7
ROMANS
 11
923893.043959
 21
7285175.170573
 31
0.0
210
0.0
220
0.0
230
1.0
 73
     3
  0
TEXT
  8
10
  6
CONTINUOUS
 62
   134
  5
78
 10
923953.562
 20
7285159.192
 30
0.0
 40
13.999
  1
76
 50
358.1335
  7
ROMANS
 11
923954.017959
 21
7285173.183573
 31
0.0
210
0.0
220
0.0
230
1.0
 73
     3
  0
TEXT
  8
10
  6
CONTINUOUS
 62
   134
  5
79
 10
923947.944
 20
7284986.803
 30
0.0
 40
13.999
  1
77
 50
358.1335
  7
ROMANS
 11
923948.399959
 21
7285000.794573
 31
0.0
210
0.0
220
0.0
230
1.0
 73
     3
  0
TEXT
  8
10
  6
CONTINUOUS
 62
   134
  5
7A
 10
923889.621
 20
7284988.703
 30
0.0
 40
13.999
  1
78
 50
358.1335
  7
ROMANS
 11
923890.076959
 21
7285002.694573
 31
0.0
210
0.0
220
0.0
230
1.0
 73
     3
  0
TEXT
  8
10
  6
CONTINUOUS
 62
   134
  5
7B
 10
923825.995
 20
7284990.777
 30
0.0
 40
13.999
  1
79
 50
358.1335
  7
ROMANS
 11
923826.450959
 21
7285004.768573
 31
0.0
210
0.0
220
0.0
230
1.0
 73
     3
  0
TEXT
  8
10
  6
CONTINUOUS
 62
   134
  5
7C
 10
923762.372
 20
7284992.85
 30
0.0
 40
13.999
  1
80
 50
358.1335
  7
ROMANS
 11
923762.827959
 21
7285006.841573
 31
0.0
210
0.0
220
0.0
230
1.0
 73
     3
  0
TEXT
  8
10
  6
CONTINUOUS
 62
   134
  5
7D
 10
923693.444
 20
7284995.096
 30
0.0
 40
13.999
  1
81
 50
358.1335
  7
ROMANS
 11
923693.899959
 21
7285009.087573
 31
0.0
210
0.0
220
0.0
230
1.0
 73
     3
  0
TEXT
  8
10
  6
CONTINUOUS
 62
   134
  5
7E
 10
923708.631
 20
7284891.058
 30
0.0
 40
13.999
  1
82
 50
358.1335
  7
ROMANS
 11
923709.086959
 21
7284905.049573
 31
0.0
210
0.0
220
0.0
230
1.0
 73
     3
  0
TEXT
  8
10
  6
CONTINUOUS
 62
   134
  5
7F
 10
923706.47
 20
7284824.754
 30
0.0
 40
13.999
  1
83
 50
358.1335
  7
ROMANS
 11
923706.925959
 21
7284838.745573
 31
0.0
210
0.0
220
0.0
230
1.0
 73
     3
  0
TEXT
  8
10
  6
CONTINUOUS
 62
   134
  5
80
 10
923704.309
 20
7284758.452
 30
0.0
 40
13.999
  1
84
 50
358.1335
  7
ROMANS
 11
923704.764959
 21
7284772.443573
 31
0.0
210
0.0
220
0.0
230
1.0
 73
     3
  0
TEXT
  8
10
  6
CONTINUOUS
 62
   134
  5
81
 10
923702.061
 20
7284689.495
 30
0.0
 40
13.999
  1
85
 50
358.1335
  7
ROMANS
 11
923702.516959
 21
7284703.486573
 31
0.0
210
0.0
220
0.0
230
1.0
 73
     3
  0
TEXT
  8
10
  6
CONTINUOUS
 62
   134
  5
82
 10
923537.697
 20
7284694.852
 30
0.0
 40
13.999
  1
86
 50
358.1335
  7
ROMANS
 11
923538.152959
 21
7284708.843573
 31
0.0
210
0.0
220
0.0
230
1.0
 73
     3
  0
TEXT
  8
10
  6
CONTINUOUS
 62
   134
  5
83
 10
923539.944
 20
7284763.808
 30
0.0
 40
13.999
  1
87
 50
358.1335
  7
ROMANS
 11
923540.399959
 21
7284777.799573
 31
0.0
210
0.0
220
0.0
230
1.0
 73
     3
  0
TEXT
  8
10
  6
CONTINUOUS
 62
   134
  5
84
 10
923542.105
 20
7284830.111
 30
0.0
 40
13.999
  1
88
 50
358.1335
  7
ROMANS
 11
923542.560959
 21
7284844.102573
 31
0.0
210
0.0
220
0.0
230
1.0
 73
     3
  0
TEXT
  8
10
  6
CONTINUOUS
 62
   134
  5
85
 10
923544.179
 20
7284893.762
 30
0.0
 40
13.999
  1
89
 50
358.1335
  7
ROMANS
 11
923544.634959
 21
7284907.753573
 31
0.0
210
0.0
220
0.0
230
1.0
 73
     3
  0
TEXT
  8
10
  6
CONTINUOUS
 62
   134
  5
86
 10
923571.495
 20
7284999.07
 30
0.0
 40
13.999
  1
90
 50
358.1335
  7
ROMANS
 11
923571.950959
 21
7285013.061573
 31
0.0
210
0.0
220
0.0
230
1.0
 73
     3
  0
TEXT
  8
10
  6
CONTINUOUS
 62
   134
  5
87
 10
923510.521
 20
7285001.057
 30
0.0
 40
13.999
  1
91
 50
358.1335
  7
ROMANS
 11
923510.976959
 21
7285015.048573
 31
0.0
210
0.0
220
0.0
230
1.0
 73
     3
  0
TEXT
  8
10
  6
CONTINUOUS
 62
   134
  5
88
 10
923446.897
 20
7285003.13
 30
0.0
 40
13.999
  1
92
 50
358.1335
  7
ROMANS
 11
923447.352959
 21
7285017.121573
 31
0.0
210
0.0
220
0.0
230
1.0
 73
     3
  0
TEXT
  8
10
  6
CONTINUOUS
 62
   134
  5
89
 10
923388.573
 20
7285005.031
 30
0.0
 40
13.999
  1
93
 50
358.1335
  7
ROMANS
 11
923389.028959
 21
7285019.022573
 31
0.0
210
0.0
220
0.0
230
1.0
 73
     3
  0
TEXT
  8
10
  6
CONTINUOUS
 62
   134
  5
8A
 10
923411.627
 20
7284898.082
 30
0.0
 40
13.999
  1
94
 50
358.1335
  7
ROMANS
 11
923412.082959
 21
7284912.073573
 31
0.0
210
0.0
220
0.0
230
1.0
 73
     3
  0
TEXT
  8
10
  6
CONTINUOUS
 62
   134
  5
8B
 10
923409.553
 20
7284834.43
 30
0.0
 40
13.999
  1
95
 50
358.1335
  7
ROMANS
 11
923410.008959
 21
7284848.421573
 31
0.0
210
0.0
220
0.0
230
1.0
 73
     3
  0
TEXT
  8
10
  6
CONTINUOUS
 62
   134
  5
8C
 10
923407.479
 20
7284770.779
 30
0.0
 40
13.999
  1
96
 50
358.1335
  7
ROMANS
 11
923407.934959
 21
7284784.770573
 31
0.0
210
0.0
220
0.0
230
1.0
 73
     3
  0
TEXT
  8
10
  6
CONTINUOUS
 62
   134
  5
8D
 10
923405.058
 20
7284696.519
 30
0.0
 40
13.999
  1
97
 50
358.1335
  7
ROMANS
 11
923405.513959
 21
7284710.510573
 31
0.0
210
0.0
220
0.0
230
1.0
 73
     3
  0
TEXT
  8
10
  6
CONTINUOUS
 62
   134
  5
8E
 10
923236.745
 20
7284906.436
 30
0.0
 40
13.999
  1
101
 50
358.1335
  7
ROMANS
 11
923237.200959
 21
7284920.427573
 31
0.0
210
0.0
220
0.0
230
1.0
 73
     3
  0
TEXT
  8
10
  6
CONTINUOUS
 62
   134
  5
8F
 10
923234.498
 20
7284837.48
 30
0.0
 40
13.999
  1
100
 50
358.1335
  7
ROMANS
 11
923234.953959
 21
7284851.471573
 31
0.0
210
0.0
220
0.0
230
1.0
 73
     3
  0
TEXT
  8
10
  6
CONTINUOUS
 62
   134
  5
90
 10
923232.51
 20
7284776.481
 30
0.0
 40
13.999
  1
99 
 50
358.1335
  7
ROMANS
 11
923232.965959
 21
7284790.472573
 31
0.0
210
0.0
220
0.0
230
1.0
 73
     3
  0
TEXT
  8
10
  6
CONTINUOUS
 62
   134
  5
91
 10
923230.09
 20
7284702.221
 30
0.0
 40
13.999
  1
98 
 50
358.1335
  7
ROMANS
 11
923230.545959
 21
7284716.212573
 31
0.0
210
0.0
220
0.0
230
1.0
 73
     3
  0
TEXT
  8
10
  6
CONTINUOUS
 62
   134
  5
92
 10
923264.061
 20
7285011.745
 30
0.0
 40
13.999
  1
102
 50
358.1335
  7
ROMANS
 11
923264.516959
 21
7285025.736573
 31
0.0
210
0.0
220
0.0
230
1.0
 73
     3
  0
TEXT
  8
10
  6
CONTINUOUS
 62
   134
  5
93
 10
923203.087
 20
7285013.731
 30
0.0
 40
13.999
  1
103
 50
358.1335
  7
ROMANS
 11
923203.542959
 21
7285027.722573
 31
0.0
210
0.0
220
0.0
230
1.0
 73
     3
  0
TEXT
  8
10
  6
CONTINUOUS
 62
   134
  5
94
 10
923142.113
 20
7285015.718
 30
0.0
 40
13.999
  1
104
 50
358.1335
  7
ROMANS
 11
923142.568959
 21
7285029.709573
 31
0.0
210
0.0
220
0.0
230
1.0
 73
     3
  0
TEXT
  8
10
  6
CONTINUOUS
 62
   134
  5
95
 10
923081.139
 20
7285017.705
 30
0.0
 40
13.999
  1
105
 50
358.1335
  7
ROMANS
 11
923081.594959
 21
7285031.696573
 31
0.0
210
0.0
220
0.0
230
1.0
 73
     3
  0
TEXT
  8
10
  6
CONTINUOUS
 62
   134
  5
96
 10
922969.795
 20
7285021.334
 30
0.0
 40
13.999
  1
114
 50
358.1335
  7
ROMANS
 11
922970.250959
 21
7285035.325573
 31
0.0
210
0.0
220
0.0
230
1.0
 73
     3
  0
TEXT
  8
10
  6
CONTINUOUS
 62
   134
  5
97
 10
922903.52
 20
7285023.494
 30
0.0
 40
13.999
  1
115
 50
358.1335
  7
ROMANS
 11
922903.975959
 21
7285037.485573
 31
0.0
210
0.0
220
0.0
230
1.0
 73
     3
  0
TEXT
  8
10
  6
CONTINUOUS
 62
   134
  5
98
 10
922842.545
 20
7285025.481
 30
0.0
 40
13.999
  1
116
 50
358.1335
  7
ROMANS
 11
922843.000959
 21
7285039.472573
 31
0.0
210
0.0
220
0.0
230
1.0
 73
     3
  0
TEXT
  8
10
  6
CONTINUOUS
 62
   134
  5
99
 10
922781.571
 20
7285027.468
 30
0.0
 40
13.999
  1
117
 50
358.1335
  7
ROMANS
 11
922782.026959
 21
7285041.459573
 31
0.0
210
0.0
220
0.0
230
1.0
 73
     3
  0
TEXT
  8
10
  6
CONTINUOUS
 62
   134
  5
9A
 10
923104.193
 20
7284910.756
 30
0.0
 40
13.999
  1
106
 50
358.1335
  7
ROMANS
 11
923104.648959
 21
7284924.747573
 31
0.0
210
0.0
220
0.0
230
1.0
 73
     3
  0
TEXT
  8
10
  6
CONTINUOUS
 62
   134
  5
9B
 10
923101.946
 20
7284841.801
 30
0.0
 40
13.999
  1
107
 50
358.1335
  7
ROMANS
 11
923102.401959
 21
7284855.792573
 31
0.0
210
0.0
220
0.0
230
1.0
 73
     3
  0
TEXT
  8
10
  6
CONTINUOUS
 62
   134
  5
9C
 10
923099.871
 20
7284778.149
 30
0.0
 40
13.999
  1
108
 50
358.1335
  7
ROMANS
 11
923100.326959
 21
7284792.140573
 31
0.0
210
0.0
220
0.0
230
1.0
 73
     3
  0
TEXT
  8
10
  6
CONTINUOUS
 62
   134
  5
9D
 10
923097.538
 20
7284706.542
 30
0.0
 40
13.999
  1
109
 50
358.1335
  7
ROMANS
 11
923097.993959
 21
7284720.533573
 31
0.0
210
0.0
220
0.0
230
1.0
 73
     3
  0
TEXT
  8
10
  6
CONTINUOUS
 62
   134
  5
9E
 10
922933.174
 20
7284711.897
 30
0.0
 40
13.999
  1
110
 50
358.1335
  7
ROMANS
 11
922933.629959
 21
7284725.888573
 31
0.0
210
0.0
220
0.0
230
1.0
 73
     3
  0
TEXT
  8
10
  6
CONTINUOUS
 62
   134
  5
9F
 10
922935.507
 20
7284783.506
 30
0.0
 40
13.999
  1
111
 50
358.1335
  7
ROMANS
 11
922935.962959
 21
7284797.497573
 31
0.0
210
0.0
220
0.0
230
1.0
 73
     3
  0
TEXT
  8
10
  6
CONTINUOUS
 62
   134
  5
A0
 10
922937.581
 20
7284847.156
 30
0.0
 40
13.999
  1
112
 50
358.1335
  7
ROMANS
 11
922938.036959
 21
7284861.147573
 31
0.0
210
0.0
220
0.0
230
1.0
 73
     3
  0
TEXT
  8
10
  6
CONTINUOUS
 62
   134
  5
A1
 10
922939.742
 20
7284913.46
 30
0.0
 40
13.999
  1
113
 50
358.1335
  7
ROMANS
 11
922940.197959
 21
7284927.451573
 31
0.0
210
0.0
220
0.0
230
1.0
 73
     3
  0
TEXT
  8
10
  6
CONTINUOUS
 62
   134
  5
A2
 10
922801.887
 20
7284917.952
 30
0.0
 40
13.999
  1
118
 50
358.1335
  7
ROMANS
 11
922802.342959
 21
7284931.943573
 31
0.0
210
0.0
220
0.0
230
1.0
 73
     3
  0
TEXT
  8
10
  6
CONTINUOUS
 62
   134
  5
A3
 10
922799.726
 20
7284851.649
 30
0.0
 40
13.999
  1
119
 50
358.1335
  7
ROMANS
 11
922800.181959
 21
7284865.640573
 31
0.0
210
0.0
220
0.0
230
1.0
 73
     3
  0
TEXT
  8
10
  6
CONTINUOUS
 62
   134
  5
A4
 10
922797.566
 20
7284785.346
 30
0.0
 40
13.999
  1
120
 50
358.1335
  7
ROMANS
 11
922798.021959
 21
7284799.337573
 31
0.0
210
0.0
220
0.0
230
1.0
 73
     3
  0
TEXT
  8
10
  6
CONTINUOUS
 62
   134
  5
A5
 10
922795.319
 20
7284716.39
 30
0.0
 40
13.999
  1
121
 50
358.1335
  7
ROMANS
 11
922795.774959
 21
7284730.381573
 31
0.0
210
0.0
220
0.0
230
1.0
 73
     3
  0
TEXT
  8
10
  6
CONTINUOUS
 62
   134
  5
A6
 10
922625.652
 20
7284721.919
 30
0.0
 40
13.999
  1
122
 50
358.1335
  7
ROMANS
 11
922626.107959
 21
7284735.910573
 31
0.0
210
0.0
220
0.0
230
1.0
 73
     3
  0
TEXT
  8
10
  6
CONTINUOUS
 62
   134
  5
A7
 10
922628.073
 20
7284796.179
 30
0.0
 40
13.999
  1
123
 50
358.1335
  7
ROMANS
 11
922628.528959
 21
7284810.170573
 31
0.0
210
0.0
220
0.0
230
1.0
 73
     3
  0
TEXT
  8
10
  6
CONTINUOUS
 62
   134
  5
A8
 10
922630.147
 20
7284859.829
 30
0.0
 40
13.999
  1
124
 50
358.1335
  7
ROMANS
 11
922630.602959
 21
7284873.820573
 31
0.0
210
0.0
220
0.0
230
1.0
 73
     3
  0
TEXT
  8
10
  6
CONTINUOUS
 62
   134
  5
A9
 10
922632.221
 20
7284923.481
 30
0.0
 40
13.999
  1
125
 50
358.1335
  7
ROMANS
 11
922632.676959
 21
7284937.472573
 31
0.0
210
0.0
220
0.0
230
1.0
 73
     3
  0
TEXT
  8
10
  6
CONTINUOUS
 62
   134
  5
AA
 10
922634.295
 20
7284987.134
 30
0.0
 40
13.999
  1
126
 50
358.1335
  7
ROMANS
 11
922634.750959
 21
7285001.125573
 31
0.0
210
0.0
220
0.0
230
1.0
 73
     3
  0
TEXT
  8
10
  6
CONTINUOUS
 62
   134
  5
AB
 10
922636.197
 20
7285045.48
 30
0.0
 40
13.999
  1
127
 50
358.1335
  7
ROMANS
 11
922636.652959
 21
7285059.471573
 31
0.0
210
0.0
220
0.0
230
1.0
 73
     3
  0
TEXT
  8
10
  6
CONTINUOUS
 62
   134
  5
AC
 10
922638.271
 20
7285109.132
 30
0.0
 40
13.999
  1
128
 50
358.1335
  7
ROMANS
 11
922638.726959
 21
7285123.123573
 31
0.0
210
0.0
220
0.0
230
1.0
 73
     3
  0
TEXT
  8
10
  6
CONTINUOUS
 62
   134
  5
AD
 10
922640.086
 20
7285164.826
 30
0.0
 40
13.999
  1
129
 50
358.1335
  7
ROMANS
 11
922640.541959
 21
7285178.817573
 31
0.0
210
0.0
220
0.0
230
1.0
 73
     3
  0
TEXT
  8
10
  6
CONTINUOUS
 62
   134
  5
AE
 10
922641.988
 20
7285223.172
 30
0.0
 40
13.999
  1
130
 50
358.1335
  7
ROMANS
 11
922642.443959
 21
7285237.163573
 31
0.0
210
0.0
220
0.0
230
1.0
 73
     3
  0
TEXT
  8
10
  6
CONTINUOUS
 62
   134
  5
AF
 10
922514.737
 20
7285227.32
 30
0.0
 40
13.999
  1
135
 50
358.1335
  7
ROMANS
 11
922515.192959
 21
7285241.311573
 31
0.0
210
0.0
220
0.0
230
1.0
 73
     3
  0
TEXT
  8
10
  6
CONTINUOUS
 62
   134
  5
B0
 10
922512.835
 20
7285168.973
 30
0.0
 40
13.999
  1
136
 50
358.1335
  7
ROMANS
 11
922513.290959
 21
7285182.964573
 31
0.0
210
0.0
220
0.0
230
1.0
 73
     3
  0
TEXT
  8
10
  6
CONTINUOUS
 62
   134
  5
B1
 10
922510.934
 20
7285110.625
 30
0.0
 40
13.999
  1
137
 50
358.1335
  7
ROMANS
 11
922511.389959
 21
7285124.616573
 31
0.0
210
0.0
220
0.0
230
1.0
 73
     3
  0
TEXT
  8
10
  6
CONTINUOUS
 62
   134
  5
B2
 10
922508.946
 20
7285049.627
 30
0.0
 40
13.999
  1
138
 50
358.1335
  7
ROMANS
 11
922509.401959
 21
7285063.618573
 31
0.0
210
0.0
220
0.0
230
1.0
 73
     3
  0
TEXT
  8
10
  6
CONTINUOUS
 62
   134
  5
B3
 10
922507.045
 20
7284991.28
 30
0.0
 40
13.999
  1
139
 50
358.1335
  7
ROMANS
 11
922507.500959
 21
7285005.271573
 31
0.0
210
0.0
220
0.0
230
1.0
 73
     3
  0
TEXT
  8
10
  6
CONTINUOUS
 62
   134
  5
B4
 10
922504.971
 20
7284927.628
 30
0.0
 40
13.999
  1
140
 50
358.1335
  7
ROMANS
 11
922505.426959
 21
7284941.619573
 31
0.0
210
0.0
220
0.0
230
1.0
 73
     3
  0
TEXT
  8
10
  6
CONTINUOUS
 62
   134
  5
B5
 10
922502.81
 20
7284861.325
 30
0.0
 40
13.999
  1
141
 50
358.1335
  7
ROMANS
 11
922503.265959
 21
7284875.316573
 31
0.0
210
0.0
220
0.0
230
1.0
 73
     3
  0
TEXT
  8
10
  6
CONTINUOUS
 62
   134
  5
B6
 10
922500.735
 20
7284797.674
 30
0.0
 40
13.999
  1
142
 50
358.1335
  7
ROMANS
 11
922501.190959
 21
7284811.665573
 31
0.0
210
0.0
220
0.0
230
1.0
 73
     3
  0
TEXT
  8
10
  6
CONTINUOUS
 62
   134
  5
B7
 10
922498.488
 20
7284728.717
 30
0.0
 40
13.999
  1
143
 50
358.1335
  7
ROMANS
 11
922498.943959
 21
7284742.708573
 31
0.0
210
0.0
220
0.0
230
1.0
 73
     3
  0
TEXT
  8
10
  6
CONTINUOUS
 62
   134
  5
B8
 10
922491.771
 20
7285336.921
 30
0.0
 40
13.999
  1
134
 50
358.1335
  7
ROMANS
 11
922492.226959
 21
7285350.912573
 31
0.0
210
0.0
220
0.0
230
1.0
 73
     3
  0
TEXT
  8
10
  6
CONTINUOUS
 62
   134
  5
B9
 10
922550.092
 20
7285335.021
 30
0.0
 40
13.999
  1
133
 50
358.1335
  7
ROMANS
 11
922550.547959
 21
7285349.012573
 31
0.0
210
0.0
220
0.0
230
1.0
 73
     3
  0
TEXT
  8
10
  6
CONTINUOUS
 62
   134
  5
BA
 10
922611.068
 20
7285333.034
 30
0.0
 40
13.999
  1
132
 50
358.1335
  7
ROMANS
 11
922611.523959
 21
7285347.025573
 31
0.0
210
0.0
220
0.0
230
1.0
 73
     3
  0
TEXT
  8
10
  6
CONTINUOUS
 62
   134
  5
BB
 10
922674.692
 20
7285330.96
 30
0.0
 40
13.999
  1
131
 50
358.1335
  7
ROMANS
 11
922675.147959
 21
7285344.951573
 31
0.0
210
0.0
220
0.0
230
1.0
 73
     3
  0
TEXT
  8
10
  6
CONTINUOUS
 62
   134
  5
BC
 10
923967.649
 20
7285591.492
 30
0.0
 40
13.999
  1
181
 50
358.1335
  7
ROMANS
 11
923968.104959
 21
7285605.483573
 31
0.0
210
0.0
220
0.0
230
1.0
 73
     3
  0
TEXT
  8
10
  6
CONTINUOUS
 62
   134
  5
BD
 10
923898.722
 20
7285593.738
 30
0.0
 40
13.999
  1
180
 50
358.1335
  7
ROMANS
 11
923899.177959
 21
7285607.729573
 31
0.0
210
0.0
220
0.0
230
1.0
 73
     3
  0
TEXT
  8
10
  6
CONTINUOUS
 62
   134
  5
BE
 10
923835.097
 20
7285595.811
 30
0.0
 40
13.999
  1
179
 50
358.1335
  7
ROMANS
 11
923835.552959
 21
7285609.802573
 31
0.0
210
0.0
220
0.0
230
1.0
 73
     3
  0
TEXT
  8
10
  6
CONTINUOUS
 62
   134
  5
BF
 10
923768.821
 20
7285597.971
 30
0.0
 40
13.999
  1
178
 50
358.1335
  7
ROMANS
 11
923769.276959
 21
7285611.962573
 31
0.0
210
0.0
220
0.0
230
1.0
 73
     3
  0
TEXT
  8
10
  6
CONTINUOUS
 62
   134
  5
C0
 10
923707.847
 20
7285599.958
 30
0.0
 40
13.999
  1
177
 50
358.1335
  7
ROMANS
 11
923708.302959
 21
7285613.949573
 31
0.0
210
0.0
220
0.0
230
1.0
 73
     3
  0
TEXT
  8
10
  6
CONTINUOUS
 62
   134
  5
C1
 10
923638.92
 20
7285602.204
 30
0.0
 40
13.999
  1
176
 50
358.1335
  7
ROMANS
 11
923639.375959
 21
7285616.195573
 31
0.0
210
0.0
220
0.0
230
1.0
 73
     3
  0
TEXT
  8
10
  6
CONTINUOUS
 62
   134
  5
C2
 10
923575.295
 20
7285604.277
 30
0.0
 40
13.999
  1
175
 50
358.1335
  7
ROMANS
 11
923575.750959
 21
7285618.268573
 31
0.0
210
0.0
220
0.0
230
1.0
 73
     3
  0
TEXT
  8
10
  6
CONTINUOUS
 62
   134
  5
C3
 10
923506.368
 20
7285606.524
 30
0.0
 40
13.999
  1
174
 50
358.1335
  7
ROMANS
 11
923506.823959
 21
7285620.515573
 31
0.0
210
0.0
220
0.0
230
1.0
 73
     3
  0
TEXT
  8
10
  6
CONTINUOUS
 62
   134
  5
C4
 10
923384.419
 20
7285610.498
 30
0.0
 40
13.999
  1
173
 50
358.1335
  7
ROMANS
 11
923384.874959
 21
7285624.489573
 31
0.0
210
0.0
220
0.0
230
1.0
 73
     3
  0
TEXT
  8
10
  6
CONTINUOUS
 62
   134
  5
C5
 10
923315.493
 20
7285612.744
 30
0.0
 40
13.999
  1
172
 50
358.1335
  7
ROMANS
 11
923315.948959
 21
7285626.735573
 31
0.0
210
0.0
220
0.0
230
1.0
 73
     3
  0
TEXT
  8
10
  6
CONTINUOUS
 62
   134
  5
C6
 10
923249.216
 20
7285614.904
 30
0.0
 40
13.999
  1
171
 50
358.1335
  7
ROMANS
 11
923249.671959
 21
7285628.895573
 31
0.0
210
0.0
220
0.0
230
1.0
 73
     3
  0
TEXT
  8
10
  6
CONTINUOUS
 62
   134
  5
C7
 10
923182.941
 20
7285617.064
 30
0.0
 40
13.999
  1
170
 50
358.1335
  7
ROMANS
 11
923183.396959
 21
7285631.055573
 31
0.0
210
0.0
220
0.0
230
1.0
 73
     3
  0
TEXT
  8
10
  6
CONTINUOUS
 62
   134
  5
C8
 10
923119.315
 20
7285619.137
 30
0.0
 40
13.999
  1
169
 50
358.1335
  7
ROMANS
 11
923119.770959
 21
7285633.128573
 31
0.0
210
0.0
220
0.0
230
1.0
 73
     3
  0
TEXT
  8
10
  6
CONTINUOUS
 62
   134
  5
C9
 10
923053.04
 20
7285621.297
 30
0.0
 40
13.999
  1
168
 50
358.1335
  7
ROMANS
 11
923053.495959
 21
7285635.288573
 31
0.0
210
0.0
220
0.0
230
1.0
 73
     3
  0
TEXT
  8
10
  6
CONTINUOUS
 62
   134
  5
CA
 10
922986.764
 20
7285623.456
 30
0.0
 40
13.999
  1
167
 50
358.1335
  7
ROMANS
 11
922987.219959
 21
7285637.447573
 31
0.0
210
0.0
220
0.0
230
1.0
 73
     3
  0
TEXT
  8
10
  6
CONTINUOUS
 62
   134
  5
CB
 10
922862.165
 20
7285627.517
 30
0.0
 40
13.999
  1
166
 50
358.1335
  7
ROMANS
 11
922862.620959
 21
7285641.508573
 31
0.0
210
0.0
220
0.0
230
1.0
 73
     3
  0
TEXT
  8
10
  6
CONTINUOUS
 62
   134
  5
CC
 10
922793.238
 20
7285629.764
 30
0.0
 40
13.999
  1
165
 50
358.1335
  7
ROMANS
 11
922793.693959
 21
7285643.755573
 31
0.0
210
0.0
220
0.0
230
1.0
 73
     3
  0
TEXT
  8
10
  6
CONTINUOUS
 62
   134
  5
CD
 10
922732.264
 20
7285631.751
 30
0.0
 40
13.999
  1
164
 50
358.1335
  7
ROMANS
 11
922732.719959
 21
7285645.742573
 31
0.0
210
0.0
220
0.0
230
1.0
 73
     3
  0
TEXT
  8
10
  6
CONTINUOUS
 62
   134
  5
CE
 10
922663.337
 20
7285633.997
 30
0.0
 40
13.999
  1
163
 50
358.1335
  7
ROMANS
 11
922663.792959
 21
7285647.988573
 31
0.0
210
0.0
220
0.0
230
1.0
 73
     3
  0
TEXT
  8
10
  6
CONTINUOUS
 62
   134
  5
CF
 10
922578.504
 20
7285636.761
 30
0.0
 40
13.999
  1
162
 50
358.1335
  7
ROMANS
 11
922578.959959
 21
7285650.752573
 31
0.0
210
0.0
220
0.0
230
1.0
 73
     3
  0
TEXT
  8
10
  6
CONTINUOUS
 62
   134
  5
D0
 10
922647.746
 20
7285807.076
 30
0.0
 40
13.999
  1
201
 50
358.1335
  7
ROMANS
 11
922648.201959
 21
7285821.067573
 31
0.0
210
0.0
220
0.0
230
1.0
 73
     3
  0
TEXT
  8
10
  6
CONTINUOUS
 62
   134
  5
D1
 10
922707.004
 20
7285804.027
 30
0.0
 40
13.999
  1
200
 50
358.1335
  7
ROMANS
 11
922707.459959
 21
7285818.018573
 31
0.0
210
0.0
220
0.0
230
1.0
 73
     3
  0
TEXT
  8
10
  6
CONTINUOUS
 62
   134
  5
D2
 10
922778.582
 20
7285801.695
 30
0.0
 40
13.999
  1
199
 50
358.1335
  7
ROMANS
 11
922779.037959
 21
7285815.686573
 31
0.0
210
0.0
220
0.0
230
1.0
 73
     3
  0
TEXT
  8
10
  6
CONTINUOUS
 62
   134
  5
D3
 10
922842.207
 20
7285799.622
 30
0.0
 40
13.999
  1
198
 50
358.1335
  7
ROMANS
 11
922842.662959
 21
7285813.613573
 31
0.0
210
0.0
220
0.0
230
1.0
 73
     3
  0
TEXT
  8
10
  6
CONTINUOUS
 62
   134
  5
D4
 10
922911.134
 20
7285797.375
 30
0.0
 40
13.999
  1
197
 50
358.1335
  7
ROMANS
 11
922911.589959
 21
7285811.366573
 31
0.0
210
0.0
220
0.0
230
1.0
 73
     3
  0
TEXT
  8
10
  6
CONTINUOUS
 62
   134
  5
D5
 10
922974.76
 20
7285795.301
 30
0.0
 40
13.999
  1
196
 50
358.1335
  7
ROMANS
 11
922975.215959
 21
7285809.292573
 31
0.0
210
0.0
220
0.0
230
1.0
 73
     3
  0
TEXT
  8
10
  6
CONTINUOUS
 62
   134
  5
D6
 10
923048.989
 20
7285792.883
 30
0.0
 40
13.999
  1
195
 50
358.1335
  7
ROMANS
 11
923049.444959
 21
7285806.874573
 31
0.0
210
0.0
220
0.0
230
1.0
 73
     3
  0
TEXT
  8
10
  6
CONTINUOUS
 62
   134
  5
D7
 10
923112.613
 20
7285790.809
 30
0.0
 40
13.999
  1
194
 50
358.1335
  7
ROMANS
 11
923113.068959
 21
7285804.800573
 31
0.0
210
0.0
220
0.0
230
1.0
 73
     3
  0
TEXT
  8
10
  6
CONTINUOUS
 62
   134
  5
D8
 10
923181.541
 20
7285788.563
 30
0.0
 40
13.999
  1
193
 50
358.1335
  7
ROMANS
 11
923181.996959
 21
7285802.554573
 31
0.0
210
0.0
220
0.0
230
1.0
 73
     3
  0
TEXT
  8
10
  6
CONTINUOUS
 62
   134
  5
D9
 10
923247.817
 20
7285786.404
 30
0.0
 40
13.999
  1
192
 50
358.1335
  7
ROMANS
 11
923248.272959
 21
7285800.395573
 31
0.0
210
0.0
220
0.0
230
1.0
 73
     3
  0
TEXT
  8
10
  6
CONTINUOUS
 62
   134
  5
DA
 10
923314.093
 20
7285784.244
 30
0.0
 40
13.999
  1
191
 50
358.1335
  7
ROMANS
 11
923314.548959
 21
7285798.235573
 31
0.0
210
0.0
220
0.0
230
1.0
 73
     3
  0
TEXT
  8
10
  6
CONTINUOUS
 62
   134
  5
DB
 10
923383.02
 20
7285781.998
 30
0.0
 40
13.999
  1
190
 50
358.1335
  7
ROMANS
 11
923383.475959
 21
7285795.989573
 31
0.0
210
0.0
220
0.0
230
1.0
 73
     3
  0
TEXT
  8
10
  6
CONTINUOUS
 62
   134
  5
DC
 10
923449.296
 20
7285779.837
 30
0.0
 40
13.999
  1
189
 50
358.1335
  7
ROMANS
 11
923449.751959
 21
7285793.828573
 31
0.0
210
0.0
220
0.0
230
1.0
 73
     3
  0
TEXT
  8
10
  6
CONTINUOUS
 62
   134
  5
DD
 10
923518.223
 20
7285777.591
 30
0.0
 40
13.999
  1
188
 50
358.1335
  7
ROMANS
 11
923518.678959
 21
7285791.582573
 31
0.0
210
0.0
220
0.0
230
1.0
 73
     3
  0
TEXT
  8
10
  6
CONTINUOUS
 62
   134
  5
DE
 10
923576.546
 20
7285775.69
 30
0.0
 40
13.999
  1
187
 50
358.1335
  7
ROMANS
 11
923577.001959
 21
7285789.681573
 31
0.0
210
0.0
220
0.0
230
1.0
 73
     3
  0
TEXT
  8
10
  6
CONTINUOUS
 62
   134
  5
DF
 10
923708.163
 20
7285772.519
 30
0.0
 40
13.999
  1
186
 50
358.1335
  7
ROMANS
 11
923708.618959
 21
7285786.510573
 31
0.0
210
0.0
220
0.0
230
1.0
 73
     3
  0
TEXT
  8
10
  6
CONTINUOUS
 62
   134
  5
E0
 10
923777.09
 20
7285770.273
 30
0.0
 40
13.999
  1
185
 50
358.1335
  7
ROMANS
 11
923777.545959
 21
7285784.264573
 31
0.0
210
0.0
220
0.0
230
1.0
 73
     3
  0
TEXT
  8
10
  6
CONTINUOUS
 62
   134
  5
E1
 10
923843.366
 20
7285768.113
 30
0.0
 40
13.999
  1
184
 50
358.1335
  7
ROMANS
 11
923843.821959
 21
7285782.104573
 31
0.0
210
0.0
220
0.0
230
1.0
 73
     3
  0
TEXT
  8
10
  6
CONTINUOUS
 62
   134
  5
E2
 10
923906.991
 20
7285766.04
 30
0.0
 40
13.999
  1
183
 50
358.1335
  7
ROMANS
 11
923907.446959
 21
7285780.031573
 31
0.0
210
0.0
220
0.0
230
1.0
 73
     3
  0
TEXT
  8
10
  6
CONTINUOUS
 62
   134
  5
E3
 10
923970.617
 20
7285763.966
 30
0.0
 40
13.999
  1
182
 50
358.1335
  7
ROMANS
 11
923971.072959
 21
7285777.957573
 31
0.0
210
0.0
220
0.0
230
1.0
 73
     3
  0
TEXT
  8
10
  6
CONTINUOUS
 62
   134
  5
E4
 10
921501.398
 20
7286136.48
 30
0.0
 40
13.999
  1
144
 50
358.1335
  7
ROMANS
 11
921501.853959
 21
7286150.471573
 31
0.0
210
0.0
220
0.0
230
1.0
 73
     3
  0
TEXT
  8
10
  6
CONTINUOUS
 62
   134
  5
E5
 10
921567.676
 20
7286134.319
 30
0.0
 40
13.999
  1
145
 50
358.1335
  7
ROMANS
 11
921568.131959
 21
7286148.310573
 31
0.0
210
0.0
220
0.0
230
1.0
 73
     3
  0
TEXT
  8
10
  6
CONTINUOUS
 62
   134
  5
E6
 10
921633.951
 20
7286132.159
 30
0.0
 40
13.999
  1
146
 50
358.1335
  7
ROMANS
 11
921634.406959
 21
7286146.150573
 31
0.0
210
0.0
220
0.0
230
1.0
 73
     3
  0
TEXT
  8
10
  6
CONTINUOUS
 62
   134
  5
E7
 10
921697.577
 20
7286130.086
 30
0.0
 40
13.999
  1
147
 50
358.1335
  7
ROMANS
 11
921698.032959
 21
7286144.077573
 31
0.0
210
0.0
220
0.0
230
1.0
 73
     3
  0
TEXT
  8
10
  6
CONTINUOUS
 62
   134
  5
E8
 10
921769.154
 20
7286127.754
 30
0.0
 40
13.999
  1
148
 50
358.1335
  7
ROMANS
 11
921769.609959
 21
7286141.745573
 31
0.0
210
0.0
220
0.0
230
1.0
 73
     3
  0
TEXT
  8
10
  6
CONTINUOUS
 62
   134
  5
E9
 10
921888.451
 20
7286123.866
 30
0.0
 40
13.999
  1
149
 50
358.1335
  7
ROMANS
 11
921888.906959
 21
7286137.857573
 31
0.0
210
0.0
220
0.0
230
1.0
 73
     3
  0
TEXT
  8
10
  6
CONTINUOUS
 62
   134
  5
EA
 10
921952.077
 20
7286121.793
 30
0.0
 40
13.999
  1
150
 50
358.1335
  7
ROMANS
 11
921952.532959
 21
7286135.784573
 31
0.0
210
0.0
220
0.0
230
1.0
 73
     3
  0
TEXT
  8
10
  6
CONTINUOUS
 62
   134
  5
EB
 10
922021.002
 20
7286119.547
 30
0.0
 40
13.999
  1
151
 50
358.1335
  7
ROMANS
 11
922021.457959
 21
7286133.538573
 31
0.0
210
0.0
220
0.0
230
1.0
 73
     3
  0
TEXT
  8
10
  6
CONTINUOUS
 62
   134
  5
EC
 10
922128.4
 20
7286076.221
 30
0.0
 40
13.999
  1
153
 50
358.1335
  7
ROMANS
 11
922128.855959
 21
7286090.212573
 31
0.0
210
0.0
220
0.0
230
1.0
 73
     3
  0
TEXT
  8
10
  6
CONTINUOUS
 62
   134
  5
ED
 10
922169.001
 20
7286019.145
 30
0.0
 40
13.999
  1
154
 50
358.1335
  7
ROMANS
 11
922169.456959
 21
7286033.136573
 31
0.0
210
0.0
220
0.0
230
1.0
 73
     3
  0
TEXT
  8
10
  6
CONTINUOUS
 62
   134
  5
EE
 10
922215.164
 20
7285969.851
 30
0.0
 40
13.999
  1
155
 50
358.1335
  7
ROMANS
 11
922215.619959
 21
7285983.842573
 31
0.0
210
0.0
220
0.0
230
1.0
 73
     3
  0
TEXT
  8
10
  6
CONTINUOUS
 62
   134
  5
EF
 10
922261.414
 20
7285923.21
 30
0.0
 40
13.999
  1
156
 50
358.1335
  7
ROMANS
 11
922261.869959
 21
7285937.201573
 31
0.0
210
0.0
220
0.0
230
1.0
 73
     3
  0
TEXT
  8
10
  6
CONTINUOUS
 62
   134
  5
F0
 10
922305.012
 20
7285876.655
 30
0.0
 40
13.999
  1
157
 50
358.1335
  7
ROMANS
 11
922305.467959
 21
7285890.646573
 31
0.0
210
0.0
220
0.0
230
1.0
 73
     3
  0
TEXT
  8
10
  6
CONTINUOUS
 62
   134
  5
F1
 10
922348.524
 20
7285827.447
 30
0.0
 40
13.999
  1
158
 50
358.1335
  7
ROMANS
 11
922348.979959
 21
7285841.438573
 31
0.0
210
0.0
220
0.0
230
1.0
 73
     3
  0
TEXT
  8
10
  6
CONTINUOUS
 62
   134
  5
F2
 10
922392.295
 20
7285786.196
 30
0.0
 40
13.999
  1
159
 50
358.1335
  7
ROMANS
 11
922392.750959
 21
7285800.187573
 31
0.0
210
0.0
220
0.0
230
1.0
 73
     3
  0
TEXT
  8
10
  6
CONTINUOUS
 62
   134
  5
F3
 10
922443.588
 20
7285731.426
 30
0.0
 40
13.999
  1
160
 50
358.1335
  7
ROMANS
 11
922444.043959
 21
7285745.417573
 31
0.0
210
0.0
220
0.0
230
1.0
 73
     3
  0
TEXT
  8
10
  6
CONTINUOUS
 62
   134
  5
F4
 10
922497.359
 20
7285671.264
 30
0.0
 40
13.999
  1
161
 50
358.1335
  7
ROMANS
 11
922497.814959
 21
7285685.255573
 31
0.0
210
0.0
220
0.0
230
1.0
 73
     3
  0
TEXT
  8
10
  6
CONTINUOUS
 62
   134
  5
F5
 10
922571.038
 20
7285814.886
 30
0.0
 40
13.999
  1
202
 50
358.1335
  7
ROMANS
 11
922571.493959
 21
7285828.877573
 31
0.0
210
0.0
220
0.0
230
1.0
 73
     3
  0
TEXT
  8
10
  6
CONTINUOUS
 62
   134
  5
F6
 10
922535.48
 20
7285863.834
 30
0.0
 40
13.999
  1
203
 50
358.1335
  7
ROMANS
 11
922535.935959
 21
7285877.825573
 31
0.0
210
0.0
220
0.0
230
1.0
 73
     3
  0
TEXT
  8
10
  6
CONTINUOUS
 62
   134
  5
F7
 10
922484.015
 20
7285913.301
 30
0.0
 40
13.999
  1
204
 50
358.1335
  7
ROMANS
 11
922484.470959
 21
7285927.292573
 31
0.0
210
0.0
220
0.0
230
1.0
 73
     3
  0
TEXT
  8
10
  6
CONTINUOUS
 62
   134
  5
F8
 10
922440.415
 20
7285959.855
 30
0.0
 40
13.999
  1
205
 50
358.1335
  7
ROMANS
 11
922440.870959
 21
7285973.846573
 31
0.0
210
0.0
220
0.0
230
1.0
 73
     3
  0
LINE
  8
7
  6
CONTINUOUS
 62
     7
  5
FA
 10
921525.453
 20
7287312.231
 30
0.0
 11
921885.262
 21
7287300.505
 31
0.0
  0
LINE
  8
7
  6
CONTINUOUS
 62
     7
  5
FB
 10
921885.262
 20
7287300.505
 30
0.0
 11
921885.587
 21
7287310.5
 31
0.0
  0
LINE
  8
7
  6
CONTINUOUS
 62
     7
  5
FC
 10
921885.587
 20
7287310.5
 30
0.0
 11
921975.539
 21
7287307.568
 31
0.0
  0
LINE
  8
7
  6
CONTINUOUS
 62
     7
  5
FD
 10
921975.539
 20
7287307.568
 30
0.0
 11
921965.442
 21
7286997.733
 31
0.0
  0
LINE
  8
6
  6
CONTINUOUS
 62
     7
  5
FE
 10
921964.791
 20
7286977.744
 30
0.0
 11
921515.029
 21
7286992.4
 31
0.0
  0
LINE
  8
7
  6
CONTINUOUS
 62
     7
  5
FF
 10
921875.49
 20
7287000.665
 30
0.0
 11
921515.681
 21
7287012.39
 31
0.0
  0
LINE
  8
6
  6
CONTINUOUS
 62
     7
  5
100
 10
921964.791
 20
7286977.744
 30
0.0
 11
921965.442
 21
7286997.733
 31
0.0
  0
TEXT
  8
10
  6
CONTINUOUS
 62
   134
  5
101
 10
922843.321
 20
7288609.944
 30
0.0
 40
13.999
  1
UNSUBDIVIDED
 50
358.1335
  7
ROMANS
 11
922843.776959
 21
7288623.935573
 31
0.0
210
0.0
220
0.0
230
1.0
 73
     3
  0
TEXT
  8
10
  6
CONTINUOUS
 62
   134
  5
102
 10
925370.323
 20
7286320.395
 30
0.0
 40
13.999
  1
UNSUBDIVIDED
 50
358.1335
  7
ROMANS
 11
925370.778959
 21
7286334.386573
 31
0.0
210
0.0
220
0.0
230
1.0
 73
     3
  0
TEXT
  8
10
  6
CONTINUOUS
 62
   134
  5
103
 10
921823.296
 20
7285233.122
 30
0.0
 40
13.999
  1
UNSUBDIVIDED
 50
358.1335
  7
ROMANS
 11
921823.751959
 21
7285247.113573
 31
0.0
210
0.0
220
0.0
230
1.0
 73
     3
  0
TEXT
  8
10
  6
CONTINUOUS
 62
   134
  5
104
 10
922032.702
 20
7286289.023
 30
0.0
 40
13.999
  1
UNSUBDIVIDED
 50
358.1335
  7
ROMANS
 11
922033.157959
 21
7286303.014573
 31
0.0
210
0.0
220
0.0
230
1.0
 73
     3
  0
TEXT
  8
10
  6
CONTINUOUS
 62
   134
  5
105
 10
923827.281
 20
7284794.109
 30
0.0
 40
13.999
  1
UNSUBDIVIDED
 50
358.1335
  7
ROMANS
 11
923827.736959
 21
7284808.100573
 31
0.0
210
0.0
220
0.0
230
1.0
 73
     3
  0
TEXT
  8
19
  6
CONTINUOUS
 62
     1
  5
108
 10
923472.631
 20
7285440.459
 30
0.0
 40
24.0
  1
N COLTON 
 50
88.1335
  7
ROMANC
 72
     4
 11
923464.465609
 21
7285558.323489
 31
0.0
210
0.0
220
0.0
230
1.0
  0
TEXT
  8
15
  6
CONTINUOUS
 62
    30
  5
10A
 10
922578.608
 20
7285464.373
 30
0.0
 40
50.0
  1
WESTERN
 50
28.1335
  7
ROMANC
 72
     4
 11
922734.84688
 21
7285576.263674
 31
0.0
210
0.0
220
0.0
230
1.0
  0
TEXT
  8
15
  6
CONTINUOUS
 62
    30
  5
10B
 10
922838.715
 20
7285123.592
 30
0.0
 40
50.0
  1
ESTATES
 50
28.1335
  7
ROMANC
 72
     4
 11
922983.1503
 21
7285229.171278
 31
0.0
210
0.0
220
0.0
230
1.0
  0
TEXT
  8
11
  6
CONTINUOUS
 62
     7
  5
10E
 10
921689.114
 20
7287296.954
 30
0.0
 40
8.0
  1
360'
 50
358.1335
  7
txt
 72
     4
 11
921702.653165
 21
7287300.514908
 31
0.0
210
0.0
220
0.0
230
1.0
  0
TEXT
  8
11
  6
CONTINUOUS
 62
     7
  5
10F
 10
921674.355
 20
7287010.52
 30
0.0
 40
8.0
  1
450'
 50
358.1335
  7
txt
 72
     4
 11
921688.272964
 21
7287014.068563
 31
0.0
210
0.0
220
0.0
230
1.0
  0
TEXT
  8
11
  6
CONTINUOUS
 62
     7
  5
110
 10
921926.894
 20
7287299.251
 30
0.0
 40
8.0
  1
90'
 50
358.1335
  7
txt
 72
     4
 11
921936.435287
 21
7287302.942191
 31
0.0
210
0.0
220
0.0
230
1.0
  0
TEXT
  8
11
  6
CONTINUOUS
 62
     7
  5
111
 10
921530.0
 20
7287183.13
 30
0.0
 40
8.0
  1
300'
 50
88.1335
  7
txt
 72
     4
 11
921526.444238
 21
7287196.827081
 31
0.0
210
0.0
220
0.0
230
1.0
  0
TEXT
  8
11
  6
CONTINUOUS
 62
     7
  5
112
 10
921979.814
 20
7287129.627
 30
0.0
 40
8.0
  1
330'
 50
88.1335
  7
txt
 72
     4
 11
921976.259281
 21
7287143.356064
 31
0.0
210
0.0
220
0.0
230
1.0
  0
TEXT
  8
11
  6
CONTINUOUS
 62
     7
  5
113
 10
921967.362
 20
7287130.318
 30
0.0
 40
8.0
  1
320'
 50
88.1335
  7
txt
 72
     4
 11
921963.807281
 21
7287144.047064
 31
0.0
210
0.0
220
0.0
230
1.0
  0
TEXT
  8
11
  6
CONTINUOUS
 62
     7
  5
114
 10
921527.65
 20
7286994.631
 30
0.0
 40
8.0
  1
20'
 50
88.1335
  7
txt
 72
     4
 11
921523.964997
 21
7287004.362187
 31
0.0
210
0.0
220
0.0
230
1.0
  0
TEXT
  8
11
  6
CONTINUOUS
 62
     7
  5
115
 10
921882.76
 20
7287302.748
 30
0.0
 40
8.0
  1
10'
 50
88.1335
  7
txt
 72
     4
 11
921879.028812
 21
7287311.061939
 31
0.0
210
0.0
220
0.0
230
1.0
  0
TEXT
  8
11
  6
CONTINUOUS
 62
     7
  5
116
 10
921908.801
 20
7287001.066
 30
0.0
 40
8.0
  1
90'
 50
358.1335
  7
txt
 72
     4
 11
921918.342287
 21
7287004.757191
 31
0.0
210
0.0
220
0.0
230
1.0
  0
TEXT
  8
11
  6
CONTINUOUS
 62
     7
  5
117
 10
926656.074
 20
7284533.561
 30
0.0
 40
8.0
  1
50'
 50
88.1335
  7
ROMANS
210
0.0
220
0.0
230
1.0
  0
TEXT
  8
11
  6
CONTINUOUS
 62
     7
  5
118
 10
924032.212
 20
7284619.567
 30
0.0
 40
8.0
  1
50'
 50
88.1335
  7
txt
 72
     4
 11
924028.526997
 21
7284629.298187
 31
0.0
210
0.0
220
0.0
230
1.0
  0
TEXT
  8
11
  6
CONTINUOUS
 62
     7
  5
119
 10
924013.672
 20
7284620.701
 30
0.0
 40
8.0
  1
55'
 50
88.1335
  7
txt
 72
     4
 11
924009.98804
 21
7284630.46417
 31
0.0
210
0.0
220
0.0
230
1.0
  0
TEXT
  8
11
  6
CONTINUOUS
 62
     7
  5
11A
 10
923302.654
 20
7284632.79
 30
0.0
 40
8.0
  1
55'
 50
88.1335
  7
txt
 72
     4
 11
923298.97004
 21
7284642.55317
 31
0.0
210
0.0
220
0.0
230
1.0
  0
TEXT
  8
11
  6
CONTINUOUS
 62
     7
  5
11B
 10
922483.92
 20
7284666.262
 30
0.0
 40
8.0
  1
55'
 50
88.1335
  7
txt
 72
     4
 11
922480.23604
 21
7284676.02517
 31
0.0
210
0.0
220
0.0
230
1.0
  0
TEXT
  8
11
  6
CONTINUOUS
 62
     7
  5
11C
 10
922379.024
 20
7284666.623
 30
0.0
 40
8.0
  1
55'
 50
88.1335
  7
txt
 72
     4
 11
922375.34004
 21
7284676.38617
 31
0.0
210
0.0
220
0.0
230
1.0
  0
TEXT
  8
11
  6
CONTINUOUS
 62
     7
  5
11D
 10
921454.65
 20
7284707.353
 30
0.0
 40
8.0
  1
55'
 50
88.1335
  7
txt
 72
     4
 11
921450.96604
 21
7284717.11617
 31
0.0
210
0.0
220
0.0
230
1.0
  0
TEXT
  8
11
  6
CONTINUOUS
 62
     7
  5
11E
 10
921402.963
 20
7284744.993
 30
0.0
 40
8.0
  1
60'
 50
358.1335
  7
txt
 72
     4
 11
921412.504287
 21
7284748.684191
 31
0.0
210
0.0
220
0.0
230
1.0
  0
TEXT
  8
11
  6
CONTINUOUS
 62
     7
  5
11F
 10
921431.467
 20
7285849.727
 30
0.0
 40
8.0
  1
60'
 50
358.1335
  7
txt
 72
     4
 11
921441.008287
 21
7285853.418191
 31
0.0
210
0.0
220
0.0
230
1.0
  0
TEXT
  8
11
  6
CONTINUOUS
 62
     7
  5
120
 10
921477.73
 20
7286978.934
 30
0.0
 40
8.0
  1
60'
 50
358.1335
  7
txt
 72
     4
 11
921487.271287
 21
7286982.625191
 31
0.0
210
0.0
220
0.0
230
1.0
  0
TEXT
  8
11
  6
CONTINUOUS
 62
     7
  5
121
 10
921523.78
 20
7288412.137
 30
0.0
 40
8.0
  1
60'
 50
358.1335
  7
txt
 72
     4
 11
921533.321287
 21
7288415.828191
 31
0.0
210
0.0
220
0.0
230
1.0
  0
TEXT
  8
11
  6
CONTINUOUS
 62
     7
  5
122
 10
921574.272
 20
7289950.271
 30
0.0
 40
8.0
  1
60'
 50
358.1335
  7
txt
 72
     4
 11
921583.813287
 21
7289953.962191
 31
0.0
210
0.0
220
0.0
230
1.0
  0
TEXT
  8
11
  6
CONTINUOUS
 62
     7
  5
123
 10
921805.821
 20
7284729.495
 30
0.0
 40
8.0
  1
944.01'
 50
358.1335
  7
txt
 72
     4
 11
921828.331403
 21
7284732.763552
 31
0.0
210
0.0
220
0.0
230
1.0
  0
TEXT
  8
11
  6
CONTINUOUS
 62
     7
  5
124
 10
921556.681
 20
7285886.064
 30
0.0
 40
8.0
  1
173'
 50
358.1335
  7
txt
 72
     4
 11
921569.056783
 21
7285889.66282
 31
0.0
210
0.0
220
0.0
230
1.0
  0
TEXT
  8
11
  6
CONTINUOUS
 62
     7
  5
125
 10
921700.182
 20
7285865.931
 30
0.0
 40
8.0
  1
60'
 50
358.1335
  7
txt
 72
     4
 11
921709.723287
 21
7285869.622191
 31
0.0
210
0.0
220
0.0
230
1.0
  0
TEXT
  8
11
  6
CONTINUOUS
 62
     7
  5
126
 10
921809.137
 20
7285876.981
 30
0.0
 40
8.0
  1
149.16'
 50
358.1335
  7
txt
 72
     4
 11
921829.884339
 21
7285880.307007
 31
0.0
210
0.0
220
0.0
230
1.0
  0
TEXT
  8
11
  6
CONTINUOUS
 62
     7
  5
127
 10
921468.064
 20
7285276.565
 30
0.0
 40
8.0
  1
1145.5'
 50
88.1335
  7
txt
 72
     4
 11
921464.75037
 21
7285297.692137
 31
0.0
210
0.0
220
0.0
230
1.0
  0
TEXT
  8
11
  6
CONTINUOUS
 62
     7
  5
128
 10
922407.67
 20
7285012.749
 30
0.0
 40
8.0
  1
614.11'
 50
88.1335
  7
txt
 72
     4
 11
922404.303996
 21
7285032.26899
 31
0.0
210
0.0
220
0.0
230
1.0
  0
TEXT
  8
11
  6
CONTINUOUS
 62
     7
  5
129
 10
921493.624
 20
7286006.179
 30
0.0
 40
8.0
  1
97'
 50
88.1335
  7
txt
 72
     4
 11
921489.934894
 21
7286015.784253
 31
0.0
210
0.0
220
0.0
230
1.0
  0
TEXT
  8
11
  6
CONTINUOUS
 62
     7
  5
12A
 10
921810.599
 20
7286001.331
 30
0.0
 40
8.0
  1
97'
 50
88.1335
  7
txt
 72
     4
 11
921806.909894
 21
7286010.936253
 31
0.0
210
0.0
220
0.0
230
1.0
  0
TEXT
  8
11
  6
CONTINUOUS
 62
     7
  5
12B
 10
921878.554
 20
7285998.623
 30
0.0
 40
8.0
  1
97'
 50
88.1335
  7
txt
 72
     4
 11
921874.864894
 21
7286008.228253
 31
0.0
210
0.0
220
0.0
230
1.0
  0
TEXT
  8
11
  6
CONTINUOUS
 62
     7
  5
12C
 10
921881.439
 20
7286110.106
 30
0.0
 40
8.0
  1
96.33'
 50
88.1335
  7
txt
 72
     4
 11
921878.068892
 21
7286129.500057
 31
0.0
210
0.0
220
0.0
230
1.0
  0
TEXT
  8
11
  6
CONTINUOUS
 62
     7
  5
12D
 10
921814.291
 20
7286114.613
 30
0.0
 40
8.0
  1
96.33'
 50
88.1335
  7
txt
 72
     4
 11
921810.920892
 21
7286134.007057
 31
0.0
210
0.0
220
0.0
230
1.0
  0
TEXT
  8
11
  6
CONTINUOUS
 62
     7
  5
12E
 10
921743.732
 20
7286113.739
 30
0.0
 40
8.0
  1
111.33'
 50
88.1335
  7
txt
 72
     4
 11
921740.366029
 21
7286133.25999
 31
0.0
210
0.0
220
0.0
230
1.0
  0
TEXT
  8
11
  6
CONTINUOUS
 62
     7
  5
12F
 10
921615.004
 20
7286117.935
 30
0.0
 40
8.0
  1
111.33'
 50
88.1335
  7
txt
 72
     4
 11
921611.638029
 21
7286137.45599
 31
0.0
210
0.0
220
0.0
230
1.0
  0
TEXT
  8
11
  6
CONTINUOUS
 62
     7
  5
130
 10
921549.717
 20
7286114.515
 30
0.0
 40
8.0
  1
89.58'
 50
88.1335
  7
txt
 72
     4
 11
921546.353081
 21
7286134.098956
 31
0.0
210
0.0
220
0.0
230
1.0
  0
TEXT
  8
11
  6
CONTINUOUS
 62
     7
  5
131
 10
921496.735
 20
7286120.36
 30
0.0
 40
8.0
  1
139.33'
 50
88.1335
  7
txt
 72
     4
 11
921493.455178
 21
7286142.524586
 31
0.0
210
0.0
220
0.0
230
1.0
  0
TEXT
  8
11
  6
CONTINUOUS
 62
     7
  5
132
 10
921941.471
 20
7286112.26
 30
0.0
 40
8.0
  1
111.33'
 50
88.1335
  7
txt
 72
     4
 11
921938.105029
 21
7286131.78099
 31
0.0
210
0.0
220
0.0
230
1.0
  0
TEXT
  8
11
  6
CONTINUOUS
 62
     7
  5
133
 10
922005.976
 20
7286108.912
 30
0.0
 40
8.0
  1
111.33'
 50
88.1335
  7
txt
 72
     4
 11
922002.610029
 21
7286128.43299
 31
0.0
210
0.0
220
0.0
230
1.0
  0
TEXT
  8
11
  6
CONTINUOUS
 62
     7
  5
134
 10
921740.611
 20
7285999.296
 30
0.0
 40
8.0
  1
112'
 50
88.1335
  7
txt
 72
     4
 11
921736.964952
 21
7286010.222552
 31
0.0
210
0.0
220
0.0
230
1.0
  0
TEXT
  8
11
  6
CONTINUOUS
 62
     7
  5
135
 10
921545.101
 20
7286002.012
 30
0.0
 40
8.0
  1
112'
 50
88.1335
  7
txt
 72
     4
 11
921541.454952
 21
7286012.938552
 31
0.0
210
0.0
220
0.0
230
1.0
  0
TEXT
  8
11
  6
CONTINUOUS
 62
     7
  5
136
 10
921938.748
 20
7285982.95
 30
0.0
 40
8.0
  1
114.05'
 50
83.1335
  7
txt
 72
     4
 11
921937.284505
 21
7286004.253773
 31
0.0
210
0.0
220
0.0
230
1.0
  0
TEXT
  8
11
  6
CONTINUOUS
 62
     7
  5
137
 10
921491.261
 20
7286231.025
 30
0.0
 40
8.0
  1
20'
 50
358.1335
  7
txt
 72
     4
 11
921500.992187
 21
7286234.710003
 31
0.0
210
0.0
220
0.0
230
1.0
  0
TEXT
  8
11
  6
CONTINUOUS
 62
     7
  5
138
 10
921819.36
 20
7286248.998
 30
0.0
 40
8.0
  1
442.33'
 50
358.1335
  7
txt
 72
     4
 11
921843.508533
 21
7286252.213169
 31
0.0
210
0.0
220
0.0
230
1.0
  0
TEXT
  8
11
  6
CONTINUOUS
 62
     7
  5
139
 10
921642.833
 20
7286186.355
 30
0.0
 40
8.0
  1
65'
 50
358.1335
  7
txt
 72
     4
 11
921652.40627
 21
7286190.045149
 31
0.0
210
0.0
220
0.0
230
1.0
  0
TEXT
  8
11
  6
CONTINUOUS
 62
     7
  5
13A
 10
921709.568
 20
7286184.18
 30
0.0
 40
8.0
  1
65'
 50
358.1335
  7
txt
 72
     4
 11
921719.14127
 21
7286187.870149
 31
0.0
210
0.0
220
0.0
230
1.0
  0
TEXT
  8
11
  6
CONTINUOUS
 62
     7
  5
13B
 10
921774.753
 20
7286182.055
 30
0.0
 40
8.0
  1
55'
 50
358.1335
  7
txt
 72
     4
 11
921784.51617
 21
7286185.73896
 31
0.0
210
0.0
220
0.0
230
1.0
  0
TEXT
  8
11
  6
CONTINUOUS
 62
     7
  5
13C
 10
921906.118
 20
7286178.198
 30
0.0
 40
8.0
  1
55'
 50
358.1335
  7
txt
 72
     4
 11
921915.88117
 21
7286181.88196
 31
0.0
210
0.0
220
0.0
230
1.0
  0
TEXT
  8
11
  6
CONTINUOUS
 62
     7
  5
13D
 10
921970.415
 20
7286177.152
 30
0.0
 40
8.0
  1
65'
 50
358.1335
  7
txt
 72
     4
 11
921979.98827
 21
7286180.842149
 31
0.0
210
0.0
220
0.0
230
1.0
  0
TEXT
  8
11
  6
CONTINUOUS
 62
     7
  5
13E
 10
922011.411
 20
7286174.767
 30
0.0
 40
8.0
  1
32.75'
 50
358.1335
  7
txt
 72
     4
 11
922031.21484
 21
7286178.123754
 31
0.0
210
0.0
220
0.0
230
1.0
  0
TEXT
  8
11
  6
CONTINUOUS
 62
     7
  5
13F
 10
922027.417
 20
7286074.288
 30
0.0
 40
8.0
  1
70'
 50
358.1335
  7
txt
 72
     4
 11
922037.17917
 21
7286077.971993
 31
0.0
210
0.0
220
0.0
230
1.0
  0
TEXT
  8
11
  6
CONTINUOUS
 62
     7
  5
140
 10
921897.86
 20
7286079.577
 30
0.0
 40
8.0
  1
70'
 50
358.1335
  7
txt
 72
     4
 11
921907.62217
 21
7286083.260993
 31
0.0
210
0.0
220
0.0
230
1.0
  0
TEXT
  8
11
  6
CONTINUOUS
 62
     7
  5
141
 10
921780.977
 20
7286082.184
 30
0.0
 40
8.0
  1
70'
 50
358.1335
  7
txt
 72
     4
 11
921790.73917
 21
7286085.867993
 31
0.0
210
0.0
220
0.0
230
1.0
  0
TEXT
  8
11
  6
CONTINUOUS
 62
     7
  5
142
 10
921509.593
 20
7286091.637
 30
0.0
 40
8.0
  1
65'
 50
358.1335
  7
txt
 72
     4
 11
921519.16627
 21
7286095.327149
 31
0.0
210
0.0
220
0.0
230
1.0
  0
TEXT
  8
11
  6
CONTINUOUS
 62
     7
  5
143
 10
922070.977
 20
7286073.809
 30
0.0
 40
8.0
  1
13.53'
 50
43.1335
  7
txt
 72
     4
 11
922081.550149
 21
7286089.196014
 31
0.0
210
0.0
220
0.0
230
1.0
  0
TEXT
  8
11
  6
CONTINUOUS
 62
     7
  5
144
 10
922053.859
 20
7286042.72
 30
0.0
 40
8.0
  1
26'
 50
358.1335
  7
txt
 72
     4
 11
922063.43227
 21
7286046.410149
 31
0.0
210
0.0
220
0.0
230
1.0
  0
TEXT
  8
11
  6
CONTINUOUS
 62
     7
  5
145
 10
921976.768
 20
7286044.734
 30
0.0
 40
8.0
  1
88.99'
 50
358.1335
  7
txt
 72
     4
 11
921996.162057
 21
7286048.104108
 31
0.0
210
0.0
220
0.0
230
1.0
  0
TEXT
  8
11
  6
CONTINUOUS
 62
     7
  5
146
 10
921893.103
 20
7286047.709
 30
0.0
 40
8.0
  1
80.26'
 50
358.1335
  7
txt
 72
     4
 11
921912.654973
 21
7286051.073962
 31
0.0
210
0.0
220
0.0
230
1.0
  0
TEXT
  8
11
  6
CONTINUOUS
 62
     7
  5
147
 10
921768.381
 20
7286050.833
 30
0.0
 40
8.0
  1
70'
 50
358.1335
  7
txt
 72
     4
 11
921778.14317
 21
7286054.516993
 31
0.0
210
0.0
220
0.0
230
1.0
  0
TEXT
  8
11
  6
CONTINUOUS
 62
     7
  5
148
 10
921703.326
 20
7285953.046
 30
0.0
 40
8.0
  1
65'
 50
358.1335
  7
txt
 72
     4
 11
921712.89927
 21
7285956.736149
 31
0.0
210
0.0
220
0.0
230
1.0
  0
TEXT
  8
11
  6
CONTINUOUS
 62
     7
  5
149
 10
921508.63
 20
7286059.907
 30
0.0
 40
8.0
  1
65'
 50
358.1335
  7
txt
 72
     4
 11
921518.20327
 21
7286063.597149
 31
0.0
210
0.0
220
0.0
230
1.0
  0
TEXT
  8
11
  6
CONTINUOUS
 62
     7
  5
14A
 10
921769.343
 20
7285951.741
 30
0.0
 40
8.0
  1
55'
 50
358.1335
  7
txt
 72
     4
 11
921779.10617
 21
7285955.42496
 31
0.0
210
0.0
220
0.0
230
1.0
  0
TEXT
  8
11
  6
CONTINUOUS
 62
     7
  5
14B
 10
921508.598
 20
7285960.847
 30
0.0
 40
8.0
  1
55'
 50
358.1335
  7
txt
 72
     4
 11
921518.36117
 21
7285964.53096
 31
0.0
210
0.0
220
0.0
230
1.0
  0
TEXT
  8
11
  6
CONTINUOUS
 62
     7
  5
14C
 10
921879.689
 20
7285948.309
 30
0.0
 40
8.0
  1
26.16'
 50
358.1335
  7
txt
 72
     4
 11
921897.666809
 21
7285951.725261
 31
0.0
210
0.0
220
0.0
230
1.0
  0
TEXT
  8
11
  6
CONTINUOUS
 62
     7
  5
14D
 10
921905.176
 20
7285968.509
 30
0.0
 40
8.0
  1
27.21'
 50
313.1335
  7
txt
 72
     4
 11
921920.584209
 21
7285957.913228
 31
0.0
210
0.0
220
0.0
230
1.0
  0
TEXT
  8
11
  6
CONTINUOUS
 62
     7
  5
14E
 10
921499.525
 20
7286072.883
 30
0.0
 40
8.0
  1
20'
 50
88.1335
  7
txt
 72
     4
 11
921495.839997
 21
7286082.614187
 31
0.0
210
0.0
220
0.0
230
1.0
  0
TEXT
  8
11
  6
CONTINUOUS
 62
     7
  5
14F
 10
921506.298
 20
7286370.842
 30
0.0
 40
8.0
  1
20'
 50
88.1335
  7
txt
 72
     4
 11
921502.612997
 21
7286380.573187
 31
0.0
210
0.0
220
0.0
230
1.0
  0
TEXT
  8
11
  6
CONTINUOUS
 62
     7
  5
150
 10
922126.227
 20
7286357.934
 30
0.0
 40
8.0
  1
20'
 50
358.1335
  7
txt
 72
     4
 11
922135.958187
 21
7286361.619003
 31
0.0
210
0.0
220
0.0
230
1.0
  0
TEXT
  8
11
  6
CONTINUOUS
 62
     7
  5
151
 10
921813.286
 20
7286062.24
 30
0.0
 40
8.0
  1
20'
 50
88.1335
  7
txt
 72
     4
 11
921809.600997
 21
7286071.971187
 31
0.0
210
0.0
220
0.0
230
1.0
  0
TEXT
  8
11
  6
CONTINUOUS
 62
     7
  5
152
 10
921835.305
 20
7285958.699
 30
0.0
 40
8.0
  1
56'
 50
358.1335
  7
txt
 72
     4
 11
921844.87827
 21
7285962.389149
 31
0.0
210
0.0
220
0.0
230
1.0
  0
TEXT
  8
11
  6
CONTINUOUS
 62
     7
  5
153
 10
921498.303
 20
7285909.232
 30
0.0
 40
8.0
  1
60'
 50
88.1335
  7
txt
 72
     4
 11
921494.611809
 21
7285918.773287
 31
0.0
210
0.0
220
0.0
230
1.0
  0
TEXT
  8
11
  6
CONTINUOUS
 62
     7
  5
154
 10
922589.82
 20
7285586.191
 30
0.0
 40
8.0
  1
.
 50
358.1335
  7
txt
 72
     4
 11
922590.485999
 21
7285590.17142
 31
0.0
210
0.0
220
0.0
230
1.0
  0
TEXT
  8
11
  6
CONTINUOUS
 62
     7
  5
155
 10
922515.355
 20
7285458.765
 30
0.0
 40
8.0
  1
97.08'
 50
358.1335
  7
txt
 72
     4
 11
922534.938956
 21
7285462.128919
 31
0.0
210
0.0
220
0.0
230
1.0
  0
TEXT
  8
11
  6
CONTINUOUS
 62
     7
  5
156
 10
922601.934
 20
7285455.71
 30
0.0
 40
8.0
  1
65'
 50
358.1335
  7
txt
 72
     4
 11
922611.50727
 21
7285459.400149
 31
0.0
210
0.0
220
0.0
230
1.0
  0
TEXT
  8
11
  6
CONTINUOUS
 62
     7
  5
157
 10
922799.096
 20
7285449.285
 30
0.0
 40
8.0
  1
65'
 50
358.1335
  7
txt
 72
     4
 11
922808.66927
 21
7285452.975149
 31
0.0
210
0.0
220
0.0
230
1.0
  0
TEXT
  8
11
  6
CONTINUOUS
 62
     7
  5
158
 10
922864.628
 20
7285447.149
 30
0.0
 40
8.0
  1
55'
 50
358.1335
  7
txt
 72
     4
 11
922874.39117
 21
7285450.83296
 31
0.0
210
0.0
220
0.0
230
1.0
  0
TEXT
  8
11
  6
CONTINUOUS
 62
     7
  5
159
 10
922870.607
 20
7285680.343
 30
0.0
 40
8.0
  1
55'
 50
358.1335
  7
txt
 72
     4
 11
922880.37017
 21
7285684.02696
 31
0.0
210
0.0
220
0.0
230
1.0
  0
TEXT
  8
11
  6
CONTINUOUS
 62
     7
  5
15A
 10
922871.411
 20
7285579.77
 30
0.0
 40
8.0
  1
65'
 50
358.1335
  7
txt
 72
     4
 11
922880.98427
 21
7285583.460149
 31
0.0
210
0.0
220
0.0
230
1.0
  0
TEXT
  8
11
  6
CONTINUOUS
 62
     7
  5
15B
 10
922871.996
 20
7285547.525
 30
0.0
 40
8.0
  1
65'
 50
358.1335
  7
txt
 72
     4
 11
922881.56927
 21
7285551.215149
 31
0.0
210
0.0
220
0.0
230
1.0
  0
TEXT
  8
11
  6
CONTINUOUS
 62
     7
  5
15C
 10
922538.996
 20
7285559.452
 30
0.0
 40
8.0
  1
64.63'
 50
358.1335
  7
txt
 72
     4
 11
922558.579956
 21
7285562.815919
 31
0.0
210
0.0
220
0.0
230
1.0
  0
TEXT
  8
11
  6
CONTINUOUS
 62
     7
  5
15D
 10
922681.458
 20
7285685.934
 30
0.0
 40
8.0
  1
33.91'
 50
358.1335
  7
txt
 72
     4
 11
922699.624709
 21
7285689.344105
 31
0.0
210
0.0
220
0.0
230
1.0
  0
TEXT
  8
11
  6
CONTINUOUS
 62
     7
  5
15E
 10
922651.417
 20
7285691.786
 30
0.0
 40
8.0
  1
36.18'
 50
313.1335
  7
txt
 72
     4
 11
922666.674111
 21
7285681.351505
 31
0.0
210
0.0
220
0.0
230
1.0
  0
TEXT
  8
11
  6
CONTINUOUS
 62
     7
  5
15F
 10
922741.973
 20
7285684.376
 30
0.0
 40
8.0
  1
65'
 50
358.1335
  7
txt
 72
     4
 11
922751.54627
 21
7285688.066149
 31
0.0
210
0.0
220
0.0
230
1.0
  0
TEXT
  8
11
  6
CONTINUOUS
 62
     7
  5
160
 10
922804.656
 20
7285682.746
 30
0.0
 40
8.0
  1
65'
 50
358.1335
  7
txt
 72
     4
 11
922814.22927
 21
7285686.436149
 31
0.0
210
0.0
220
0.0
230
1.0
  0
TEXT
  8
11
  6
CONTINUOUS
 62
     7
  5
161
 10
922907.437
 20
7285499.11
 30
0.0
 40
8.0
  1
97'
 50
88.1335
  7
txt
 72
     4
 11
922903.747894
 21
7285508.715253
 31
0.0
210
0.0
220
0.0
230
1.0
  0
TEXT
  8
11
  6
CONTINUOUS
 62
     7
  5
162
 10
922911.871
 20
7285618.419
 30
0.0
 40
8.0
  1
97'
 50
88.1335
  7
txt
 72
     4
 11
922908.181894
 21
7285628.024253
 31
0.0
210
0.0
220
0.0
230
1.0
  0
TEXT
  8
11
  6
CONTINUOUS
 62
     7
  5
163
 10
922981.23
 20
7285619.432
 30
0.0
 40
8.0
  1
97'
 50
88.1335
  7
txt
 72
     4
 11
922977.540894
 21
7285629.037253
 31
0.0
210
0.0
220
0.0
230
1.0
  0
TEXT
  8
11
  6
CONTINUOUS
 62
     7
  5
164
 10
922976.599
 20
7285494.052
 30
0.0
 40
8.0
  1
97'
 50
88.1335
  7
txt
 72
     4
 11
922972.909894
 21
7285503.657253
 31
0.0
210
0.0
220
0.0
230
1.0
  0
TEXT
  8
11
  6
CONTINUOUS
 62
     7
  5
165
 10
922495.725
 20
7285422.039
 30
0.0
 40
8.0
  1
56'
 50
88.1335
  7
txt
 72
     4
 11
922492.034851
 21
7285431.61227
 31
0.0
210
0.0
220
0.0
230
1.0
  0
TEXT
  8
11
  6
CONTINUOUS
 62
     7
  5
166
 10
922893.739
 20
7285413.835
 30
0.0
 40
8.0
  1
56'
 50
88.1335
  7
txt
 72
     4
 11
922890.048851
 21
7285423.40827
 31
0.0
210
0.0
220
0.0
230
1.0
  0
TEXT
  8
11
  6
CONTINUOUS
 62
     7
  5
167
 10
922900.986
 20
7285708.308
 30
0.0
 40
8.0
  1
56'
 50
88.1335
  7
txt
 72
     4
 11
922897.295851
 21
7285717.88127
 31
0.0
210
0.0
220
0.0
230
1.0
  0
TEXT
  8
11
  6
CONTINUOUS
 62
     7
  5
168
 10
922768.412
 20
7285751.587
 30
0.0
 40
8.0
  1
69.36'
 50
358.1335
  7
txt
 72
     4
 11
922787.617157
 21
7285754.963264
 31
0.0
210
0.0
220
0.0
230
1.0
  0
TEXT
  8
11
  6
CONTINUOUS
 62
     7
  5
169
 10
922847.302
 20
7285749.429
 30
0.0
 40
8.0
  1
65'
 50
358.1335
  7
txt
 72
     4
 11
922856.87527
 21
7285753.119149
 31
0.0
210
0.0
220
0.0
230
1.0
  0
TEXT
  8
11
  6
CONTINUOUS
 62
     7
  5
16A
 10
922911.91
 20
7285747.746
 30
0.0
 40
8.0
  1
70'
 50
358.1335
  7
txt
 72
     4
 11
922921.67217
 21
7285751.429993
 31
0.0
210
0.0
220
0.0
230
1.0
  0
TEXT
  8
11
  6
CONTINUOUS
 62
     7
  5
16B
 10
923050.82
 20
7285743.219
 30
0.0
 40
8.0
  1
70'
 50
358.1335
  7
txt
 72
     4
 11
923060.58217
 21
7285746.902993
 31
0.0
210
0.0
220
0.0
230
1.0
  0
TEXT
  8
11
  6
CONTINUOUS
 62
     7
  5
16C
 10
923183.756
 20
7285738.887
 30
0.0
 40
8.0
  1
70'
 50
358.1335
  7
txt
 72
     4
 11
923193.51817
 21
7285742.570993
 31
0.0
210
0.0
220
0.0
230
1.0
  0
TEXT
  8
11
  6
CONTINUOUS
 62
     7
  5
16D
 10
923321.173
 20
7285734.409
 30
0.0
 40
8.0
  1
70'
 50
358.1335
  7
txt
 72
     4
 11
923330.93517
 21
7285738.092993
 31
0.0
210
0.0
220
0.0
230
1.0
  0
TEXT
  8
11
  6
CONTINUOUS
 62
     7
  5
16E
 10
923455.602
 20
7285730.028
 30
0.0
 40
8.0
  1
70'
 50
358.1335
  7
txt
 72
     4
 11
923465.36417
 21
7285733.711993
 31
0.0
210
0.0
220
0.0
230
1.0
  0
TEXT
  8
11
  6
CONTINUOUS
 62
     7
  5
16F
 10
923579.308
 20
7285725.996
 30
0.0
 40
8.0
  1
55'
 50
358.1335
  7
txt
 72
     4
 11
923589.07117
 21
7285729.67996
 31
0.0
210
0.0
220
0.0
230
1.0
  0
TEXT
  8
11
  6
CONTINUOUS
 62
     7
  5
170
 10
923720.06
 20
7285719.91
 30
0.0
 40
8.0
  1
55'
 50
358.1335
  7
txt
 72
     4
 11
923729.82317
 21
7285723.59396
 31
0.0
210
0.0
220
0.0
230
1.0
  0
TEXT
  8
11
  6
CONTINUOUS
 62
     7
  5
171
 10
923524.233
 20
7285727.792
 30
0.0
 40
8.0
  1
65'
 50
358.1335
  7
txt
 72
     4
 11
923533.80627
 21
7285731.482149
 31
0.0
210
0.0
220
0.0
230
1.0
  0
TEXT
  8
11
  6
CONTINUOUS
 62
     7
  5
172
 10
923388.31
 20
7285732.221
 30
0.0
 40
8.0
  1
65'
 50
358.1335
  7
txt
 72
     4
 11
923397.88327
 21
7285735.911149
 31
0.0
210
0.0
220
0.0
230
1.0
  0
TEXT
  8
11
  6
CONTINUOUS
 62
     7
  5
173
 10
923256.867
 20
7285736.504
 30
0.0
 40
8.0
  1
65'
 50
358.1335
  7
txt
 72
     4
 11
923266.44027
 21
7285740.194149
 31
0.0
210
0.0
220
0.0
230
1.0
  0
TEXT
  8
11
  6
CONTINUOUS
 62
     7
  5
174
 10
923117.957
 20
7285741.031
 30
0.0
 40
8.0
  1
65'
 50
358.1335
  7
txt
 72
     4
 11
923127.53027
 21
7285744.721149
 31
0.0
210
0.0
220
0.0
230
1.0
  0
TEXT
  8
11
  6
CONTINUOUS
 62
     7
  5
175
 10
922985.02
 20
7285745.363
 30
0.0
 40
8.0
  1
65'
 50
358.1335
  7
txt
 72
     4
 11
922994.59327
 21
7285749.053149
 31
0.0
210
0.0
220
0.0
230
1.0
  0
TEXT
  8
11
  6
CONTINUOUS
 62
     7
  5
176
 10
923785.53
 20
7285717.776
 30
0.0
 40
8.0
  1
65'
 50
358.1335
  7
txt
 72
     4
 11
923795.10327
 21
7285721.466149
 31
0.0
210
0.0
220
0.0
230
1.0
  0
TEXT
  8
11
  6
CONTINUOUS
 62
     7
  5
177
 10
923852.744
 20
7285715.585
 30
0.0
 40
8.0
  1
65'
 50
358.1335
  7
txt
 72
     4
 11
923862.31727
 21
7285719.275149
 31
0.0
210
0.0
220
0.0
230
1.0
  0
TEXT
  8
11
  6
CONTINUOUS
 62
     7
  5
178
 10
923915.478
 20
7285713.542
 30
0.0
 40
8.0
  1
65'
 50
358.1335
  7
txt
 72
     4
 11
923925.05127
 21
7285717.232149
 31
0.0
210
0.0
220
0.0
230
1.0
  0
TEXT
  8
11
  6
CONTINUOUS
 62
     7
  5
179
 10
923975.036
 20
7285711.6
 30
0.0
 40
8.0
  1
55'
 50
358.1335
  7
txt
 72
     4
 11
923984.79917
 21
7285715.28396
 31
0.0
210
0.0
220
0.0
230
1.0
  0
TEXT
  8
11
  6
CONTINUOUS
 62
     7
  5
17A
 10
923984.31
 20
7285811.918
 30
0.0
 40
8.0
  1
70'
 50
358.1335
  7
txt
 72
     4
 11
923994.07217
 21
7285815.601993
 31
0.0
210
0.0
220
0.0
230
1.0
  0
TEXT
  8
11
  6
CONTINUOUS
 62
     7
  5
17B
 10
923720.276
 20
7285820.984
 30
0.0
 40
8.0
  1
70'
 50
358.1335
  7
txt
 72
     4
 11
923730.03817
 21
7285824.667993
 31
0.0
210
0.0
220
0.0
230
1.0
  0
TEXT
  8
11
  6
CONTINUOUS
 62
     7
  5
17C
 10
923589.938
 20
7285824.913
 30
0.0
 40
8.0
  1
70'
 50
358.1335
  7
txt
 72
     4
 11
923599.70017
 21
7285828.596993
 31
0.0
210
0.0
220
0.0
230
1.0
  0
TEXT
  8
11
  6
CONTINUOUS
 62
     7
  5
17D
 10
922719.379
 20
7285853.739
 30
0.0
 40
8.0
  1
55'
 50
358.1335
  7
txt
 72
     4
 11
922729.14217
 21
7285857.42296
 31
0.0
210
0.0
220
0.0
230
1.0
  0
TEXT
  8
11
  6
CONTINUOUS
 62
     7
  5
17E
 10
923652.936
 20
7285733.602
 30
0.0
 40
8.0
  1
56'
 50
358.1335
  7
txt
 72
     4
 11
923662.50927
 21
7285737.292149
 31
0.0
210
0.0
220
0.0
230
1.0
  0
TEXT
  8
11
  6
CONTINUOUS
 62
     7
  5
17F
 10
922923.925
 20
7285660.588
 30
0.0
 40
8.0
  1
56'
 50
358.1335
  7
txt
 72
     4
 11
922933.49827
 21
7285664.278149
 31
0.0
210
0.0
220
0.0
230
1.0
  0
TEXT
  8
11
  6
CONTINUOUS
 62
     7
  5
180
 10
923448.223
 20
7285654.13
 30
0.0
 40
8.0
  1
56'
 50
358.1335
  7
txt
 72
     4
 11
923457.79627
 21
7285657.820149
 31
0.0
210
0.0
220
0.0
230
1.0
  0
TEXT
  8
11
  6
CONTINUOUS
 62
     7
  5
181
 10
922494.174
 20
7286036.05
 30
0.0
 40
8.0
  1
20'
 50
43.1335
  7
txt
 72
     4
 11
922498.449298
 21
7286045.536678
 31
0.0
210
0.0
220
0.0
230
1.0
  0
TEXT
  8
11
  6
CONTINUOUS
 62
     7
  5
182
 10
922674.55
 20
7285867.087
 30
0.0
 40
8.0
  1
20'
 50
88.1335
  7
txt
 72
     4
 11
922670.864997
 21
7285876.818187
 31
0.0
210
0.0
220
0.0
230
1.0
  0
TEXT
  8
11
  6
CONTINUOUS
 62
     7
  5
183
 10
923632.115
 20
7285835.95
 30
0.0
 40
8.0
  1
20'
 50
88.1335
  7
txt
 72
     4
 11
923628.429997
 21
7285845.681187
 31
0.0
210
0.0
220
0.0
230
1.0
  0
TEXT
  8
11
  6
CONTINUOUS
 62
     7
  5
184
 10
923701.387
 20
7285833.31
 30
0.0
 40
8.0
  1
20'
 50
88.1335
  7
txt
 72
     4
 11
923697.701997
 21
7285843.041187
 31
0.0
210
0.0
220
0.0
230
1.0
  0
TEXT
  8
11
  6
CONTINUOUS
 62
     7
  5
185
 10
924022.599
 20
7285822.282
 30
0.0
 40
8.0
  1
20'
 50
88.1335
  7
txt
 72
     4
 11
924018.913997
 21
7285832.013187
 31
0.0
210
0.0
220
0.0
230
1.0
  0
TEXT
  8
11
  6
CONTINUOUS
 62
     7
  5
186
 10
924030.646
 20
7285723.644
 30
0.0
 40
8.0
  1
32'
 50
358.1335
  7
txt
 72
     4
 11
924040.40917
 21
7285727.32796
 31
0.0
210
0.0
220
0.0
230
1.0
  0
TEXT
  8
11
  6
CONTINUOUS
 62
     7
  5
187
 10
924028.674
 20
7285632.6
 30
0.0
 40
8.0
  1
32'
 50
358.1335
  7
txt
 72
     4
 11
924038.43717
 21
7285636.28396
 31
0.0
210
0.0
220
0.0
230
1.0
  0
TEXT
  8
11
  6
CONTINUOUS
 62
     7
  5
188
 10
924024.707
 20
7285510.027
 30
0.0
 40
8.0
  1
30'
 50
358.1335
  7
txt
 72
     4
 11
924034.438187
 21
7285513.712003
 31
0.0
210
0.0
220
0.0
230
1.0
  0
TEXT
  8
11
  6
CONTINUOUS
 62
     7
  5
189
 10
924008.529
 20
7285031.106
 30
0.0
 40
8.0
  1
30'
 50
358.1335
  7
txt
 72
     4
 11
924018.260187
 21
7285034.791003
 31
0.0
210
0.0
220
0.0
230
1.0
  0
TEXT
  8
11
  6
CONTINUOUS
 62
     7
  5
18A
 10
923995.573
 20
7284920.95
 30
0.0
 40
8.0
  1
20'
 50
88.1335
  7
txt
 72
     4
 11
923991.887997
 21
7284930.681187
 31
0.0
210
0.0
220
0.0
230
1.0
  0
TEXT
  8
11
  6
CONTINUOUS
 62
     7
  5
18B
 10
923781.622
 20
7284913.744
 30
0.0
 40
8.0
  1
20'
 50
358.1335
  7
txt
 72
     4
 11
923791.353187
 21
7284917.429003
 31
0.0
210
0.0
220
0.0
230
1.0
  0
TEXT
  8
11
  6
CONTINUOUS
 62
     7
  5
18C
 10
924006.343
 20
7285222.823
 30
0.0
 40
8.0
  1
20'
 50
88.1335
  7
txt
 72
     4
 11
924002.657997
 21
7285232.554187
 31
0.0
210
0.0
220
0.0
230
1.0
  0
TEXT
  8
11
  6
CONTINUOUS
 62
     7
  5
18D
 10
924016.372
 20
7285522.158
 30
0.0
 40
8.0
  1
20'
 50
88.1335
  7
txt
 72
     4
 11
924012.686997
 21
7285531.889187
 31
0.0
210
0.0
220
0.0
230
1.0
  0
TEXT
  8
11
  6
CONTINUOUS
 62
     7
  5
18E
 10
923499.779
 20
7285539.163
 30
0.0
 40
8.0
  1
20'
 50
88.1335
  7
txt
 72
     4
 11
923496.093997
 21
7285548.894187
 31
0.0
210
0.0
220
0.0
230
1.0
  0
TEXT
  8
11
  6
CONTINUOUS
 62
     7
  5
18F
 10
923431.268
 20
7285541.939
 30
0.0
 40
8.0
  1
20'
 50
88.1335
  7
txt
 72
     4
 11
923427.582997
 21
7285551.670187
 31
0.0
210
0.0
220
0.0
230
1.0
  0
TEXT
  8
11
  6
CONTINUOUS
 62
     7
  5
190
 10
922979.976
 20
7285555.778
 30
0.0
 40
8.0
  1
20'
 50
88.1335
  7
txt
 72
     4
 11
922976.290997
 21
7285565.509187
 31
0.0
210
0.0
220
0.0
230
1.0
  0
TEXT
  8
11
  6
CONTINUOUS
 62
     7
  5
191
 10
922791.787
 20
7285263.95
 30
0.0
 40
8.0
  1
20'
 50
88.1335
  7
txt
 72
     4
 11
922788.101997
 21
7285273.681187
 31
0.0
210
0.0
220
0.0
230
1.0
  0
TEXT
  8
11
  6
CONTINUOUS
 62
     7
  5
192
 10
924022.678
 20
7285761.425
 30
0.0
 40
8.0
  1
97'
 50
88.1335
  7
txt
 72
     4
 11
924018.988894
 21
7285771.030253
 31
0.0
210
0.0
220
0.0
230
1.0
  0
TEXT
  8
11
  6
CONTINUOUS
 62
     7
  5
193
 10
924007.238
 20
7285677.571
 30
0.0
 40
8.0
  1
56'
 50
88.1335
  7
txt
 72
     4
 11
924003.547851
 21
7285687.14427
 31
0.0
210
0.0
220
0.0
230
1.0
  0
TEXT
  8
11
  6
CONTINUOUS
 62
     7
  5
194
 10
922998.169
 20
7285707.017
 30
0.0
 40
8.0
  1
56'
 50
88.1335
  7
txt
 72
     4
 11
922994.478851
 21
7285716.59027
 31
0.0
210
0.0
220
0.0
230
1.0
  0
TEXT
  8
11
  6
CONTINUOUS
 62
     7
  5
195
 10
922984.713
 20
7285407.893
 30
0.0
 40
8.0
  1
56'
 50
88.1335
  7
txt
 72
     4
 11
922981.022851
 21
7285417.46627
 31
0.0
210
0.0
220
0.0
230
1.0
  0
TEXT
  8
11
  6
CONTINUOUS
 62
     7
  5
196
 10
923916.949
 20
7285378.338
 30
0.0
 40
8.0
  1
56'
 50
88.1335
  7
txt
 72
     4
 11
923913.258851
 21
7285387.91127
 31
0.0
210
0.0
220
0.0
230
1.0
  0
TEXT
  8
11
  6
CONTINUOUS
 62
     7
  5
197
 10
923433.169
 20
7285603.352
 30
0.0
 40
8.0
  1
97'
 50
88.1335
  7
txt
 72
     4
 11
923429.479894
 21
7285612.957253
 31
0.0
210
0.0
220
0.0
230
1.0
  0
TEXT
  8
11
  6
CONTINUOUS
 62
     7
  5
198
 10
923429.252
 20
7285483.134
 30
0.0
 40
8.0
  1
97'
 50
88.1335
  7
txt
 72
     4
 11
923425.562894
 21
7285492.739253
 31
0.0
210
0.0
220
0.0
230
1.0
  0
TEXT
  8
11
  6
CONTINUOUS
 62
     7
  5
199
 10
923496.456
 20
7285462.945
 30
0.0
 40
8.0
  1
97'
 50
88.1335
  7
txt
 72
     4
 11
923492.766894
 21
7285472.550253
 31
0.0
210
0.0
220
0.0
230
1.0
  0
TEXT
  8
11
  6
CONTINUOUS
 62
     7
  5
19A
 10
923500.823
 20
7285596.976
 30
0.0
 40
8.0
  1
97'
 50
88.1335
  7
txt
 72
     4
 11
923497.133894
 21
7285606.581253
 31
0.0
210
0.0
220
0.0
230
1.0
  0
TEXT
  8
11
  6
CONTINUOUS
 62
     7
  5
19B
 10
924016.353
 20
7285588.357
 30
0.0
 40
8.0
  1
97'
 50
88.1335
  7
txt
 72
     4
 11
924012.663894
 21
7285597.962253
 31
0.0
210
0.0
220
0.0
230
1.0
  0
TEXT
  8
11
  6
CONTINUOUS
 62
     7
  5
19C
 10
924014.226
 20
7285456.171
 30
0.0
 40
8.0
  1
140'
 50
88.1335
  7
txt
 72
     4
 11
924010.631284
 21
7285468.672716
 31
0.0
210
0.0
220
0.0
230
1.0
  0
TEXT
  8
11
  6
CONTINUOUS
 62
     7
  5
19D
 10
924009.265
 20
7285285.994
 30
0.0
 40
8.0
  1
140'
 50
88.1335
  7
txt
 72
     4
 11
924005.670284
 21
7285298.495716
 31
0.0
210
0.0
220
0.0
230
1.0
  0
TEXT
  8
11
  6
CONTINUOUS
 62
     7
  5
19E
 10
923938.29
 20
7285281.235
 30
0.0
 40
8.0
  1
94.17'
 50
88.1335
  7
txt
 72
     4
 11
923934.887061
 21
7285299.621592
 31
0.0
210
0.0
220
0.0
230
1.0
  0
TEXT
  8
11
  6
CONTINUOUS
 62
     7
  5
19F
 10
923944.624
 20
7285455.919
 30
0.0
 40
8.0
  1
94.17'
 50
88.1335
  7
txt
 72
     4
 11
923941.221061
 21
7285474.305592
 31
0.0
210
0.0
220
0.0
230
1.0
  0
TEXT
  8
11
  6
CONTINUOUS
 62
     7
  5
1A0
 10
923873.144
 20
7285287.873
 30
0.0
 40
8.0
  1
112'
 50
88.1335
  7
txt
 72
     4
 11
923869.497952
 21
7285298.799552
 31
0.0
210
0.0
220
0.0
230
1.0
  0
TEXT
  8
11
  6
CONTINUOUS
 62
     7
  5
1A1
 10
922847.828
 20
7285318.925
 30
0.0
 40
8.0
  1
112'
 50
88.1335
  7
txt
 72
     4
 11
922844.181952
 21
7285329.851552
 31
0.0
210
0.0
220
0.0
230
1.0
  0
TEXT
  8
11
  6
CONTINUOUS
 62
     7
  5
1A2
 10
922790.45
 20
7285323.889
 30
0.0
 40
8.0
  1
97'
 50
88.1335
  7
txt
 72
     4
 11
922786.760894
 21
7285333.494253
 31
0.0
210
0.0
220
0.0
230
1.0
  0
TEXT
  8
11
  6
CONTINUOUS
 62
     7
  5
1A3
 10
922786.317
 20
7285197.096
 30
0.0
 40
8.0
  1
97'
 50
88.1335
  7
txt
 72
     4
 11
922782.627894
 21
7285206.701253
 31
0.0
210
0.0
220
0.0
230
1.0
  0
TEXT
  8
11
  6
CONTINUOUS
 62
     7
  5
1A4
 10
922844.196
 20
7285189.311
 30
0.0
 40
8.0
  1
112'
 50
88.1335
  7
txt
 72
     4
 11
922840.549952
 21
7285200.237552
 31
0.0
210
0.0
220
0.0
230
1.0
  0
TEXT
  8
11
  6
CONTINUOUS
 62
     7
  5
1A5
 10
923934.239
 20
7285159.101
 30
0.0
 40
8.0
  1
112'
 50
88.1335
  7
txt
 72
     4
 11
923930.592952
 21
7285170.027552
 31
0.0
210
0.0
220
0.0
230
1.0
  0
TEXT
  8
11
  6
CONTINUOUS
 62
     7
  5
1A6
 10
924004.13
 20
7285157.766
 30
0.0
 40
8.0
  1
97'
 50
88.1335
  7
txt
 72
     4
 11
924000.440894
 21
7285167.371253
 31
0.0
210
0.0
220
0.0
230
1.0
  0
TEXT
  8
11
  6
CONTINUOUS
 62
     7
  5
1A7
 10
923976.629
 20
7285643.858
 30
0.0
 40
8.0
  1
55'
 50
358.1335
  7
txt
 72
     4
 11
923986.39217
 21
7285647.54196
 31
0.0
210
0.0
220
0.0
230
1.0
  0
TEXT
  8
11
  6
CONTINUOUS
 62
     7
  5
1A8
 10
923526.22
 20
7285657.22
 30
0.0
 40
8.0
  1
55'
 50
358.1335
  7
txt
 72
     4
 11
923535.98317
 21
7285660.90396
 31
0.0
210
0.0
220
0.0
230
1.0
  0
TEXT
  8
11
  6
CONTINUOUS
 62
     7
  5
1A9
 10
923386.381
 20
7285663.229
 30
0.0
 40
8.0
  1
55'
 50
358.1335
  7
txt
 72
     4
 11
923396.14417
 21
7285666.91296
 31
0.0
210
0.0
220
0.0
230
1.0
  0
TEXT
  8
11
  6
CONTINUOUS
 62
     7
  5
1AA
 10
922989.125
 20
7285677.675
 30
0.0
 40
8.0
  1
55'
 50
358.1335
  7
txt
 72
     4
 11
922998.88817
 21
7285681.35896
 31
0.0
210
0.0
220
0.0
230
1.0
  0
TEXT
  8
11
  6
CONTINUOUS
 62
     7
  5
1AB
 10
923055.637
 20
7285675.507
 30
0.0
 40
8.0
  1
65'
 50
358.1335
  7
txt
 72
     4
 11
923065.21027
 21
7285679.197149
 31
0.0
210
0.0
220
0.0
230
1.0
  0
TEXT
  8
11
  6
CONTINUOUS
 62
     7
  5
1AC
 10
923324.876
 20
7285665.233
 30
0.0
 40
8.0
  1
65'
 50
358.1335
  7
txt
 72
     4
 11
923334.44927
 21
7285668.923149
 31
0.0
210
0.0
220
0.0
230
1.0
  0
TEXT
  8
11
  6
CONTINUOUS
 62
     7
  5
1AD
 10
923314.965
 20
7285432.134
 30
0.0
 40
8.0
  1
65'
 50
358.1335
  7
txt
 72
     4
 11
923324.53827
 21
7285435.824149
 31
0.0
210
0.0
220
0.0
230
1.0
  0
TEXT
  8
11
  6
CONTINUOUS
 62
     7
  5
1AE
 10
923056.477
 20
7285440.966
 30
0.0
 40
8.0
  1
65'
 50
358.1335
  7
txt
 72
     4
 11
923066.05027
 21
7285444.656149
 31
0.0
210
0.0
220
0.0
230
1.0
  0
TEXT
  8
11
  6
CONTINUOUS
 62
     7
  5
1AF
 10
922996.944
 20
7285443.999
 30
0.0
 40
8.0
  1
55'
 50
358.1335
  7
txt
 72
     4
 11
923006.70717
 21
7285447.68296
 31
0.0
210
0.0
220
0.0
230
1.0
  0
TEXT
  8
11
  6
CONTINUOUS
 62
     7
  5
1B0
 10
923381.271
 20
7285430.381
 30
0.0
 40
8.0
  1
55'
 50
358.1335
  7
txt
 72
     4
 11
923391.03417
 21
7285434.06496
 31
0.0
210
0.0
220
0.0
230
1.0
  0
TEXT
  8
11
  6
CONTINUOUS
 62
     7
  5
1B1
 10
923591.456
 20
7285655.076
 30
0.0
 40
8.0
  1
65'
 50
358.1335
  7
txt
 72
     4
 11
923601.02927
 21
7285658.766149
 31
0.0
210
0.0
220
0.0
230
1.0
  0
TEXT
  8
11
  6
CONTINUOUS
 62
     7
  5
1B2
 10
923919.092
 20
7285644.399
 30
0.0
 40
8.0
  1
65'
 50
358.1335
  7
txt
 72
     4
 11
923928.66527
 21
7285648.089149
 31
0.0
210
0.0
220
0.0
230
1.0
  0
TEXT
  8
11
  6
CONTINUOUS
 62
     7
  5
1B3
 10
923908.337
 20
7285513.457
 30
0.0
 40
8.0
  1
65'
 50
358.1335
  7
txt
 72
     4
 11
923917.91027
 21
7285517.147149
 31
0.0
210
0.0
220
0.0
230
1.0
  0
TEXT
  8
11
  6
CONTINUOUS
 62
     7
  5
1B4
 10
923976.325
 20
7285510.696
 30
0.0
 40
8.0
  1
70'
 50
358.1335
  7
txt
 72
     4
 11
923986.08717
 21
7285514.379993
 31
0.0
210
0.0
220
0.0
230
1.0
  0
TEXT
  8
11
  6
CONTINUOUS
 62
     7
  5
1B5
 10
923976.834
 20
7285543.039
 30
0.0
 40
8.0
  1
70'
 50
358.1335
  7
txt
 72
     4
 11
923986.59617
 21
7285546.722993
 31
0.0
210
0.0
220
0.0
230
1.0
  0
TEXT
  8
11
  6
CONTINUOUS
 62
     7
  5
1B6
 10
923514.635
 20
7285558.241
 30
0.0
 40
8.0
  1
70'
 50
358.1335
  7
txt
 72
     4
 11
923524.39717
 21
7285561.924993
 31
0.0
210
0.0
220
0.0
230
1.0
  0
TEXT
  8
11
  6
CONTINUOUS
 62
     7
  5
1B7
 10
923389.136
 20
7285562.643
 30
0.0
 40
8.0
  1
70'
 50
358.1335
  7
txt
 72
     4
 11
923398.89817
 21
7285566.326993
 31
0.0
210
0.0
220
0.0
230
1.0
  0
TEXT
  8
11
  6
CONTINUOUS
 62
     7
  5
1B8
 10
922998.538
 20
7285575.464
 30
0.0
 40
8.0
  1
70'
 50
358.1335
  7
txt
 72
     4
 11
923008.30017
 21
7285579.147993
 31
0.0
210
0.0
220
0.0
230
1.0
  0
TEXT
  8
11
  6
CONTINUOUS
 62
     7
  5
1B9
 10
922996.941
 20
7285543.158
 30
0.0
 40
8.0
  1
70'
 50
358.1335
  7
txt
 72
     4
 11
923006.70317
 21
7285546.841993
 31
0.0
210
0.0
220
0.0
230
1.0
  0
TEXT
  8
11
  6
CONTINUOUS
 62
     7
  5
1BA
 10
923391.605
 20
7285531.023
 30
0.0
 40
8.0
  1
70'
 50
358.1335
  7
txt
 72
     4
 11
923401.36717
 21
7285534.706993
 31
0.0
210
0.0
220
0.0
230
1.0
  0
TEXT
  8
11
  6
CONTINUOUS
 62
     7
  5
1BB
 10
923514.402
 20
7285528.43
 30
0.0
 40
8.0
  1
70'
 50
358.1335
  7
txt
 72
     4
 11
923524.16417
 21
7285532.113993
 31
0.0
210
0.0
220
0.0
230
1.0
  0
TEXT
  8
11
  6
CONTINUOUS
 62
     7
  5
1BC
 10
923512.863
 20
7285426.928
 30
0.0
 40
8.0
  1
55'
 50
358.1335
  7
txt
 72
     4
 11
923522.62617
 21
7285430.61196
 31
0.0
210
0.0
220
0.0
230
1.0
  0
TEXT
  8
11
  6
CONTINUOUS
 62
     7
  5
1BD
 10
923579.962
 20
7285425.693
 30
0.0
 40
8.0
  1
65'
 50
358.1335
  7
txt
 72
     4
 11
923589.53527
 21
7285429.383149
 31
0.0
210
0.0
220
0.0
230
1.0
  0
TEXT
  8
11
  6
CONTINUOUS
 62
     7
  5
1BE
 10
923839.11
 20
7285417.953
 30
0.0
 40
8.0
  1
65'
 50
358.1335
  7
txt
 72
     4
 11
923848.68327
 21
7285421.643149
 31
0.0
210
0.0
220
0.0
230
1.0
  0
TEXT
  8
11
  6
CONTINUOUS
 62
     7
  5
1BF
 10
923881.948
 20
7285414.305
 30
0.0
 40
8.0
  1
43.52'
 50
358.1335
  7
txt
 72
     4
 11
923901.909756
 21
7285417.656608
 31
0.0
210
0.0
220
0.0
230
1.0
  0
TEXT
  8
11
  6
CONTINUOUS
 62
     7
  5
1C0
 10
923452.691
 20
7285439.958
 30
0.0
 40
8.0
  1
56'
 50
358.1335
  7
txt
 72
     4
 11
923462.26427
 21
7285443.648149
 31
0.0
210
0.0
220
0.0
230
1.0
  0
TEXT
  8
11
  6
CONTINUOUS
 62
     7
  5
1C1
 10
923971.908
 20
7285382.678
 30
0.0
 40
8.0
  1
R=50'
 50
43.1335
  7
txt
 72
     4
 11
923981.493051
 21
7285397.139284
 31
0.0
210
0.0
220
0.0
230
1.0
  0
TEXT
  8
11
  6
CONTINUOUS
 62
     7
  5
1C2
 10
923902.422
 20
7285447.598
 30
0.0
 40
8.0
  1
27.87'
 50
313.1335
  7
txt
 72
     4
 11
923918.820891
 21
7285435.944802
 31
0.0
210
0.0
220
0.0
230
1.0
  0
TEXT
  8
11
  6
CONTINUOUS
 62
     7
  5
1C3
 10
923907.492
 20
7285313.272
 30
0.0
 40
8.0
  1
27.87'
 50
43.1335
  7
txt
 72
     4
 11
923919.145198
 21
7285329.670891
 31
0.0
210
0.0
220
0.0
230
1.0
  0
TEXT
  8
11
  6
CONTINUOUS
 62
     7
  5
1C4
 10
922812.108
 20
7285381.691
 30
0.0
 40
8.0
  1
55'
 50
358.1335
  7
txt
 72
     4
 11
922821.87117
 21
7285385.37496
 31
0.0
210
0.0
220
0.0
230
1.0
  0
TEXT
  8
11
  6
CONTINUOUS
 62
     7
  5
1C5
 10
922875.841
 20
7285380.204
 30
0.0
 40
8.0
  1
65'
 50
358.1335
  7
txt
 72
     4
 11
922885.41427
 21
7285383.894149
 31
0.0
210
0.0
220
0.0
230
1.0
  0
TEXT
  8
11
  6
CONTINUOUS
 62
     7
  5
1C6
 10
923657.334
 20
7285354.509
 30
0.0
 40
8.0
  1
65'
 50
358.1335
  7
txt
 72
     4
 11
923666.90727
 21
7285358.199149
 31
0.0
210
0.0
220
0.0
230
1.0
  0
TEXT
  8
11
  6
CONTINUOUS
 62
     7
  5
1C7
 10
923718.304
 20
7285352.159
 30
0.0
 40
8.0
  1
60'
 50
358.1335
  7
txt
 72
     4
 11
923727.845287
 21
7285355.850191
 31
0.0
210
0.0
220
0.0
230
1.0
  0
TEXT
  8
11
  6
CONTINUOUS
 62
     7
  5
1C8
 10
923777.847
 20
7285350.219
 30
0.0
 40
8.0
  1
60'
 50
358.1335
  7
txt
 72
     4
 11
923787.388287
 21
7285353.910191
 31
0.0
210
0.0
220
0.0
230
1.0
  0
TEXT
  8
11
  6
CONTINUOUS
 62
     7
  5
1C9
 10
923843.952
 20
7285348.655
 30
0.0
 40
8.0
  1
61'
 50
358.1335
  7
txt
 72
     4
 11
923852.109022
 21
7285352.391302
 31
0.0
210
0.0
220
0.0
230
1.0
  0
TEXT
  8
11
  6
CONTINUOUS
 62
     7
  5
1CA
 10
923883.0
 20
7285347.018
 30
0.0
 40
8.0
  1
43.58'
 50
358.1335
  7
txt
 72
     4
 11
923902.961756
 21
7285350.369608
 31
0.0
210
0.0
220
0.0
230
1.0
  0
TEXT
  8
11
  6
CONTINUOUS
 62
     7
  5
1CB
 10
923901.017
 20
7285246.275
 30
0.0
 40
8.0
  1
65'
 50
358.1335
  7
txt
 72
     4
 11
923910.59027
 21
7285249.965149
 31
0.0
210
0.0
220
0.0
230
1.0
  0
TEXT
  8
11
  6
CONTINUOUS
 62
     7
  5
1CC
 10
923972.254
 20
7285242.183
 30
0.0
 40
8.0
  1
70'
 50
358.1335
  7
txt
 72
     4
 11
923982.01617
 21
7285245.866993
 31
0.0
210
0.0
220
0.0
230
1.0
  0
TEXT
  8
11
  6
CONTINUOUS
 62
     7
  5
1CD
 10
922805.467
 20
7285281.978
 30
0.0
 40
8.0
  1
70'
 50
358.1335
  7
txt
 72
     4
 11
922815.22917
 21
7285285.661993
 31
0.0
210
0.0
220
0.0
230
1.0
  0
TEXT
  8
11
  6
CONTINUOUS
 62
     7
  5
1CE
 10
922806.207
 20
7285250.366
 30
0.0
 40
8.0
  1
70'
 50
358.1335
  7
txt
 72
     4
 11
922815.96917
 21
7285254.049993
 31
0.0
210
0.0
220
0.0
230
1.0
  0
TEXT
  8
11
  6
CONTINUOUS
 62
     7
  5
1CF
 10
923968.777
 20
7285212.48
 30
0.0
 40
8.0
  1
70'
 50
358.1335
  7
txt
 72
     4
 11
923978.53917
 21
7285216.163993
 31
0.0
210
0.0
220
0.0
230
1.0
  0
TEXT
  8
11
  6
CONTINUOUS
 62
     7
  5
1D0
 10
923958.979
 20
7285111.098
 30
0.0
 40
8.0
  1
55'
 50
358.1335
  7
txt
 72
     4
 11
923968.74217
 21
7285114.78196
 31
0.0
210
0.0
220
0.0
230
1.0
  0
TEXT
  8
11
  6
CONTINUOUS
 62
     7
  5
1D1
 10
922808.534
 20
7285149.769
 30
0.0
 40
8.0
  1
55'
 50
358.1335
  7
txt
 72
     4
 11
922818.29717
 21
7285153.45296
 31
0.0
210
0.0
220
0.0
230
1.0
  0
TEXT
  8
11
  6
CONTINUOUS
 62
     7
  5
1D2
 10
922870.645
 20
7285148.336
 30
0.0
 40
8.0
  1
65'
 50
358.1335
  7
txt
 72
     4
 11
922880.21827
 21
7285152.026149
 31
0.0
210
0.0
220
0.0
230
1.0
  0
TEXT
  8
11
  6
CONTINUOUS
 62
     7
  5
1D3
 10
923650.104
 20
7285121.164
 30
0.0
 40
8.0
  1
65'
 50
358.1335
  7
txt
 72
     4
 11
923659.67727
 21
7285124.854149
 31
0.0
210
0.0
220
0.0
230
1.0
  0
TEXT
  8
11
  6
CONTINUOUS
 62
     7
  5
1D4
 10
923711.153
 20
7285119.175
 30
0.0
 40
8.0
  1
60'
 50
358.1335
  7
txt
 72
     4
 11
923720.694287
 21
7285122.866191
 31
0.0
210
0.0
220
0.0
230
1.0
  0
TEXT
  8
11
  6
CONTINUOUS
 62
     7
  5
1D5
 10
923768.191
 20
7285117.316
 30
0.0
 40
8.0
  1
60'
 50
358.1335
  7
txt
 72
     4
 11
923777.732287
 21
7285121.007191
 31
0.0
210
0.0
220
0.0
230
1.0
  0
TEXT
  8
11
  6
CONTINUOUS
 62
     7
  5
1D6
 10
923829.265
 20
7285115.325
 30
0.0
 40
8.0
  1
61'
 50
358.1335
  7
txt
 72
     4
 11
923837.422022
 21
7285119.061302
 31
0.0
210
0.0
220
0.0
230
1.0
  0
TEXT
  8
11
  6
CONTINUOUS
 62
     7
  5
1D7
 10
923898.152
 20
7285113.081
 30
0.0
 40
8.0
  1
65'
 50
358.1335
  7
txt
 72
     4
 11
923907.72527
 21
7285116.771149
 31
0.0
210
0.0
220
0.0
230
1.0
  0
TEXT
  8
11
  6
CONTINUOUS
 62
     7
  5
1D8
 10
923623.783
 20
7284677.4
 30
0.0
 40
8.0
  1
56'
 50
358.1335
  7
txt
 72
     4
 11
923633.35627
 21
7284681.090149
 31
0.0
210
0.0
220
0.0
230
1.0
  0
TEXT
  8
11
  6
CONTINUOUS
 62
     7
  5
1D9
 10
923328.021
 20
7284770.297
 30
0.0
 40
8.0
  1
56'
 50
358.1335
  7
txt
 72
     4
 11
923337.59427
 21
7284773.987149
 31
0.0
210
0.0
220
0.0
230
1.0
  0
TEXT
  8
11
  6
CONTINUOUS
 62
     7
  5
1DA
 10
923026.332
 20
7284697.582
 30
0.0
 40
8.0
  1
56'
 50
358.1335
  7
txt
 72
     4
 11
923035.90527
 21
7284701.272149
 31
0.0
210
0.0
220
0.0
230
1.0
  0
TEXT
  8
11
  6
CONTINUOUS
 62
     7
  5
1DB
 10
922795.362
 20
7285082.889
 30
0.0
 40
8.0
  1
47'
 50
358.1335
  7
txt
 72
     4
 11
922805.345053
 21
7285086.565795
 31
0.0
210
0.0
220
0.0
230
1.0
  0
TEXT
  8
11
  6
CONTINUOUS
 62
     7
  5
1DC
 10
922970.791
 20
7285077.172
 30
0.0
 40
8.0
  1
47'
 50
358.1335
  7
txt
 72
     4
 11
922980.774053
 21
7285080.848795
 31
0.0
210
0.0
220
0.0
230
1.0
  0
TEXT
  8
11
  6
CONTINUOUS
 62
     7
  5
1DD
 10
923096.969
 20
7285072.348
 30
0.0
 40
8.0
  1
47'
 50
358.1335
  7
txt
 72
     4
 11
923106.952053
 21
7285076.024795
 31
0.0
210
0.0
220
0.0
230
1.0
  0
TEXT
  8
11
  6
CONTINUOUS
 62
     7
  5
1DE
 10
923272.678
 20
7285066.623
 30
0.0
 40
8.0
  1
47'
 50
358.1335
  7
txt
 72
     4
 11
923282.661053
 21
7285070.299795
 31
0.0
210
0.0
220
0.0
230
1.0
  0
TEXT
  8
11
  6
CONTINUOUS
 62
     7
  5
1DF
 10
923400.893
 20
7285061.734
 30
0.0
 40
8.0
  1
47'
 50
358.1335
  7
txt
 72
     4
 11
923410.876053
 21
7285065.410795
 31
0.0
210
0.0
220
0.0
230
1.0
  0
TEXT
  8
11
  6
CONTINUOUS
 62
     7
  5
1E0
 10
923574.964
 20
7285056.772
 30
0.0
 40
8.0
  1
47'
 50
358.1335
  7
txt
 72
     4
 11
923584.947053
 21
7285060.448795
 31
0.0
210
0.0
220
0.0
230
1.0
  0
TEXT
  8
11
  6
CONTINUOUS
 62
     7
  5
1E1
 10
922856.87
 20
7285079.462
 30
0.0
 40
8.0
  1
60'
 50
358.1335
  7
txt
 72
     4
 11
922866.411287
 21
7285083.153191
 31
0.0
210
0.0
220
0.0
230
1.0
  0
TEXT
  8
11
  6
CONTINUOUS
 62
     7
  5
1E2
 10
922914.359
 20
7285078.299
 30
0.0
 40
8.0
  1
60'
 50
358.1335
  7
txt
 72
     4
 11
922923.900287
 21
7285081.990191
 31
0.0
210
0.0
220
0.0
230
1.0
  0
TEXT
  8
11
  6
CONTINUOUS
 62
     7
  5
1E3
 10
923159.396
 20
7285069.604
 30
0.0
 40
8.0
  1
60'
 50
358.1335
  7
txt
 72
     4
 11
923168.937287
 21
7285073.295191
 31
0.0
210
0.0
220
0.0
230
1.0
  0
TEXT
  8
11
  6
CONTINUOUS
 62
     7
  5
1E4
 10
923216.176
 20
7285068.464
 30
0.0
 40
8.0
  1
60'
 50
358.1335
  7
txt
 72
     4
 11
923225.717287
 21
7285072.155191
 31
0.0
210
0.0
220
0.0
230
1.0
  0
TEXT
  8
11
  6
CONTINUOUS
 62
     7
  5
1E5
 10
923456.335
 20
7285059.926
 30
0.0
 40
8.0
  1
60'
 50
358.1335
  7
txt
 72
     4
 11
923465.876287
 21
7285063.617191
 31
0.0
210
0.0
220
0.0
230
1.0
  0
TEXT
  8
11
  6
CONTINUOUS
 62
     7
  5
1E6
 10
923515.932
 20
7285057.984
 30
0.0
 40
8.0
  1
60'
 50
358.1335
  7
txt
 72
     4
 11
923525.473287
 21
7285061.675191
 31
0.0
210
0.0
220
0.0
230
1.0
  0
TEXT
  8
11
  6
CONTINUOUS
 62
     7
  5
1E7
 10
923702.529
 20
7285052.694
 30
0.0
 40
8.0
  1
55'
 50
358.1335
  7
txt
 72
     4
 11
923712.29217
 21
7285056.37796
 31
0.0
210
0.0
220
0.0
230
1.0
  0
TEXT
  8
11
  6
CONTINUOUS
 62
     7
  5
1E8
 10
923763.695
 20
7285050.701
 30
0.0
 40
8.0
  1
65'
 50
358.1335
  7
txt
 72
     4
 11
923773.26827
 21
7285054.391149
 31
0.0
210
0.0
220
0.0
230
1.0
  0
TEXT
  8
11
  6
CONTINUOUS
 62
     7
  5
1E9
 10
923891.696
 20
7285045.846
 30
0.0
 40
8.0
  1
65'
 50
358.1335
  7
txt
 72
     4
 11
923901.26927
 21
7285049.536149
 31
0.0
210
0.0
220
0.0
230
1.0
  0
TEXT
  8
11
  6
CONTINUOUS
 62
     7
  5
1EA
 10
923834.209
 20
7285048.404
 30
0.0
 40
8.0
  1
61'
 50
358.1335
  7
txt
 72
     4
 11
923842.366022
 21
7285052.140302
 31
0.0
210
0.0
220
0.0
230
1.0
  0
TEXT
  8
11
  6
CONTINUOUS
 62
     7
  5
1EB
 10
923957.29
 20
7285044.392
 30
0.0
 40
8.0
  1
55'
 50
358.1335
  7
txt
 72
     4
 11
923967.05317
 21
7285048.07596
 31
0.0
210
0.0
220
0.0
230
1.0
  0
TEXT
  8
11
  6
CONTINUOUS
 62
     7
  5
1EC
 10
923945.315
 20
7284949.858
 30
0.0
 40
8.0
  1
70'
 50
358.1335
  7
txt
 72
     4
 11
923955.07717
 21
7284953.541993
 31
0.0
210
0.0
220
0.0
230
1.0
  0
TEXT
  8
11
  6
CONTINUOUS
 62
     7
  5
1ED
 10
923754.495
 20
7284956.077
 30
0.0
 40
8.0
  1
65'
 50
358.1335
  7
txt
 72
     4
 11
923764.06827
 21
7284959.767149
 31
0.0
210
0.0
220
0.0
230
1.0
  0
TEXT
  8
11
  6
CONTINUOUS
 62
     7
  5
1EE
 10
923388.391
 20
7284968.007
 30
0.0
 40
8.0
  1
62'
 50
358.1335
  7
txt
 72
     4
 11
923397.96427
 21
7284971.697149
 31
0.0
210
0.0
220
0.0
230
1.0
  0
TEXT
  8
11
  6
CONTINUOUS
 62
     7
  5
1EF
 10
923084.631
 20
7284977.906
 30
0.0
 40
8.0
  1
62'
 50
358.1335
  7
txt
 72
     4
 11
923094.20427
 21
7284981.596149
 31
0.0
210
0.0
220
0.0
230
1.0
  0
TEXT
  8
11
  6
CONTINUOUS
 62
     7
  5
1F0
 10
923265.03
 20
7284972.028
 30
0.0
 40
8.0
  1
62'
 50
358.1335
  7
txt
 72
     4
 11
923274.60327
 21
7284975.718149
 31
0.0
210
0.0
220
0.0
230
1.0
  0
TEXT
  8
11
  6
CONTINUOUS
 62
     7
  5
1F1
 10
922976.05
 20
7284975.758
 30
0.0
 40
8.0
  1
62'
 50
358.1335
  7
txt
 72
     4
 11
922985.62327
 21
7284979.448149
 31
0.0
210
0.0
220
0.0
230
1.0
  0
TEXT
  8
11
  6
CONTINUOUS
 62
     7
  5
1F2
 10
923902.304
 20
7284911.882
 30
0.0
 40
8.0
  1
229'
 50
358.1335
  7
txt
 72
     4
 11
923915.875148
 21
7284915.441865
 31
0.0
210
0.0
220
0.0
230
1.0
  0
TEXT
  8
11
  6
CONTINUOUS
 62
     7
  5
1F3
 10
923892.752
 20
7284661.712
 30
0.0
 40
8.0
  1
229'
 50
358.1335
  7
txt
 72
     4
 11
923906.323148
 21
7284665.271865
 31
0.0
210
0.0
220
0.0
230
1.0
  0
TEXT
  8
11
  6
CONTINUOUS
 62
     7
  5
1F4
 10
923700.329
 20
7284665.93
 30
0.0
 40
8.0
  1
96.99'
 50
358.1335
  7
txt
 72
     4
 11
923719.345258
 21
7284669.31242
 31
0.0
210
0.0
220
0.0
230
1.0
  0
TEXT
  8
11
  6
CONTINUOUS
 62
     7
  5
1F5
 10
923535.74
 20
7284671.054
 30
0.0
 40
8.0
  1
97.01'
 50
358.1335
  7
txt
 72
     4
 11
923553.906709
 21
7284674.464105
 31
0.0
210
0.0
220
0.0
230
1.0
  0
TEXT
  8
11
  6
CONTINUOUS
 62
     7
  5
1F6
 10
923411.211
 20
7284675.825
 30
0.0
 40
8.0
  1
140'
 50
358.1335
  7
txt
 72
     4
 11
923423.712716
 21
7284679.419716
 31
0.0
210
0.0
220
0.0
230
1.0
  0
TEXT
  8
11
  6
CONTINUOUS
 62
     7
  5
1F7
 10
923233.292
 20
7284681.621
 30
0.0
 40
8.0
  1
140'
 50
358.1335
  7
txt
 72
     4
 11
923245.793716
 21
7284685.215716
 31
0.0
210
0.0
220
0.0
230
1.0
  0
TEXT
  8
11
  6
CONTINUOUS
 62
     7
  5
1F8
 10
922806.33
 20
7284695.535
 30
0.0
 40
8.0
  1
140'
 50
358.1335
  7
txt
 72
     4
 11
922818.831716
 21
7284699.129716
 31
0.0
210
0.0
220
0.0
230
1.0
  0
TEXT
  8
11
  6
CONTINUOUS
 62
     7
  5
1F9
 10
922628.951
 20
7284702.027
 30
0.0
 40
8.0
  1
140'
 50
358.1335
  7
txt
 72
     4
 11
922641.452716
 21
7284705.621716
 31
0.0
210
0.0
220
0.0
230
1.0
  0
TEXT
  8
11
  6
CONTINUOUS
 62
     7
  5
1FA
 10
922931.731
 20
7284692.16
 30
0.0
 40
8.0
  1
97.01'
 50
358.1335
  7
txt
 72
     4
 11
922949.897709
 21
7284695.570105
 31
0.0
210
0.0
220
0.0
230
1.0
  0
TEXT
  8
11
  6
CONTINUOUS
 62
     7
  5
1FB
 10
923099.135
 20
7284685.994
 30
0.0
 40
8.0
  1
96.99'
 50
358.1335
  7
txt
 72
     4
 11
923118.151258
 21
7284689.37642
 31
0.0
210
0.0
220
0.0
230
1.0
  0
TEXT
  8
11
  6
CONTINUOUS
 62
     7
  5
1FC
 10
923699.625
 20
7284741.111
 30
0.0
 40
8.0
  1
112'
 50
358.1335
  7
txt
 72
     4
 11
923710.551552
 21
7284744.757048
 31
0.0
210
0.0
220
0.0
230
1.0
  0
TEXT
  8
11
  6
CONTINUOUS
 62
     7
  5
1FD
 10
923705.973
 20
7284935.888
 30
0.0
 40
8.0
  1
112'
 50
358.1335
  7
txt
 72
     4
 11
923716.899552
 21
7284939.534048
 31
0.0
210
0.0
220
0.0
230
1.0
  0
TEXT
  8
11
  6
CONTINUOUS
 62
     7
  5
1FE
 10
923546.871
 20
7284925.433
 30
0.0
 40
8.0
  1
112'
 50
358.1335
  7
txt
 72
     4
 11
923557.797552
 21
7284929.079048
 31
0.0
210
0.0
220
0.0
230
1.0
  0
TEXT
  8
11
  6
CONTINUOUS
 62
     7
  5
1FF
 10
923543.873
 20
7284746.186
 30
0.0
 40
8.0
  1
112'
 50
358.1335
  7
txt
 72
     4
 11
923554.799552
 21
7284749.832048
 31
0.0
210
0.0
220
0.0
230
1.0
  0
TEXT
  8
11
  6
CONTINUOUS
 62
     7
  5
200
 10
923105.071
 20
7284760.486
 30
0.0
 40
8.0
  1
112'
 50
358.1335
  7
txt
 72
     4
 11
923115.997552
 21
7284764.132048
 31
0.0
210
0.0
220
0.0
230
1.0
  0
TEXT
  8
11
  6
CONTINUOUS
 62
     7
  5
201
 10
923112.711
 20
7284885.828
 30
0.0
 40
8.0
  1
112'
 50
358.1335
  7
txt
 72
     4
 11
923123.637552
 21
7284889.474048
 31
0.0
210
0.0
220
0.0
230
1.0
  0
TEXT
  8
11
  6
CONTINUOUS
 62
     7
  5
202
 10
923414.768
 20
7284875.274
 30
0.0
 40
8.0
  1
112'
 50
358.1335
  7
txt
 72
     4
 11
923425.694552
 21
7284878.920048
 31
0.0
210
0.0
220
0.0
230
1.0
  0
TEXT
  8
11
  6
CONTINUOUS
 62
     7
  5
203
 10
922945.455
 20
7284891.278
 30
0.0
 40
8.0
  1
112'
 50
358.1335
  7
txt
 72
     4
 11
922956.381552
 21
7284894.924048
 31
0.0
210
0.0
220
0.0
230
1.0
  0
TEXT
  8
11
  6
CONTINUOUS
 62
     7
  5
204
 10
922816.266
 20
7284948.81
 30
0.0
 40
8.0
  1
112'
 50
358.1335
  7
txt
 72
     4
 11
922827.192552
 21
7284952.456048
 31
0.0
210
0.0
220
0.0
230
1.0
  0
TEXT
  8
11
  6
CONTINUOUS
 62
     7
  5
205
 10
922811.715
 20
7284830.985
 30
0.0
 40
8.0
  1
112'
 50
358.1335
  7
txt
 72
     4
 11
922822.641552
 21
7284834.631048
 31
0.0
210
0.0
220
0.0
230
1.0
  0
TEXT
  8
11
  6
CONTINUOUS
 62
     7
  5
206
 10
922633.924
 20
7284840.334
 30
0.0
 40
8.0
  1
112'
 50
358.1335
  7
txt
 72
     4
 11
922644.850552
 21
7284843.980048
 31
0.0
210
0.0
220
0.0
230
1.0
  0
TEXT
  8
11
  6
CONTINUOUS
 62
     7
  5
207
 10
922654.095
 20
7285205.744
 30
0.0
 40
8.0
  1
112'
 50
358.1335
  7
txt
 72
     4
 11
922665.021552
 21
7285209.390048
 31
0.0
210
0.0
220
0.0
230
1.0
  0
TEXT
  8
11
  6
CONTINUOUS
 62
     7
  5
208
 10
922941.096
 20
7284762.275
 30
0.0
 40
8.0
  1
112'
 50
358.1335
  7
txt
 72
     4
 11
922952.022552
 21
7284765.921048
 31
0.0
210
0.0
220
0.0
230
1.0
  0
TEXT
  8
11
  6
CONTINUOUS
 62
     7
  5
209
 10
923011.075
 20
7284953.062
 30
0.0
 40
8.0
  1
20'
 50
88.1335
  7
txt
 72
     4
 11
923007.389997
 21
7284962.793187
 31
0.0
210
0.0
220
0.0
230
1.0
  0
TEXT
  8
11
  6
CONTINUOUS
 62
     7
  5
20A
 10
923080.253
 20
7284951.046
 30
0.0
 40
8.0
  1
20'
 50
88.1335
  7
txt
 72
     4
 11
923076.567997
 21
7284960.777187
 31
0.0
210
0.0
220
0.0
230
1.0
  0
TEXT
  8
11
  6
CONTINUOUS
 62
     7
  5
20B
 10
923309.248
 20
7284943.739
 30
0.0
 40
8.0
  1
20'
 50
88.1335
  7
txt
 72
     4
 11
923305.562997
 21
7284953.470187
 31
0.0
210
0.0
220
0.0
230
1.0
  0
TEXT
  8
11
  6
CONTINUOUS
 62
     7
  5
20C
 10
923378.931
 20
7284941.101
 30
0.0
 40
8.0
  1
20'
 50
88.1335
  7
txt
 72
     4
 11
923375.245997
 21
7284950.832187
 31
0.0
210
0.0
220
0.0
230
1.0
  0
TEXT
  8
11
  6
CONTINUOUS
 62
     7
  5
20D
 10
923472.551
 20
7284673.178
 30
0.0
 40
8.0
  1
20'
 50
358.1335
  7
txt
 72
     4
 11
923482.282187
 21
7284676.863003
 31
0.0
210
0.0
220
0.0
230
1.0
  0
TEXT
  8
11
  6
CONTINUOUS
 62
     7
  5
20E
 10
923773.745
 20
7284664.666
 30
0.0
 40
8.0
  1
20'
 50
358.1335
  7
txt
 72
     4
 11
923783.476187
 21
7284668.351003
 31
0.0
210
0.0
220
0.0
230
1.0
  0
TEXT
  8
11
  6
CONTINUOUS
 62
     7
  5
20F
 10
923174.486
 20
7284686.446
 30
0.0
 40
8.0
  1
20'
 50
358.1335
  7
txt
 72
     4
 11
923184.217187
 21
7284690.131003
 31
0.0
210
0.0
220
0.0
230
1.0
  0
TEXT
  8
11
  6
CONTINUOUS
 62
     7
  5
210
 10
922872.709
 20
7284694.858
 30
0.0
 40
8.0
  1
20'
 50
358.1335
  7
txt
 72
     4
 11
922882.440187
 21
7284698.543003
 31
0.0
210
0.0
220
0.0
230
1.0
  0
TEXT
  8
11
  6
CONTINUOUS
 62
     7
  5
211
 10
922573.207
 20
7284704.617
 30
0.0
 40
8.0
  1
20'
 50
358.1335
  7
txt
 72
     4
 11
922582.938187
 21
7284708.302003
 31
0.0
210
0.0
220
0.0
230
1.0
  0
TEXT
  8
11
  6
CONTINUOUS
 62
     7
  5
212
 10
922593.36
 20
7285248.069
 30
0.0
 40
8.0
  1
20'
 50
358.1335
  7
txt
 72
     4
 11
922603.091187
 21
7285251.754003
 31
0.0
210
0.0
220
0.0
230
1.0
  0
TEXT
  8
11
  6
CONTINUOUS
 62
     7
  5
213
 10
922719.959
 20
7285264.455
 30
0.0
 40
8.0
  1
20'
 50
88.1335
  7
txt
 72
     4
 11
922716.273997
 21
7285274.186187
 31
0.0
210
0.0
220
0.0
230
1.0
  0
TEXT
  8
11
  6
CONTINUOUS
 62
     7
  5
214
 10
922740.413
 20
7284742.887
 30
0.0
 40
8.0
  1
R=50'
 50
358.1335
  7
txt
 72
     4
 11
922757.416326
 21
7284746.335017
 31
0.0
210
0.0
220
0.0
230
1.0
  0
TEXT
  8
11
  6
CONTINUOUS
 62
     7
  5
215
 10
923342.034
 20
7284725.099
 30
0.0
 40
8.0
  1
R=50'
 50
43.1335
  7
txt
 72
     4
 11
923351.619051
 21
7284739.560284
 31
0.0
210
0.0
220
0.0
230
1.0
  0
TEXT
  8
11
  6
CONTINUOUS
 62
     7
  5
216
 10
922951.367
 20
7284943.42
 30
0.0
 40
8.0
  1
102'
 50
358.1335
  7
txt
 72
     4
 11
922963.678817
 21
7284947.020905
 31
0.0
210
0.0
220
0.0
230
1.0
  0
TEXT
  8
11
  6
CONTINUOUS
 62
     7
  5
217
 10
923109.868
 20
7284938.255
 30
0.0
 40
8.0
  1
102'
 50
358.1335
  7
txt
 72
     4
 11
923122.179817
 21
7284941.855905
 31
0.0
210
0.0
220
0.0
230
1.0
  0
TEXT
  8
11
  6
CONTINUOUS
 62
     7
  5
218
 10
923254.518
 20
7284933.54
 30
0.0
 40
8.0
  1
102'
 50
358.1335
  7
txt
 72
     4
 11
923266.829817
 21
7284937.140905
 31
0.0
210
0.0
220
0.0
230
1.0
  0
TEXT
  8
11
  6
CONTINUOUS
 62
     7
  5
219
 10
923410.711
 20
7284927.74
 30
0.0
 40
8.0
  1
102'
 50
358.1335
  7
txt
 72
     4
 11
923423.022817
 21
7284931.340905
 31
0.0
210
0.0
220
0.0
230
1.0
  0
TEXT
  8
11
  6
CONTINUOUS
 62
     7
  5
21A
 10
922813.951
 20
7284765.701
 30
0.0
 40
8.0
  1
93.94'
 50
358.1335
  7
txt
 72
     4
 11
922833.534956
 21
7284769.064919
 31
0.0
210
0.0
220
0.0
230
1.0
  0
TEXT
  8
11
  6
CONTINUOUS
 62
     7
  5
21B
 10
922623.427
 20
7284771.199
 30
0.0
 40
8.0
  1
93.94'
 50
358.1335
  7
txt
 72
     4
 11
922643.010956
 21
7284774.562919
 31
0.0
210
0.0
220
0.0
230
1.0
  0
TEXT
  8
11
  6
CONTINUOUS
 62
     7
  5
21C
 10
923221.209
 20
7284751.719
 30
0.0
 40
8.0
  1
93.94'
 50
358.1335
  7
txt
 72
     4
 11
923240.792956
 21
7284755.082919
 31
0.0
210
0.0
220
0.0
230
1.0
  0
TEXT
  8
11
  6
CONTINUOUS
 62
     7
  5
21D
 10
923411.519
 20
7284745.019
 30
0.0
 40
8.0
  1
93.94'
 50
358.1335
  7
txt
 72
     4
 11
923431.102956
 21
7284748.382919
 31
0.0
210
0.0
220
0.0
230
1.0
  0
TEXT
  8
11
  6
CONTINUOUS
 62
     7
  5
21E
 10
922781.791
 20
7285019.791
 30
0.0
 40
8.0
  1
118.4'
 50
88.1335
  7
txt
 72
     4
 11
922778.347087
 21
7285036.920259
 31
0.0
210
0.0
220
0.0
230
1.0
  0
TEXT
  8
11
  6
CONTINUOUS
 62
     7
  5
21F
 10
922831.034
 20
7285017.475
 30
0.0
 40
8.0
  1
113.4'
 50
88.1335
  7
txt
 72
     4
 11
922827.590087
 21
7285034.604259
 31
0.0
210
0.0
220
0.0
230
1.0
  0
TEXT
  8
11
  6
CONTINUOUS
 62
     7
  5
220
 10
922950.175
 20
7285012.881
 30
0.0
 40
8.0
  1
113.4'
 50
88.1335
  7
txt
 72
     4
 11
922946.731087
 21
7285030.010259
 31
0.0
210
0.0
220
0.0
230
1.0
  0
TEXT
  8
11
  6
CONTINUOUS
 62
     7
  5
221
 10
923012.569
 20
7285014.337
 30
0.0
 40
8.0
  1
98.4'
 50
88.1335
  7
txt
 72
     4
 11
923009.080953
 21
7285030.111978
 31
0.0
210
0.0
220
0.0
230
1.0
  0
TEXT
  8
11
  6
CONTINUOUS
 62
     7
  5
222
 10
923079.893
 20
7285010.01
 30
0.0
 40
8.0
  1
98.4'
 50
88.1335
  7
txt
 72
     4
 11
923076.404953
 21
7285025.784978
 31
0.0
210
0.0
220
0.0
230
1.0
  0
TEXT
  8
11
  6
CONTINUOUS
 62
     7
  5
223
 10
923311.144
 20
7284999.63
 30
0.0
 40
8.0
  1
98.4'
 50
88.1335
  7
txt
 72
     4
 11
923307.655953
 21
7285015.404978
 31
0.0
210
0.0
220
0.0
230
1.0
  0
TEXT
  8
11
  6
CONTINUOUS
 62
     7
  5
224
 10
923381.693
 20
7285002.307
 30
0.0
 40
8.0
  1
98.4'
 50
88.1335
  7
txt
 72
     4
 11
923378.204953
 21
7285018.081978
 31
0.0
210
0.0
220
0.0
230
1.0
  0
TEXT
  8
11
  6
CONTINUOUS
 62
     7
  5
225
 10
923998.853
 20
7284978.447
 30
0.0
 40
8.0
  1
98.4'
 50
88.1335
  7
txt
 72
     4
 11
923995.364953
 21
7284994.221978
 31
0.0
210
0.0
220
0.0
230
1.0
  0
TEXT
  8
11
  6
CONTINUOUS
 62
     7
  5
226
 10
923928.616
 20
7284977.328
 30
0.0
 40
8.0
  1
113.4'
 50
88.1335
  7
txt
 72
     4
 11
923925.172087
 21
7284994.457259
 31
0.0
210
0.0
220
0.0
230
1.0
  0
TEXT
  8
11
  6
CONTINUOUS
 62
     7
  5
227
 10
923737.277
 20
7284988.354
 30
0.0
 40
8.0
  1
113.4'
 50
88.1335
  7
txt
 72
     4
 11
923733.833087
 21
7285005.483259
 31
0.0
210
0.0
220
0.0
230
1.0
  0
TEXT
  8
11
  6
CONTINUOUS
 62
     7
  5
228
 10
923549.264
 20
7284992.647
 30
0.0
 40
8.0
  1
113.4'
 50
88.1335
  7
txt
 72
     4
 11
923545.820087
 21
7285009.776259
 31
0.0
210
0.0
220
0.0
230
1.0
  0
TEXT
  8
11
  6
CONTINUOUS
 62
     7
  5
229
 10
923429.454
 20
7284996.552
 30
0.0
 40
8.0
  1
113.4'
 50
88.1335
  7
txt
 72
     4
 11
923426.010087
 21
7285013.681259
 31
0.0
210
0.0
220
0.0
230
1.0
  0
TEXT
  8
11
  6
CONTINUOUS
 62
     7
  5
22A
 10
923250.343
 20
7284996.701
 30
0.0
 40
8.0
  1
113.4'
 50
88.1335
  7
txt
 72
     4
 11
923246.899087
 21
7285013.830259
 31
0.0
210
0.0
220
0.0
230
1.0
  0
TEXT
  8
11
  6
CONTINUOUS
 62
     7
  5
22B
 10
923129.198
 20
7285005.625
 30
0.0
 40
8.0
  1
113.4'
 50
88.1335
  7
txt
 72
     4
 11
923125.754087
 21
7285022.754259
 31
0.0
210
0.0
220
0.0
230
1.0
  0
TEXT
  8
11
  6
CONTINUOUS
 62
     7
  5
22C
 10
923611.188
 20
7284984.864
 30
0.0
 40
8.0
  1
118.4'
 50
88.1335
  7
txt
 72
     4
 11
923607.744087
 21
7285001.993259
 31
0.0
210
0.0
220
0.0
230
1.0
  0
TEXT
  8
11
  6
CONTINUOUS
 62
     7
  5
22D
 10
923681.684
 20
7284990.718
 30
0.0
 40
8.0
  1
118.4'
 50
88.1335
  7
txt
 72
     4
 11
923678.240087
 21
7285007.847259
 31
0.0
210
0.0
220
0.0
230
1.0
  0
TEXT
  8
11
  6
CONTINUOUS
 62
     7
  5
22E
 10
923776.574
 20
7284929.243
 30
0.0
 40
8.0
  1
20'
 50
88.1335
  7
txt
 72
     4
 11
923772.888997
 21
7284938.974187
 31
0.0
210
0.0
220
0.0
230
1.0
  0
TEXT
  8
11
  6
CONTINUOUS
 62
     7
  5
22F
 10
923512.33
 20
7284936.831
 30
0.0
 40
8.0
  1
20'
 50
88.1335
  7
txt
 72
     4
 11
923508.644997
 21
7284946.562187
 31
0.0
210
0.0
220
0.0
230
1.0
  0
TEXT
  8
11
  6
CONTINUOUS
 62
     7
  5
230
 10
922877.186
 20
7284957.528
 30
0.0
 40
8.0
  1
20'
 50
88.1335
  7
txt
 72
     4
 11
922873.500997
 21
7284967.259187
 31
0.0
210
0.0
220
0.0
230
1.0
  0
TEXT
  8
11
  6
CONTINUOUS
 62
     7
  5
231
 10
922778.005
 20
7284923.821
 30
0.0
 40
8.0
  1
65'
 50
88.1335
  7
txt
 72
     4
 11
922774.314851
 21
7284933.39427
 31
0.0
210
0.0
220
0.0
230
1.0
  0
TEXT
  8
11
  6
CONTINUOUS
 62
     7
  5
232
 10
923009.571
 20
7284908.456
 30
0.0
 40
8.0
  1
65'
 50
88.1335
  7
txt
 72
     4
 11
923005.880851
 21
7284918.02927
 31
0.0
210
0.0
220
0.0
230
1.0
  0
TEXT
  8
11
  6
CONTINUOUS
 62
     7
  5
233
 10
923074.89
 20
7284898.506
 30
0.0
 40
8.0
  1
65'
 50
88.1335
  7
txt
 72
     4
 11
923071.199851
 21
7284908.07927
 31
0.0
210
0.0
220
0.0
230
1.0
  0
TEXT
  8
11
  6
CONTINUOUS
 62
     7
  5
234
 10
923307.783
 20
7284897.314
 30
0.0
 40
8.0
  1
65'
 50
88.1335
  7
txt
 72
     4
 11
923304.092851
 21
7284906.88727
 31
0.0
210
0.0
220
0.0
230
1.0
  0
TEXT
  8
11
  6
CONTINUOUS
 62
     7
  5
235
 10
923376.325
 20
7284898.948
 30
0.0
 40
8.0
  1
65'
 50
88.1335
  7
txt
 72
     4
 11
923372.634851
 21
7284908.52127
 31
0.0
210
0.0
220
0.0
230
1.0
  0
TEXT
  8
11
  6
CONTINUOUS
 62
     7
  5
236
 10
923609.337
 20
7284886.776
 30
0.0
 40
8.0
  1
65'
 50
88.1335
  7
txt
 72
     4
 11
923605.646851
 21
7284896.34927
 31
0.0
210
0.0
220
0.0
230
1.0
  0
TEXT
  8
11
  6
CONTINUOUS
 62
     7
  5
237
 10
923677.269
 20
7284893.247
 30
0.0
 40
8.0
  1
65'
 50
88.1335
  7
txt
 72
     4
 11
923673.578851
 21
7284902.82027
 31
0.0
210
0.0
220
0.0
230
1.0
  0
TEXT
  8
11
  6
CONTINUOUS
 62
     7
  5
238
 10
923674.393
 20
7284825.975
 30
0.0
 40
8.0
  1
65'
 50
88.1335
  7
txt
 72
     4
 11
923670.702851
 21
7284835.54827
 31
0.0
210
0.0
220
0.0
230
1.0
  0
TEXT
  8
11
  6
CONTINUOUS
 62
     7
  5
239
 10
923605.969
 20
7284822.314
 30
0.0
 40
8.0
  1
65'
 50
88.1335
  7
txt
 72
     4
 11
923602.278851
 21
7284831.88727
 31
0.0
210
0.0
220
0.0
230
1.0
  0
TEXT
  8
11
  6
CONTINUOUS
 62
     7
  5
23A
 10
923374.34
 20
7284834.044
 30
0.0
 40
8.0
  1
65'
 50
88.1335
  7
txt
 72
     4
 11
923370.649851
 21
7284843.61727
 31
0.0
210
0.0
220
0.0
230
1.0
  0
TEXT
  8
11
  6
CONTINUOUS
 62
     7
  5
23B
 10
923307.125
 20
7284833.474
 30
0.0
 40
8.0
  1
65'
 50
88.1335
  7
txt
 72
     4
 11
923303.434851
 21
7284843.04727
 31
0.0
210
0.0
220
0.0
230
1.0
  0
TEXT
  8
11
  6
CONTINUOUS
 62
     7
  5
23C
 10
923074.238
 20
7284832.532
 30
0.0
 40
8.0
  1
65'
 50
88.1335
  7
txt
 72
     4
 11
923070.547851
 21
7284842.10527
 31
0.0
210
0.0
220
0.0
230
1.0
  0
TEXT
  8
11
  6
CONTINUOUS
 62
     7
  5
23D
 10
923006.081
 20
7284842.574
 30
0.0
 40
8.0
  1
65'
 50
88.1335
  7
txt
 72
     4
 11
923002.390851
 21
7284852.14727
 31
0.0
210
0.0
220
0.0
230
1.0
  0
TEXT
  8
11
  6
CONTINUOUS
 62
     7
  5
23E
 10
922775.865
 20
7284855.763
 30
0.0
 40
8.0
  1
65'
 50
88.1335
  7
txt
 72
     4
 11
922772.174851
 21
7284865.33627
 31
0.0
210
0.0
220
0.0
230
1.0
  0
TEXT
  8
11
  6
CONTINUOUS
 62
     7
  5
23F
 10
922604.882
 20
7284783.333
 30
0.0
 40
8.0
  1
65'
 50
88.1335
  7
txt
 72
     4
 11
922601.191851
 21
7284792.90627
 31
0.0
210
0.0
220
0.0
230
1.0
  0
TEXT
  8
11
  6
CONTINUOUS
 62
     7
  5
240
 10
922872.307
 20
7284785.993
 30
0.0
 40
8.0
  1
65'
 50
88.1335
  7
txt
 72
     4
 11
922868.616851
 21
7284795.56627
 31
0.0
210
0.0
220
0.0
230
1.0
  0
TEXT
  8
11
  6
CONTINUOUS
 62
     7
  5
241
 10
923004.668
 20
7284777.415
 30
0.0
 40
8.0
  1
65'
 50
88.1335
  7
txt
 72
     4
 11
923000.977851
 21
7284786.98827
 31
0.0
210
0.0
220
0.0
230
1.0
  0
TEXT
  8
11
  6
CONTINUOUS
 62
     7
  5
242
 10
923072.139
 20
7284768.106
 30
0.0
 40
8.0
  1
65'
 50
88.1335
  7
txt
 72
     4
 11
923068.448851
 21
7284777.67927
 31
0.0
210
0.0
220
0.0
230
1.0
  0
TEXT
  8
11
  6
CONTINUOUS
 62
     7
  5
243
 10
923204.94
 20
7284773.021
 30
0.0
 40
8.0
  1
65'
 50
88.1335
  7
txt
 72
     4
 11
923201.249851
 21
7284782.59427
 31
0.0
210
0.0
220
0.0
230
1.0
  0
TEXT
  8
11
  6
CONTINUOUS
 62
     7
  5
244
 10
923472.048
 20
7284763.606
 30
0.0
 40
8.0
  1
65'
 50
88.1335
  7
txt
 72
     4
 11
923468.357851
 21
7284773.17927
 31
0.0
210
0.0
220
0.0
230
1.0
  0
TEXT
  8
11
  6
CONTINUOUS
 62
     7
  5
245
 10
923604.548
 20
7284759.287
 30
0.0
 40
8.0
  1
65'
 50
88.1335
  7
txt
 72
     4
 11
923600.857851
 21
7284768.86027
 31
0.0
210
0.0
220
0.0
230
1.0
  0
TEXT
  8
11
  6
CONTINUOUS
 62
     7
  5
246
 10
923672.998
 20
7284762.212
 30
0.0
 40
8.0
  1
65'
 50
88.1335
  7
txt
 72
     4
 11
923669.307851
 21
7284771.78527
 31
0.0
210
0.0
220
0.0
230
1.0
  0
TEXT
  8
11
  6
CONTINUOUS
 62
     7
  5
247
 10
923669.92
 20
7284688.742
 30
0.0
 40
8.0
  1
54.93'
 50
88.1335
  7
txt
 72
     4
 11
923666.562236
 21
7284708.514856
 31
0.0
210
0.0
220
0.0
230
1.0
  0
TEXT
  8
11
  6
CONTINUOUS
 62
     7
  5
248
 10
923600.717
 20
7284687.716
 30
0.0
 40
8.0
  1
54.93'
 50
88.1335
  7
txt
 72
     4
 11
923597.359236
 21
7284707.488856
 31
0.0
210
0.0
220
0.0
230
1.0
  0
TEXT
  8
11
  6
CONTINUOUS
 62
     7
  5
249
 10
923070.075
 20
7284707.141
 30
0.0
 40
8.0
  1
54.93'
 50
88.1335
  7
txt
 72
     4
 11
923066.717236
 21
7284726.913856
 31
0.0
210
0.0
220
0.0
230
1.0
  0
TEXT
  8
11
  6
CONTINUOUS
 62
     7
  5
24A
 10
923002.473
 20
7284710.055
 30
0.0
 40
8.0
  1
54.93'
 50
88.1335
  7
txt
 72
     4
 11
922999.115236
 21
7284729.827856
 31
0.0
210
0.0
220
0.0
230
1.0
  0
TEXT
  8
11
  6
CONTINUOUS
 62
     7
  5
24B
 10
923769.639
 20
7284678.458
 30
0.0
 40
8.0
  1
69.99'
 50
88.1335
  7
txt
 72
     4
 11
923766.25658
 21
7284697.474258
 31
0.0
210
0.0
220
0.0
230
1.0
  0
TEXT
  8
11
  6
CONTINUOUS
 62
     7
  5
24C
 10
923502.113
 20
7284691.12
 30
0.0
 40
8.0
  1
69.87'
 50
88.1335
  7
txt
 72
     4
 11
923498.743934
 21
7284710.54604
 31
0.0
210
0.0
220
0.0
230
1.0
  0
TEXT
  8
11
  6
CONTINUOUS
 62
     7
  5
24D
 10
923469.657
 20
7284690.265
 30
0.0
 40
8.0
  1
69.86'
 50
88.1335
  7
txt
 72
     4
 11
923466.280736
 21
7284709.470157
 31
0.0
210
0.0
220
0.0
230
1.0
  0
TEXT
  8
11
  6
CONTINUOUS
 62
     7
  5
24E
 10
923203.054
 20
7284695.7
 30
0.0
 40
8.0
  1
69.74'
 50
88.1335
  7
txt
 72
     4
 11
923199.691058
 21
7284715.31394
 31
0.0
210
0.0
220
0.0
230
1.0
  0
TEXT
  8
11
  6
CONTINUOUS
 62
     7
  5
24F
 10
923169.209
 20
7284693.437
 30
0.0
 40
8.0
  1
69.73'
 50
88.1335
  7
txt
 72
     4
 11
923165.839934
 21
7284712.86304
 31
0.0
210
0.0
220
0.0
230
1.0
  0
TEXT
  8
11
  6
CONTINUOUS
 62
     7
  5
250
 10
922902.857
 20
7284706.6
 30
0.0
 40
8.0
  1
69.61'
 50
88.1335
  7
txt
 72
     4
 11
922899.434583
 21
7284724.388909
 31
0.0
210
0.0
220
0.0
230
1.0
  0
TEXT
  8
11
  6
CONTINUOUS
 62
     7
  5
251
 10
922869.625
 20
7284701.319
 30
0.0
 40
8.0
  1
69.60'
 50
88.1335
  7
txt
 72
     4
 11
922866.247694
 21
7284720.492174
 31
0.0
210
0.0
220
0.0
230
1.0
  0
TEXT
  8
11
  6
CONTINUOUS
 62
     7
  5
252
 10
922602.495
 20
7284712.458
 30
0.0
 40
8.0
  1
69.48'
 50
88.1335
  7
txt
 72
     4
 11
922599.131081
 21
7284732.041956
 31
0.0
210
0.0
220
0.0
230
1.0
  0
TEXT
  8
11
  6
CONTINUOUS
 62
     7
  5
253
 10
922908.182
 20
7284913.624
 30
0.0
 40
8.0
  1
55'
 50
88.1335
  7
txt
 72
     4
 11
922904.49804
 21
7284923.38717
 31
0.0
210
0.0
220
0.0
230
1.0
  0
TEXT
  8
11
  6
CONTINUOUS
 62
     7
  5
254
 10
923177.459
 20
7284900.583
 30
0.0
 40
8.0
  1
55'
 50
88.1335
  7
txt
 72
     4
 11
923173.77504
 21
7284910.34617
 31
0.0
210
0.0
220
0.0
230
1.0
  0
TEXT
  8
11
  6
CONTINUOUS
 62
     7
  5
255
 10
923208.886
 20
7284898.849
 30
0.0
 40
8.0
  1
55'
 50
88.1335
  7
txt
 72
     4
 11
923205.20204
 21
7284908.61217
 31
0.0
210
0.0
220
0.0
230
1.0
  0
TEXT
  8
11
  6
CONTINUOUS
 62
     7
  5
256
 10
923471.702
 20
7284883.885
 30
0.0
 40
8.0
  1
55'
 50
88.1335
  7
txt
 72
     4
 11
923468.01804
 21
7284893.64817
 31
0.0
210
0.0
220
0.0
230
1.0
  0
TEXT
  8
11
  6
CONTINUOUS
 62
     7
  5
257
 10
922837.125
 20
7285101.237
 30
0.0
 40
8.0
  1
56'
 50
88.1335
  7
txt
 72
     4
 11
922833.434851
 21
7285110.81027
 31
0.0
210
0.0
220
0.0
230
1.0
  0
TEXT
  8
11
  6
CONTINUOUS
 62
     7
  5
258
 10
923600.582
 20
7285088.676
 30
0.0
 40
8.0
  1
56'
 50
88.1335
  7
txt
 72
     4
 11
923596.891851
 21
7285098.24927
 31
0.0
210
0.0
220
0.0
230
1.0
  0
TEXT
  8
11
  6
CONTINUOUS
 62
     7
  5
259
 10
923989.898
 20
7285078.042
 30
0.0
 40
8.0
  1
56'
 50
88.1335
  7
txt
 72
     4
 11
923986.207851
 21
7285087.61527
 31
0.0
210
0.0
220
0.0
230
1.0
  0
TEXT
  8
11
  6
CONTINUOUS
 62
     7
  5
25A
 10
922729.766
 20
7284795.064
 30
0.0
 40
8.0
  1
56'
 50
358.1335
  7
txt
 72
     4
 11
922739.33927
 21
7284798.754149
 31
0.0
210
0.0
220
0.0
230
1.0
  0
TEXT
  8
11
  6
CONTINUOUS
 62
     7
  5
25B
 10
922752.491
 20
7285370.467
 30
0.0
 40
8.0
  1
56'
 50
358.1335
  7
txt
 72
     4
 11
922762.06427
 21
7285374.157149
 31
0.0
210
0.0
220
0.0
230
1.0
  0
TEXT
  8
11
  6
CONTINUOUS
 62
     7
  5
25C
 10
922443.811
 20
7285326.477
 30
0.0
 40
8.0
  1
60'
 50
358.1335
  7
txt
 72
     4
 11
922453.352287
 21
7285330.168191
 31
0.0
210
0.0
220
0.0
230
1.0
  0
TEXT
  8
11
  6
CONTINUOUS
 62
     7
  5
25D
 10
922424.543
 20
7284721.223
 30
0.0
 40
8.0
  1
60'
 50
358.1335
  7
txt
 72
     4
 11
922434.084287
 21
7284724.914191
 31
0.0
210
0.0
220
0.0
230
1.0
  0
TEXT
  8
11
  6
CONTINUOUS
 62
     7
  5
25E
 10
922500.99
 20
7285392.838
 30
0.0
 40
8.0
  1
52.28'
 50
358.1335
  7
txt
 72
     4
 11
922520.763855
 21
7285396.195731
 31
0.0
210
0.0
220
0.0
230
1.0
  0
TEXT
  8
11
  6
CONTINUOUS
 62
     7
  5
25F
 10
922572.169
 20
7285390.517
 30
0.0
 40
8.0
  1
60'
 50
358.1335
  7
txt
 72
     4
 11
922581.710287
 21
7285394.208191
 31
0.0
210
0.0
220
0.0
230
1.0
  0
TEXT
  8
11
  6
CONTINUOUS
 62
     7
  5
260
 10
922626.722
 20
7285388.74
 30
0.0
 40
8.0
  1
60'
 50
358.1335
  7
txt
 72
     4
 11
922636.263287
 21
7285392.431191
 31
0.0
210
0.0
220
0.0
230
1.0
  0
TEXT
  8
11
  6
CONTINUOUS
 62
     7
  5
261
 10
922682.945
 20
7285386.318
 30
0.0
 40
8.0
  1
47'
 50
358.1335
  7
txt
 72
     4
 11
922692.928053
 21
7285389.994795
 31
0.0
210
0.0
220
0.0
230
1.0
  0
TEXT
  8
11
  6
CONTINUOUS
 62
     7
  5
262
 10
922685.996
 20
7285286.211
 30
0.0
 40
8.0
  1
62'
 50
358.1335
  7
txt
 72
     4
 11
922695.56927
 21
7285289.901149
 31
0.0
210
0.0
220
0.0
230
1.0
  0
TEXT
  8
11
  6
CONTINUOUS
 62
     7
  5
263
 10
922526.523
 20
7285272.152
 30
0.0
 40
8.0
  1
112'
 50
358.1335
  7
txt
 72
     4
 11
922537.449552
 21
7285275.798048
 31
0.0
210
0.0
220
0.0
230
1.0
  0
TEXT
  8
11
  6
CONTINUOUS
 62
     7
  5
264
 10
922512.96
 20
7284774.558
 30
0.0
 40
8.0
  1
112'
 50
358.1335
  7
txt
 72
     4
 11
922523.886552
 21
7284778.204048
 31
0.0
210
0.0
220
0.0
230
1.0
  0
TEXT
  8
11
  6
CONTINUOUS
 62
     7
  5
265
 10
922504.072
 20
7284706.298
 30
0.0
 40
8.0
  1
96.99'
 50
358.1335
  7
txt
 72
     4
 11
922523.088258
 21
7284709.68042
 31
0.0
210
0.0
220
0.0
230
1.0
  0
TEXT
  8
11
  6
CONTINUOUS
 62
     7
  5
266
 10
922489.461
 20
7285276.867
 30
0.0
 40
8.0
  1
63.33'
 50
88.1335
  7
txt
 72
     4
 11
922486.097081
 21
7285296.450956
 31
0.0
210
0.0
220
0.0
230
1.0
  0
TEXT
  8
11
  6
CONTINUOUS
 62
     7
  5
267
 10
922487.74
 20
7285224.072
 30
0.0
 40
8.0
  1
61.41'
 50
88.1335
  7
txt
 72
     4
 11
922484.289898
 21
7285241.01136
 31
0.0
210
0.0
220
0.0
230
1.0
  0
TEXT
  8
11
  6
CONTINUOUS
 62
     7
  5
268
 10
922486.634
 20
7285172.02
 30
0.0
 40
8.0
  1
60'
 50
88.1335
  7
txt
 72
     4
 11
922482.942809
 21
7285181.561287
 31
0.0
210
0.0
220
0.0
230
1.0
  0
TEXT
  8
11
  6
CONTINUOUS
 62
     7
  5
269
 10
922479.426
 20
7284994.078
 30
0.0
 40
8.0
  1
60'
 50
88.1335
  7
txt
 72
     4
 11
922475.734809
 21
7285003.619287
 31
0.0
210
0.0
220
0.0
230
1.0
  0
TEXT
  8
11
  6
CONTINUOUS
 62
     7
  5
26A
 10
922477.356
 20
7284930.53
 30
0.0
 40
8.0
  1
65'
 50
88.1335
  7
txt
 72
     4
 11
922473.665851
 21
7284940.10327
 31
0.0
210
0.0
220
0.0
230
1.0
  0
TEXT
  8
11
  6
CONTINUOUS
 62
     7
  5
26B
 10
922475.212
 20
7284864.745
 30
0.0
 40
8.0
  1
65'
 50
88.1335
  7
txt
 72
     4
 11
922471.521851
 21
7284874.31827
 31
0.0
210
0.0
220
0.0
230
1.0
  0
TEXT
  8
11
  6
CONTINUOUS
 62
     7
  5
26C
 10
922473.105
 20
7284800.096
 30
0.0
 40
8.0
  1
65'
 50
88.1335
  7
txt
 72
     4
 11
922469.414851
 21
7284809.66927
 31
0.0
210
0.0
220
0.0
230
1.0
  0
TEXT
  8
11
  6
CONTINUOUS
 62
     7
  5
26D
 10
922471.48
 20
7284728.414
 30
0.0
 40
8.0
  1
54.41'
 50
88.1335
  7
txt
 72
     4
 11
922468.088395
 21
7284747.148407
 31
0.0
210
0.0
220
0.0
230
1.0
  0
TEXT
  8
11
  6
CONTINUOUS
 62
     7
  5
26E
 10
922569.381
 20
7284715.813
 30
0.0
 40
8.0
  1
69.47'
 50
88.1335
  7
txt
 72
     4
 11
922566.018058
 21
7284735.42694
 31
0.0
210
0.0
220
0.0
230
1.0
  0
TEXT
  8
11
  6
CONTINUOUS
 62
     7
  5
26F
 10
922588.05
 20
7285269.576
 30
0.0
 40
8.0
  1
20'
 50
88.1335
  7
txt
 72
     4
 11
922584.364997
 21
7285279.307187
 31
0.0
210
0.0
220
0.0
230
1.0
  0
TEXT
  8
11
  6
CONTINUOUS
 62
     7
  5
270
 10
922618.569
 20
7285215.621
 30
0.0
 40
8.0
  1
51.41'
 50
88.1335
  7
txt
 72
     4
 11
922615.125087
 21
7285232.750259
 31
0.0
210
0.0
220
0.0
230
1.0
  0
TEXT
  8
11
  6
CONTINUOUS
 62
     7
  5
271
 10
922719.104
 20
7285217.848
 30
0.0
 40
8.0
  1
61.41'
 50
88.1335
  7
txt
 72
     4
 11
922715.653898
 21
7285234.78736
 31
0.0
210
0.0
220
0.0
230
1.0
  0
TEXT
  8
11
  6
CONTINUOUS
 62
     7
  5
272
 10
922717.268
 20
7285161.552
 30
0.0
 40
8.0
  1
60'
 50
88.1335
  7
txt
 72
     4
 11
922713.576809
 21
7285171.093287
 31
0.0
210
0.0
220
0.0
230
1.0
  0
TEXT
  8
11
  6
CONTINUOUS
 62
     7
  5
273
 10
922714.586
 20
7285096.963
 30
0.0
 40
8.0
  1
60'
 50
88.1335
  7
txt
 72
     4
 11
922710.894809
 21
7285106.504287
 31
0.0
210
0.0
220
0.0
230
1.0
  0
TEXT
  8
11
  6
CONTINUOUS
 62
     7
  5
274
 10
922483.233
 20
7285110.901
 30
0.0
 40
8.0
  1
60'
 50
88.1335
  7
txt
 72
     4
 11
922479.541809
 21
7285120.442287
 31
0.0
210
0.0
220
0.0
230
1.0
  0
TEXT
  8
11
  6
CONTINUOUS
 62
     7
  5
275
 10
922481.237
 20
7285049.654
 30
0.0
 40
8.0
  1
60'
 50
88.1335
  7
txt
 72
     4
 11
922477.545809
 21
7285059.195287
 31
0.0
210
0.0
220
0.0
230
1.0
  0
TEXT
  8
11
  6
CONTINUOUS
 62
     7
  5
276
 10
922712.729
 20
7285039.978
 30
0.0
 40
8.0
  1
60'
 50
88.1335
  7
txt
 72
     4
 11
922709.037809
 21
7285049.519287
 31
0.0
210
0.0
220
0.0
230
1.0
  0
TEXT
  8
11
  6
CONTINUOUS
 62
     7
  5
277
 10
922711.629
 20
7284984.379
 30
0.0
 40
8.0
  1
60'
 50
88.1335
  7
txt
 72
     4
 11
922707.937809
 21
7284993.920287
 31
0.0
210
0.0
220
0.0
230
1.0
  0
TEXT
  8
11
  6
CONTINUOUS
 62
     7
  5
278
 10
922709.493
 20
7284918.839
 30
0.0
 40
8.0
  1
65'
 50
88.1335
  7
txt
 72
     4
 11
922705.802851
 21
7284928.41227
 31
0.0
210
0.0
220
0.0
230
1.0
  0
TEXT
  8
11
  6
CONTINUOUS
 62
     7
  5
279
 10
922705.948
 20
7284853.672
 30
0.0
 40
8.0
  1
65'
 50
88.1335
  7
txt
 72
     4
 11
922702.257851
 21
7284863.24527
 31
0.0
210
0.0
220
0.0
230
1.0
  0
TEXT
  8
11
  6
CONTINUOUS
 62
     7
  5
27A
 10
922704.68
 20
7284796.167
 30
0.0
 40
8.0
  1
43.02'
 50
88.1335
  7
txt
 72
     4
 11
922701.32735
 21
7284816.096773
 31
0.0
210
0.0
220
0.0
230
1.0
  0
TEXT
  8
11
  6
CONTINUOUS
 62
     7
  5
27B
 10
922773.817
 20
7284795.118
 30
0.0
 40
8.0
  1
43.02'
 50
88.1335
  7
txt
 72
     4
 11
922770.46435
 21
7284815.047773
 31
0.0
210
0.0
220
0.0
230
1.0
  0
TEXT
  8
11
  6
CONTINUOUS
 62
     7
  5
27C
 10
923304.823
 20
7284773.258
 30
0.0
 40
8.0
  1
43.38'
 50
88.1335
  7
txt
 72
     4
 11
923301.471392
 21
7284793.219756
 31
0.0
210
0.0
220
0.0
230
1.0
  0
TEXT
  8
11
  6
CONTINUOUS
 62
     7
  5
27D
 10
923372.482
 20
7284771.964
 30
0.0
 40
8.0
  1
43.38'
 50
88.1335
  7
txt
 72
     4
 11
923369.130392
 21
7284791.925756
 31
0.0
210
0.0
220
0.0
230
1.0
  0
TEXT
  8
19
  6
CONTINUOUS
 62
     1
  5
27E
 10
921856.426
 20
7285976.447
 30
0.0
 40
24.0
  1
N EVANSTON
 50
88.1335
  7
ROMANC
 72
     4
 11
921848.789918
 21
7286110.553866
 31
0.0
210
0.0
220
0.0
230
1.0
  0
TEXT
  8
19
  6
CONTINUOUS
 62
     1
  5
27F
 10
923045.108
 20
7284747.837
 30
0.0
 40
24.0
  1
N DOVER AVE
 50
88.1335
  7
ROMANC
 72
     4
 11
923037.933511
 21
7284896.108347
 31
0.0
210
0.0
220
0.0
230
1.0
  0
TEXT
  8
19
  6
CONTINUOUS
 62
     1
  5
280
 10
923647.683
 20
7284696.09
 30
0.0
 40
24.0
  1
N CLINTON AVE
 50
88.1335
  7
ROMANC
 72
     4
 11
923641.210152
 21
7284865.891918
 31
0.0
210
0.0
220
0.0
230
1.0
  0
TEXT
  8
19
  6
CONTINUOUS
 62
     1
  5
281
 10
922948.001
 20
7285452.966
 30
0.0
 40
24.0
  1
N DOVER 
 50
88.1335
  7
ROMANC
 72
     4
 11
922939.460166
 21
7285559.309605
 31
0.0
210
0.0
220
0.0
230
1.0
  0
TEXT
  8
15
  6
CONTINUOUS
 62
    30
  5
282
 10
923349.874
 20
7284845.425
 30
0.0
 40
50.0
  1

 50
28.1335
  7
ROMANC
 72
     4
 11
923349.874
 21
7284845.425
 31
0.0
210
0.0
220
0.0
230
1.0
  0
TEXT
  8
15
  6
CONTINUOUS
 62
    30
  5
283
 10
921746.757
 20
7287030.688
 30
0.0
 40
30.0
  1

 50
28.1335
  7
ROMANC
 72
     4
 11
921746.757
 21
7287030.688
 31
0.0
210
0.0
220
0.0
230
1.0
  0
TEXT
  8
11
  6
CONTINUOUS
 62
     7
  5
284
 10
921571.137
 20
7285956.732
 30
0.0
 40
8.0
  1
65'
 50
358.1335
  7
txt
 72
     4
 11
921580.71027
 21
7285960.422149
 31
0.0
210
0.0
220
0.0
230
1.0
  0
TEXT
  8
11
  6
CONTINUOUS
 62
     7
  5
285
 10
921637.86
 20
7285954.558
 30
0.0
 40
8.0
  1
65'
 50
358.1335
  7
txt
 72
     4
 11
921647.43327
 21
7285958.248149
 31
0.0
210
0.0
220
0.0
230
1.0
  0
TEXT
  8
11
  6
CONTINUOUS
 62
     7
  5
286
 10
922731.227
 20
7285451.628
 30
0.0
 40
8.0
  1
65'
 50
358.1335
  7
txt
 72
     4
 11
922740.80027
 21
7285455.318149
 31
0.0
210
0.0
220
0.0
230
1.0
  0
TEXT
  8
11
  6
CONTINUOUS
 62
     7
  5
287
 10
922667.932
 20
7285454.042
 30
0.0
 40
8.0
  1
65'
 50
358.1335
  7
txt
 72
     4
 11
922677.50527
 21
7285457.732149
 31
0.0
210
0.0
220
0.0
230
1.0
  0
TEXT
  8
11
  6
CONTINUOUS
 62
     7
  5
288
 10
923122.095
 20
7285438.741
 30
0.0
 40
8.0
  1
65'
 50
358.1335
  7
txt
 72
     4
 11
923131.66827
 21
7285442.431149
 31
0.0
210
0.0
220
0.0
230
1.0
  0
TEXT
  8
11
  6
CONTINUOUS
 62
     7
  5
289
 10
923185.221
 20
7285436.682
 30
0.0
 40
8.0
  1
65'
 50
358.1335
  7
txt
 72
     4
 11
923194.79427
 21
7285440.372149
 31
0.0
210
0.0
220
0.0
230
1.0
  0
TEXT
  8
11
  6
CONTINUOUS
 62
     7
  5
28A
 10
923251.772
 20
7285434.514
 30
0.0
 40
8.0
  1
65'
 50
358.1335
  7
txt
 72
     4
 11
923261.34527
 21
7285438.204149
 31
0.0
210
0.0
220
0.0
230
1.0
  0
TEXT
  8
11
  6
CONTINUOUS
 62
     7
  5
28B
 10
923261.195
 20
7285667.462
 30
0.0
 40
8.0
  1
65'
 50
358.1335
  7
txt
 72
     4
 11
923270.76827
 21
7285671.152149
 31
0.0
210
0.0
220
0.0
230
1.0
  0
TEXT
  8
11
  6
CONTINUOUS
 62
     7
  5
28C
 10
923192.219
 20
7285669.709
 30
0.0
 40
8.0
  1
65'
 50
358.1335
  7
txt
 72
     4
 11
923201.79227
 21
7285673.399149
 31
0.0
210
0.0
220
0.0
230
1.0
  0
TEXT
  8
11
  6
CONTINUOUS
 62
     7
  5
28D
 10
923129.875
 20
7285671.741
 30
0.0
 40
8.0
  1
65'
 50
358.1335
  7
txt
 72
     4
 11
923139.44827
 21
7285675.431149
 31
0.0
210
0.0
220
0.0
230
1.0
  0
TEXT
  8
11
  6
CONTINUOUS
 62
     7
  5
28E
 10
923660.301
 20
7285653.698
 30
0.0
 40
8.0
  1
65'
 50
358.1335
  7
txt
 72
     4
 11
923669.87427
 21
7285657.388149
 31
0.0
210
0.0
220
0.0
230
1.0
  0
TEXT
  8
11
  6
CONTINUOUS
 62
     7
  5
28F
 10
923722.566
 20
7285651.669
 30
0.0
 40
8.0
  1
65'
 50
358.1335
  7
txt
 72
     4
 11
923732.13927
 21
7285655.359149
 31
0.0
210
0.0
220
0.0
230
1.0
  0
TEXT
  8
11
  6
CONTINUOUS
 62
     7
  5
290
 10
923786.576
 20
7285648.174
 30
0.0
 40
8.0
  1
65'
 50
358.1335
  7
txt
 72
     4
 11
923796.14927
 21
7285651.864149
 31
0.0
210
0.0
220
0.0
230
1.0
  0
TEXT
  8
11
  6
CONTINUOUS
 62
     7
  5
291
 10
923849.566
 20
7285646.826
 30
0.0
 40
8.0
  1
65'
 50
358.1335
  7
txt
 72
     4
 11
923859.13927
 21
7285650.516149
 31
0.0
210
0.0
220
0.0
230
1.0
  0
TEXT
  8
11
  6
CONTINUOUS
 62
     7
  5
292
 10
923647.619
 20
7285423.73
 30
0.0
 40
8.0
  1
65'
 50
358.1335
  7
txt
 72
     4
 11
923657.19227
 21
7285427.420149
 31
0.0
210
0.0
220
0.0
230
1.0
  0
TEXT
  8
11
  6
CONTINUOUS
 62
     7
  5
293
 10
923710.247
 20
7285420.984
 30
0.0
 40
8.0
  1
65'
 50
358.1335
  7
txt
 72
     4
 11
923719.82027
 21
7285424.674149
 31
0.0
210
0.0
220
0.0
230
1.0
  0
TEXT
  8
11
  6
CONTINUOUS
 62
     7
  5
294
 10
923775.245
 20
7285418.866
 30
0.0
 40
8.0
  1
65'
 50
358.1335
  7
txt
 72
     4
 11
923784.81827
 21
7285422.556149
 31
0.0
210
0.0
220
0.0
230
1.0
  0
TEXT
  8
11
  6
CONTINUOUS
 62
     7
  5
295
 10
923583.09
 20
7285123.36
 30
0.0
 40
8.0
  1
65'
 50
358.1335
  7
txt
 72
     4
 11
923592.66327
 21
7285127.050149
 31
0.0
210
0.0
220
0.0
230
1.0
  0
TEXT
  8
11
  6
CONTINUOUS
 62
     7
  5
296
 10
923519.986
 20
7285125.416
 30
0.0
 40
8.0
  1
65'
 50
358.1335
  7
txt
 72
     4
 11
923529.55927
 21
7285129.106149
 31
0.0
210
0.0
220
0.0
230
1.0
  0
TEXT
  8
11
  6
CONTINUOUS
 62
     7
  5
297
 10
923453.105
 20
7285129.958
 30
0.0
 40
8.0
  1
65'
 50
358.1335
  7
txt
 72
     4
 11
923462.67827
 21
7285133.648149
 31
0.0
210
0.0
220
0.0
230
1.0
  0
TEXT
  8
11
  6
CONTINUOUS
 62
     7
  5
298
 10
923386.862
 20
7285132.117
 30
0.0
 40
8.0
  1
65'
 50
358.1335
  7
txt
 72
     4
 11
923396.43527
 21
7285135.807149
 31
0.0
210
0.0
220
0.0
230
1.0
  0
TEXT
  8
11
  6
CONTINUOUS
 62
     7
  5
299
 10
923322.409
 20
7285134.217
 30
0.0
 40
8.0
  1
65'
 50
358.1335
  7
txt
 72
     4
 11
923331.98227
 21
7285137.907149
 31
0.0
210
0.0
220
0.0
230
1.0
  0
TEXT
  8
11
  6
CONTINUOUS
 62
     7
  5
29A
 10
923255.519
 20
7285135.691
 30
0.0
 40
8.0
  1
65'
 50
358.1335
  7
txt
 72
     4
 11
923265.09227
 21
7285139.381149
 31
0.0
210
0.0
220
0.0
230
1.0
  0
TEXT
  8
11
  6
CONTINUOUS
 62
     7
  5
29B
 10
923191.067
 20
7285137.792
 30
0.0
 40
8.0
  1
65'
 50
358.1335
  7
txt
 72
     4
 11
923200.64027
 21
7285141.482149
 31
0.0
210
0.0
220
0.0
230
1.0
  0
TEXT
  8
11
  6
CONTINUOUS
 62
     7
  5
29C
 10
923127.736
 20
7285140.56
 30
0.0
 40
8.0
  1
65'
 50
358.1335
  7
txt
 72
     4
 11
923137.30927
 21
7285144.250149
 31
0.0
210
0.0
220
0.0
230
1.0
  0
TEXT
  8
11
  6
CONTINUOUS
 62
     7
  5
29D
 10
923063.205
 20
7285142.664
 30
0.0
 40
8.0
  1
65'
 50
358.1335
  7
txt
 72
     4
 11
923072.77827
 21
7285146.354149
 31
0.0
210
0.0
220
0.0
230
1.0
  0
TEXT
  8
11
  6
CONTINUOUS
 62
     7
  5
29E
 10
922996.1
 20
7285144.851
 30
0.0
 40
8.0
  1
65'
 50
358.1335
  7
txt
 72
     4
 11
923005.67327
 21
7285148.541149
 31
0.0
210
0.0
220
0.0
230
1.0
  0
TEXT
  8
11
  6
CONTINUOUS
 62
     7
  5
29F
 10
922934.697
 20
7285145.785
 30
0.0
 40
8.0
  1
65'
 50
358.1335
  7
txt
 72
     4
 11
922944.27027
 21
7285149.475149
 31
0.0
210
0.0
220
0.0
230
1.0
  0
TEXT
  8
11
  6
CONTINUOUS
 62
     7
  5
2A0
 10
922943.913
 20
7285377.395
 30
0.0
 40
8.0
  1
65'
 50
358.1335
  7
txt
 72
     4
 11
922953.48627
 21
7285381.085149
 31
0.0
210
0.0
220
0.0
230
1.0
  0
TEXT
  8
11
  6
CONTINUOUS
 62
     7
  5
2A1
 10
923003.725
 20
7285375.685
 30
0.0
 40
8.0
  1
65'
 50
358.1335
  7
txt
 72
     4
 11
923013.29827
 21
7285379.375149
 31
0.0
210
0.0
220
0.0
230
1.0
  0
TEXT
  8
11
  6
CONTINUOUS
 62
     7
  5
2A2
 10
923069.161
 20
7285373.44
 30
0.0
 40
8.0
  1
65'
 50
358.1335
  7
txt
 72
     4
 11
923078.73427
 21
7285377.130149
 31
0.0
210
0.0
220
0.0
230
1.0
  0
TEXT
  8
11
  6
CONTINUOUS
 62
     7
  5
2A3
 10
923135.216
 20
7285371.762
 30
0.0
 40
8.0
  1
65'
 50
358.1335
  7
txt
 72
     4
 11
923144.78927
 21
7285375.452149
 31
0.0
210
0.0
220
0.0
230
1.0
  0
TEXT
  8
11
  6
CONTINUOUS
 62
     7
  5
2A4
 10
923200.043
 20
7285369.652
 30
0.0
 40
8.0
  1
65'
 50
358.1335
  7
txt
 72
     4
 11
923209.61627
 21
7285373.342149
 31
0.0
210
0.0
220
0.0
230
1.0
  0
TEXT
  8
11
  6
CONTINUOUS
 62
     7
  5
2A5
 10
923262.54
 20
7285366.796
 30
0.0
 40
8.0
  1
65'
 50
358.1335
  7
txt
 72
     4
 11
923272.11327
 21
7285370.486149
 31
0.0
210
0.0
220
0.0
230
1.0
  0
TEXT
  8
11
  6
CONTINUOUS
 62
     7
  5
2A6
 10
923326.398
 20
7285366.714
 30
0.0
 40
8.0
  1
65'
 50
358.1335
  7
txt
 72
     4
 11
923335.97127
 21
7285370.404149
 31
0.0
210
0.0
220
0.0
230
1.0
  0
TEXT
  8
11
  6
CONTINUOUS
 62
     7
  5
2A7
 10
923389.128
 20
7285364.669
 30
0.0
 40
8.0
  1
65'
 50
358.1335
  7
txt
 72
     4
 11
923398.70127
 21
7285368.359149
 31
0.0
210
0.0
220
0.0
230
1.0
  0
TEXT
  8
11
  6
CONTINUOUS
 62
     7
  5
2A8
 10
923449.341
 20
7285362.003
 30
0.0
 40
8.0
  1
65'
 50
358.1335
  7
txt
 72
     4
 11
923458.91427
 21
7285365.693149
 31
0.0
210
0.0
220
0.0
230
1.0
  0
TEXT
  8
11
  6
CONTINUOUS
 62
     7
  5
2A9
 10
923525.599
 20
7285358.224
 30
0.0
 40
8.0
  1
65'
 50
358.1335
  7
txt
 72
     4
 11
923535.17227
 21
7285361.914149
 31
0.0
210
0.0
220
0.0
230
1.0
  0
TEXT
  8
11
  6
CONTINUOUS
 62
     7
  5
2AA
 10
923589.077
 20
7285356.858
 30
0.0
 40
8.0
  1
65'
 50
358.1335
  7
txt
 72
     4
 11
923598.65027
 21
7285360.548149
 31
0.0
210
0.0
220
0.0
230
1.0
  0
LINE
  8
21
  6
DASHDOT
 62
     7
  5
2AC
 10
921465.81
 20
7287324.18
 30
0.0
 11
926743.008
 21
7287152.206
 31
0.0
  0
LINE
  8
21
  6
DASHDOT
 62
     7
  5
2AD
 10
921464.67
 20
7287289.198
 30
0.0
 11
926741.869
 21
7287117.224
 31
0.0
  0
POLYLINE
  8
21
  6
DASHDOT
 62
     7
  5
2AE
 66
     1
 10
0.0
 20
0.0
 30
0.0
  0
VERTEX
  8
21
  6
DASHDOT
 62
     7
  5
2AF
 10
921841.47
 20
7287276.919
 30
0.0
  0
VERTEX
  8
21
  6
DASHDOT
 62
     7
  5
2B0
 10
921839.695
 20
7287222.448
 30
0.0
  0
VERTEX
  8
21
  6
DASHDOT
 62
     7
  5
2B1
 10
921862.683
 20
7287221.699
 30
0.0
  0
SEQEND
  8
21
  6
DASHDOT
 62
     7
  5
2B2
  0
POLYLINE
  8
21
  6
DASHDOT
 62
     7
  5
2B3
 66
     1
 10
0.0
 20
0.0
 30
0.0
  0
VERTEX
  8
21
  6
DASHDOT
 62
     7
  5
2B4
 10
921846.467
 20
7287276.756
 30
0.0
  0
VERTEX
  8
21
  6
DASHDOT
 62
     7
  5
2B5
 10
921844.855
 20
7287227.282
 30
0.0
  0
VERTEX
  8
21
  6
DASHDOT
 62
     7
  5
2B6
 10
921862.846
 20
7287226.696
 30
0.0
  0
SEQEND
  8
21
  6
DASHDOT
 62
     7
  5
2B7
  0
TEXT
  8
22
  6
CONTINUOUS
 62
     3
  5
2B9
 10
922082.676
 20
7286112.764
 30
0.0
 40
8.0
  1
 
 50
78.847167
  7
ROMANS
 72
     1
 11
922075.342758
 21
7286116.927066
 31
0.0
210
0.0
220
0.0
230
1.0
 73
     3
  0
TEXT
  8
22
  6
CONTINUOUS
 62
     3
  5
2BA
 10
922083.097
 20
7285933.476
 30
0.0
 40
8.0
  1
 
 50
56.531792
  7
ROMANS
 72
     1
 11
922077.893695
 21
7285940.111749
 31
0.0
210
0.0
220
0.0
230
1.0
 73
     3
  0
TEXT
  8
22
  6
CONTINUOUS
 62
     3
  5
2BB
 10
922336.303
 20
7285638.062
 30
0.0
 40
8.0
  1
 
 50
43.133136
  7
ROMANS
 72
     1
 11
922332.778991
 21
7285645.722869
 31
0.0
210
0.0
220
0.0
230
1.0
 73
     3
  0
TEXT
  8
22
  6
CONTINUOUS
 62
     3
  5
2BC
 10
922491.453
 20
7285505.198
 30
0.0
 40
8.0
  1
 
 50
71.975497
  7
ROMANS
 72
     1
 11
922492.277924
 21
7285507.733164
 31
0.0
210
0.0
220
0.0
230
1.0
  0
TEXT
  8
22
  6
CONTINUOUS
 62
     3
  5
2BD
 10
923893.755
 20
7285778.539
 30
0.0
 40
8.0
  1
 
 50
268.1335
  7
ROMANS
 72
     1
 11
923893.668166
 21
7285775.874414
 31
0.0
210
0.0
220
0.0
230
1.0
  0
TEXT
  8
22
  6
CONTINUOUS
 62
     3
  5
2BE
 10
923352.541
 20
7285197.435
 30
0.0
 40
8.0
  1
 
 50
268.1335
  7
ROMANS
 72
     1
 11
923360.449922
 21
7285194.509848
 31
0.0
210
0.0
220
0.0
230
1.0
 73
     3
  0
LINE
  8
21
  6
DASHDOT
 62
     7
  5
2BF
 10
923663.654
 20
7284796.396
 30
0.0
 11
923775.585
 21
7284792.748
 31
0.0
  0
TEXT
  8
22
  6
CONTINUOUS
 62
     3
  5
2C0
 10
923695.538
 20
7284800.323
 30
0.0
 40
8.0
  1
4' UUE
 50
358.1335
  7
ROMANS
210
0.0
220
0.0
230
1.0
  0
LINE
  8
21
  6
DASHDOT
 62
     7
  5
2C1
 10
923780.08
 20
7284930.675
 30
0.0
 11
923668.149
 21
7284934.323
 31
0.0
  0
TEXT
  8
22
  6
CONTINUOUS
 62
     3
  5
2C2
 10
923696.705
 20
7284919.391
 30
0.0
 40
8.0
  1
4' UUE
 50
358.1335
  7
ROMANS
210
0.0
220
0.0
230
1.0
  0
POLYLINE
  8
1
  6
HIDDEN
 62
   253
  5
2C4
 66
     1
 10
0.0
 20
0.0
 30
0.0
 70
     1
  0
VERTEX
  8
1
  6
HIDDEN
 62
   253
  5
2C5
 10
921395.859
 20
7284734.642
 30
0.0
  0
VERTEX
  8
1
  6
HIDDEN
 62
   253
  5
2C6
 10
926683.641
 20
7284574.159
 30
0.0
  0
VERTEX
  8
1
  6
HIDDEN
 62
   253
  5
2C7
 10
926850.249
 20
7289810.265
 30
0.0
  0
VERTEX
  8
1
  6
HIDDEN
 62
   253
  5
2C8
 10
921559.876
 20
7289969.218
 30
0.0
  0
SEQEND
  8
1
  6
HIDDEN
 62
   253
  5
2C9
  0
LINE
  8
6
  6
CONTINUOUS
 62
     7
  5
2CA
 10
921441.582
 20
7284738.597
 30
0.0
 11
921478.887
 21
7285883.321
 31
0.0
  0
LINE
  8
6
  6
CONTINUOUS
 62
     7
  5
2CB
 10
922400.559
 20
7284721.944
 30
0.0
 11
922420.561
 21
7285335.729
 31
0.0
  0
LINE
  8
6
  6
CONTINUOUS
 62
     7
  5
2CC
 10
921496.322
 20
7285957.793
 30
0.0
 11
921669.23
 21
7285952.158
 31
0.0
  0
LINE
  8
6
  6
CONTINUOUS
 62
     7
  5
2CD
 10
921681.779
 20
7285876.709
 30
0.0
 11
921741.747
 21
7285874.755
 31
0.0
  0
LINE
  8
6
  6
CONTINUOUS
 62
     7
  5
2CE
 10
921757.228
 20
7285889.259
 30
0.0
 11
921906.309
 21
7285884.4
 31
0.0
  0
ARC
  8
6
  6
CONTINUOUS
 62
     7
  5
2CF
 10
921493.878925
 20
7285882.832669
 30
0.0
 40
15.0
 50
88.1335
 51
178.1335
210
0.0
220
0.0
230
1.0
  0
ARC
  8
6
  6
CONTINUOUS
 62
     7
  5
2D0
 10
921666.787136
 20
7285877.197919
 30
0.0
 40
15.0
 50
358.1335
 51
88.1335
210
0.0
220
0.0
230
1.0
  0
ARC
  8
6
  6
CONTINUOUS
 62
     7
  5
2D1
 10
921756.739385
 20
7285874.266546
 30
0.0
 40
15.0
 50
88.1335
 51
178.1335
210
0.0
220
0.0
230
1.0
  0
ARC
  8
6
  6
CONTINUOUS
 62
     7
  5
2D2
 10
922220.667086
 20
7285342.24277
 30
0.0
 40
200.0
 50
358.1335
 51
43.132453
210
0.0
220
0.0
230
1.0
  0
LINE
  8
6
  6
CONTINUOUS
 62
     7
  5
2D3
 10
922175.425
 20
7285683.06
 30
0.0
 11
922045.761
 21
7285821.459
 31
0.0
  0
LINE
  8
6
  6
CONTINUOUS
 62
     7
  5
2D4
 10
922215.756
 20
7285618.072
 30
0.0
 11
922174.734
 21
7285661.856
 31
0.0
  0
ARC
  8
6
  6
CONTINUOUS
 62
     7
  5
2D5
 10
922226.011326
 20
7285607.124242
 30
0.0
 40
15.000563
 50
43.1335
 51
133.1335
210
0.0
220
0.0
230
1.0
  0
ARC
  8
6
  6
CONTINUOUS
 62
     7
  5
2D6
 10
922164.477897
 20
7285672.803283
 30
0.0
 40
15.000563
 50
313.1335
 51
43.1335
210
0.0
220
0.0
230
1.0
  0
LINE
  8
6
  6
CONTINUOUS
 62
     7
  5
2D7
 10
921667.276
 20
7285892.19
 30
0.0
 11
921494.368
 21
7285897.825
 31
0.0
  0
LINE
  8
6
  6
CONTINUOUS
 62
     7
  5
2D8
 10
921796.162
 20
7285948.021
 30
0.0
 11
921669.23
 21
7285952.158
 31
0.0
  0
ARC
  8
6
  6
CONTINUOUS
 62
     7
  5
2D9
 10
921496.810298
 20
7285972.784918
 30
0.0
 40
15.0
 50
178.1335
 51
268.1335
210
0.0
220
0.0
230
1.0
  0
LINE
  8
6
  6
CONTINUOUS
 62
     7
  5
2DA
 10
922517.638
 20
7285569.365
 30
0.0
 11
922911.999
 21
7285556.513
 31
0.0
  0
LINE
  8
6
  6
CONTINUOUS
 62
     7
  5
2DB
 10
922911.999
 20
7285556.513
 30
0.0
 11
922908.84
 21
7285459.565
 31
0.0
  0
LINE
  8
6
  6
CONTINUOUS
 62
     7
  5
2DC
 10
922893.359
 20
7285445.061
 30
0.0
 11
922461.491
 21
7285459.135
 31
0.0
  0
ARC
  8
6
  6
CONTINUOUS
 62
     7
  5
2DD
 10
922893.847438
 20
7285460.053248
 30
0.0
 40
15.0
 50
268.1335
 51
358.1335
210
0.0
220
0.0
230
1.0
  0
ARC
  8
6
  6
CONTINUOUS
 62
     7
  5
2DE
 10
922220.805219
 20
7285346.48152
 30
0.0
 40
260.0
 50
358.1335
 51
8.489069
210
0.0
220
0.0
230
1.0
  0
LINE
  8
6
  6
CONTINUOUS
 62
     7
  5
2DF
 10
922460.526
 20
7284719.951
 30
0.0
 11
922480.669
 21
7285338.053
 31
0.0
  0
LINE
  8
6
  6
CONTINUOUS
 62
     7
  5
2E0
 10
922711.635
 20
7285394.954
 30
0.0
 11
922493.282
 21
7285402.069
 31
0.0
  0
ARC
  8
6
  6
CONTINUOUS
 62
     7
  5
2E1
 10
922492.792331
 20
7285387.077218
 30
0.0
 40
15.0
 50
88.1335
 51
188.489069
210
0.0
220
0.0
230
1.0
  0
LINE
  8
6
  6
CONTINUOUS
 62
     7
  5
2E2
 10
922722.978
 20
7285282.524
 30
0.0
 11
922591.048
 21
7285286.824
 31
0.0
  0
LINE
  8
6
  6
CONTINUOUS
 62
     7
  5
2E3
 10
922722.327
 20
7285262.535
 30
0.0
 11
922620.381
 21
7285265.857
 31
0.0
  0
LINE
  8
6
  6
CONTINUOUS
 62
     7
  5
2E4
 10
922722.978
 20
7285282.524
 30
0.0
 11
922726.138
 21
7285379.473
 31
0.0
  0
LINE
  8
6
  6
CONTINUOUS
 62
     7
  5
2E5
 10
922620.381
 20
7285265.857
 30
0.0
 11
922610.061
 21
7285256.189
 31
0.0
  0
LINE
  8
6
  6
CONTINUOUS
 62
     7
  5
2E6
 10
922722.327
 20
7285262.535
 30
0.0
 11
922706.875
 21
7284788.356
 31
0.0
  0
ARC
  8
6
  6
CONTINUOUS
 62
     7
  5
2E7
 10
922733.510435
 20
7284746.041721
 30
0.0
 40
50.0
 50
122.189297
 51
54.077703
210
0.0
220
0.0
230
1.0
  0
LINE
  8
6
  6
CONTINUOUS
 62
     7
  5
2E8
 10
922797.589
 20
7285392.153
 30
0.0
 11
923921.567
 21
7285355.524
 31
0.0
  0
LINE
  8
6
  6
CONTINUOUS
 62
     7
  5
2E9
 10
922778.949
 20
7285280.7
 30
0.0
 11
924009.296
 21
7285240.606
 31
0.0
  0
LINE
  8
6
  6
CONTINUOUS
 62
     7
  5
2EA
 10
922782.108
 20
7285377.649
 30
0.0
 11
922778.949
 21
7285280.7
 31
0.0
  0
ARC
  8
6
  6
CONTINUOUS
 62
     7
  5
2EB
 10
922797.10022
 20
7285377.160403
 30
0.0
 40
15.0
 50
88.1335
 51
178.1335
210
0.0
220
0.0
230
1.0
  0
ARC
  8
6
  6
CONTINUOUS
 62
     7
  5
2EC
 10
922711.145849
 20
7285379.961492
 30
0.0
 40
15.0
 50
358.1335
 51
88.1335
210
0.0
220
0.0
230
1.0
  0
LINE
  8
6
  6
CONTINUOUS
 62
     7
  5
2ED
 10
922778.298
 20
7285260.711
 30
0.0
 11
924008.644
 21
7285220.617
 31
0.0
  0
LINE
  8
6
  6
CONTINUOUS
 62
     7
  5
2EE
 10
922789.641
 20
7285148.282
 30
0.0
 11
923990.004
 21
7285109.164
 31
0.0
  0
LINE
  8
6
  6
CONTINUOUS
 62
     7
  5
2EF
 10
922778.298
 20
7285260.711
 30
0.0
 11
922775.138
 21
7285163.762
 31
0.0
  0
LINE
  8
6
  6
CONTINUOUS
 62
     7
  5
2F0
 10
922772.337
 20
7285077.808
 30
0.0
 11
922762.845
 21
7284786.543
 31
0.0
  0
ARC
  8
6
  6
CONTINUOUS
 62
     7
  5
2F1
 10
922790.130067
 20
7285163.273945
 30
0.0
 40
15.0
 50
178.1335
 51
268.1335
210
0.0
220
0.0
230
1.0
  0
ARC
  8
6
  6
CONTINUOUS
 62
     7
  5
2F2
 10
922787.328977
 20
7285077.319574
 30
0.0
 40
15.0
 50
88.1335
 51
178.1335
210
0.0
220
0.0
230
1.0
  0
POLYLINE
  8
6
  6
CONTINUOUS
 62
     7
  5
2F3
 66
     1
 10
0.0
 20
0.0
 30
0.0
  0
VERTEX
  8
6
  6
CONTINUOUS
 62
     7
  5
2F4
 10
923016.208
 20
7285069.861
 30
0.0
  0
VERTEX
  8
6
  6
CONTINUOUS
 62
     7
  5
2F5
 10
923013.003
 20
7284971.513
 30
0.0
  0
VERTEX
  8
6
  6
CONTINUOUS
 62
     7
  5
2F6
 10
922881.073
 20
7284975.812
 30
0.0
  0
VERTEX
  8
6
  6
CONTINUOUS
 62
     7
  5
2F7
 10
922871.803
 20
7284691.367
 30
0.0
  0
SEQEND
  8
6
  6
CONTINUOUS
 62
     7
  5
2F8
  0
LINE
  8
6
  6
CONTINUOUS
 62
     7
  5
2F9
 10
922787.818
 20
7285092.311
 30
0.0
 11
923001.704
 21
7285085.342
 31
0.0
  0
ARC
  8
6
  6
CONTINUOUS
 62
     7
  5
2FA
 10
923001.215435
 20
7285070.349421
 30
0.0
 40
15.0
 50
358.1335
 51
88.1335
210
0.0
220
0.0
230
1.0
  0
LINE
  8
6
  6
CONTINUOUS
 62
     7
  5
2FB
 10
923004.23
 20
7284702.008
 30
0.0
 11
923012.352
 21
7284951.524
 31
0.0
  0
LINE
  8
6
  6
CONTINUOUS
 62
     7
  5
2FC
 10
923072.178
 20
7285068.037
 30
0.0
 11
923068.973
 21
7284969.689
 31
0.0
  0
LINE
  8
6
  6
CONTINUOUS
 62
     7
  5
2FD
 10
923060.199
 20
7284700.147
 30
0.0
 11
923068.322
 21
7284949.699
 31
0.0
  0
ARC
  8
6
  6
CONTINUOUS
 62
     7
  5
2FE
 10
923087.169806
 20
7285067.548331
 30
0.0
 40
15.0
 50
88.1335
 51
178.1335
210
0.0
220
0.0
230
1.0
  0
LINE
  8
6
  6
CONTINUOUS
 62
     7
  5
2FF
 10
924008.644
 20
7285220.617
 30
0.0
 11
924005.485
 21
7285123.668
 31
0.0
  0
LINE
  8
6
  6
CONTINUOUS
 62
     7
  5
300
 10
924002.683
 20
7285037.713
 30
0.0
 11
923999.479
 21
7284939.365
 31
0.0
  0
LINE
  8
6
  6
CONTINUOUS
 62
     7
  5
301
 10
923687.35
 20
7285062.998
 30
0.0
 11
923988.181
 21
7285053.194
 31
0.0
  0
LINE
  8
6
  6
CONTINUOUS
 62
     7
  5
302
 10
923780.595
 20
7284946.499
 30
0.0
 11
923999.479
 21
7284939.365
 31
0.0
  0
ARC
  8
6
  6
CONTINUOUS
 62
     7
  5
303
 10
923987.691763
 20
7285038.202032
 30
0.0
 40
15.0
 50
358.1335
 51
88.1335
210
0.0
220
0.0
230
1.0
  0
ARC
  8
6
  6
CONTINUOUS
 62
     7
  5
304
 10
923990.492853
 20
7285124.156403
 30
0.0
 40
15.0
 50
268.1335
 51
358.1335
210
0.0
220
0.0
230
1.0
  0
LINE
  8
6
  6
CONTINUOUS
 62
     7
  5
305
 10
923780.595
 20
7284946.499
 30
0.0
 11
923771.313
 21
7284661.66
 31
0.0
  0
LINE
  8
6
  6
CONTINUOUS
 62
     7
  5
306
 10
923659.872
 20
7284680.343
 30
0.0
 11
923671.87
 21
7285048.494
 31
0.0
  0
LINE
  8
6
  6
CONTINUOUS
 62
     7
  5
307
 10
923603.903
 20
7284682.204
 30
0.0
 11
923615.899
 21
7285050.318
 31
0.0
  0
LINE
  8
6
  6
CONTINUOUS
 62
     7
  5
308
 10
923491.476
 20
7284670.902
 30
0.0
 11
923500.754
 21
7284955.618
 31
0.0
  0
LINE
  8
6
  6
CONTINUOUS
 62
     7
  5
309
 10
923471.487
 20
7284671.562
 30
0.0
 11
923479.787
 21
7284926.286
 31
0.0
  0
LINE
  8
6
  6
CONTINUOUS
 62
     7
  5
30A
 10
923470.118
 20
7284936.606
 30
0.0
 11
923479.787
 21
7284926.286
 31
0.0
  0
LINE
  8
6
  6
CONTINUOUS
 62
     7
  5
30B
 10
923171.65
 20
7284681.465
 30
0.0
 11
923179.937
 21
7284936.057
 31
0.0
  0
LINE
  8
6
  6
CONTINUOUS
 62
     7
  5
30C
 10
923191.639
 20
7284680.805
 30
0.0
 11
923199.927
 21
7284935.406
 31
0.0
  0
ARC
  8
6
  6
CONTINUOUS
 62
     7
  5
30D
 10
923686.861459
 20
7285048.00552
 30
0.0
 40
15.0
 50
88.1335
 51
178.1335
210
0.0
220
0.0
230
1.0
  0
ARC
  8
6
  6
CONTINUOUS
 62
     7
  5
30E
 10
923600.907088
 20
7285050.80661
 30
0.0
 40
15.0
 50
358.1335
 51
88.1335
210
0.0
220
0.0
230
1.0
  0
LINE
  8
6
  6
CONTINUOUS
 62
     7
  5
30F
 10
923068.322
 20
7284949.699
 30
0.0
 11
923170.268
 21
7284946.377
 31
0.0
  0
LINE
  8
6
  6
CONTINUOUS
 62
     7
  5
310
 10
923210.247
 20
7284945.074
 30
0.0
 11
923312.193
 21
7284941.752
 31
0.0
  0
LINE
  8
6
  6
CONTINUOUS
 62
     7
  5
311
 10
923368.173
 20
7284939.928
 30
0.0
 11
923470.118
 21
7284936.606
 31
0.0
  0
LINE
  8
6
  6
CONTINUOUS
 62
     7
  5
312
 10
923068.973
 20
7284969.689
 30
0.0
 11
923312.843
 21
7284961.742
 31
0.0
  0
LINE
  8
6
  6
CONTINUOUS
 62
     7
  5
313
 10
923368.824
 20
7284959.917
 30
0.0
 11
923500.754
 21
7284955.618
 31
0.0
  0
LINE
  8
6
  6
CONTINUOUS
 62
     7
  5
314
 10
923087.658
 20
7285082.54
 30
0.0
 11
923301.541
 21
7285075.571
 31
0.0
  0
LINE
  8
6
  6
CONTINUOUS
 62
     7
  5
315
 10
923387.509
 20
7285072.769
 30
0.0
 11
923601.396
 21
7285065.799
 31
0.0
  0
ARC
  8
6
  6
CONTINUOUS
 62
     7
  5
316
 10
923387.02063
 20
7285057.776763
 30
0.0
 40
15.0
 50
88.1335
 51
178.1335
210
0.0
220
0.0
230
1.0
  0
ARC
  8
6
  6
CONTINUOUS
 62
     7
  5
317
 10
923301.062518
 20
7285060.577974
 30
0.0
 40
15.0
 50
358.135933
 51
88.1335
210
0.0
220
0.0
230
1.0
  0
LINE
  8
6
  6
CONTINUOUS
 62
     7
  5
318
 10
923362.525
 20
7284766.64
 30
0.0
 11
923368.173
 21
7284939.928
 31
0.0
  0
LINE
  8
6
  6
CONTINUOUS
 62
     7
  5
319
 10
923368.824
 20
7284959.917
 30
0.0
 11
923372.028
 21
7285058.265
 31
0.0
  0
LINE
  8
6
  6
CONTINUOUS
 62
     7
  5
31A
 10
923306.553
 20
7284768.464
 30
0.0
 11
923312.193
 21
7284941.752
 31
0.0
  0
LINE
  8
6
  6
CONTINUOUS
 62
     7
  5
31B
 10
923312.853
 20
7284961.742
 30
0.0
 11
923316.054
 21
7285060.09
 31
0.0
  0
LINE
  8
6
  6
CONTINUOUS
 62
     7
  5
31C
 10
922967.969
 20
7285554.69
 30
0.0
 11
922964.81
 21
7285457.741
 31
0.0
  0
LINE
  8
6
  6
CONTINUOUS
 62
     7
  5
31D
 10
924009.296
 20
7285240.606
 30
0.0
 11
924018.416
 21
7285520.457
 31
0.0
  0
ARC
  8
6
  6
CONTINUOUS
 62
     7
  5
31E
 10
922979.801809
 20
7285457.252159
 30
0.0
 40
15.0
 50
178.1335
 51
268.1335
210
0.0
220
0.0
230
1.0
  0
LINE
  8
6
  6
CONTINUOUS
 62
     7
  5
31F
 10
923432.722
 20
7285539.544
 30
0.0
 11
923429.563
 21
7285442.595
 31
0.0
  0
LINE
  8
6
  6
CONTINUOUS
 62
     7
  5
320
 10
923488.692
 20
7285537.72
 30
0.0
 11
923485.533
 21
7285440.771
 31
0.0
  0
LINE
  8
6
  6
CONTINUOUS
 62
     7
  5
321
 10
922967.969
 20
7285554.69
 30
0.0
 11
923432.722
 21
7285539.544
 31
0.0
  0
LINE
  8
6
  6
CONTINUOUS
 62
     7
  5
322
 10
923488.692
 20
7285537.72
 30
0.0
 11
924018.416
 21
7285520.457
 31
0.0
  0
LINE
  8
6
  6
CONTINUOUS
 62
     7
  5
323
 10
922979.313
 20
7285442.26
 30
0.0
 11
923414.082
 21
7285428.091
 31
0.0
  0
LINE
  8
6
  6
CONTINUOUS
 62
     7
  5
324
 10
923500.037
 20
7285425.291
 30
0.0
 11
923923.332
 21
7285411.497
 31
0.0
  0
ARC
  8
6
  6
CONTINUOUS
 62
     7
  5
325
 10
923500.525382
 20
7285440.282767
 30
0.0
 40
15.0
 50
178.1335
 51
268.1335
210
0.0
220
0.0
230
1.0
  0
ARC
  8
6
  6
CONTINUOUS
 62
     7
  5
326
 10
923414.571011
 20
7285443.083857
 30
0.0
 40
15.0
 50
268.1335
 51
358.1335
210
0.0
220
0.0
230
1.0
  0
LINE
  8
6
  6
CONTINUOUS
 62
     7
  5
327
 10
923489.344
 20
7285557.709
 30
0.0
 11
924017.068
 21
7285540.512
 31
0.0
  0
LINE
  8
6
  6
CONTINUOUS
 62
     7
  5
328
 10
922968.62
 20
7285574.679
 30
0.0
 11
923433.374
 21
7285559.533
 31
0.0
  0
LINE
  8
6
  6
CONTINUOUS
 62
     7
  5
329
 10
922526.57
 20
7285589.084
 30
0.0
 11
922912.65
 21
7285576.503
 31
0.0
  0
LINE
  8
6
  6
CONTINUOUS
 62
     7
  5
32A
 10
923210.247
 20
7284945.074
 30
0.0
 11
923199.927
 21
7284935.406
 31
0.0
  0
LINE
  8
6
  6
CONTINUOUS
 62
     7
  5
32B
 10
923170.268
 20
7284946.377
 30
0.0
 11
923179.937
 21
7284936.057
 31
0.0
  0
LINE
  8
6
  6
CONTINUOUS
 62
     7
  5
32C
 10
922910.405
 20
7284954.845
 30
0.0
 11
922900.085
 21
7284945.177
 31
0.0
  0
LINE
  8
6
  6
CONTINUOUS
 62
     7
  5
32D
 10
922900.085
 20
7284945.177
 30
0.0
 11
922891.792
 21
7284690.706
 31
0.0
  0
LINE
  8
6
  6
CONTINUOUS
 62
     7
  5
32E
 10
922910.405
 20
7284954.845
 30
0.0
 11
923012.352
 21
7284951.524
 31
0.0
  0
LINE
  8
6
  6
CONTINUOUS
 62
     7
  5
32F
 10
923507.984
 20
7285669.162
 30
0.0
 11
924005.724
 21
7285652.941
 31
0.0
  0
LINE
  8
6
  6
CONTINUOUS
 62
     7
  5
330
 10
922987.261
 20
7285686.13
 30
0.0
 11
923422.029
 21
7285671.962
 31
0.0
  0
LINE
  8
6
  6
CONTINUOUS
 62
     7
  5
331
 10
922682.512
 20
7285696.061
 30
0.0
 11
922901.306
 21
7285688.931
 31
0.0
  0
LINE
  8
6
  6
CONTINUOUS
 62
     7
  5
332
 10
924017.068
 20
7285540.512
 30
0.0
 11
924020.227
 21
7285637.461
 31
0.0
  0
LINE
  8
6
  6
CONTINUOUS
 62
     7
  5
333
 10
923492.504
 20
7285654.658
 30
0.0
 11
923489.344
 21
7285557.709
 31
0.0
  0
LINE
  8
6
  6
CONTINUOUS
 62
     7
  5
334
 10
923433.374
 20
7285559.533
 30
0.0
 11
923436.533
 21
7285656.482
 31
0.0
  0
LINE
  8
6
  6
CONTINUOUS
 62
     7
  5
335
 10
922968.62
 20
7285574.679
 30
0.0
 11
922971.779
 21
7285671.628
 31
0.0
  0
LINE
  8
6
  6
CONTINUOUS
 62
     7
  5
336
 10
922912.65
 20
7285576.503
 30
0.0
 11
922915.81
 21
7285673.451
 31
0.0
  0
ARC
  8
6
  6
CONTINUOUS
 62
     7
  5
337
 10
923507.495535
 20
7285654.169225
 30
0.0
 40
15.0
 50
88.1335
 51
178.1335
210
0.0
220
0.0
230
1.0
  0
ARC
  8
6
  6
CONTINUOUS
 62
     7
  5
338
 10
923421.541164
 20
7285656.970315
 30
0.0
 40
15.0
 50
358.1335
 51
88.1335
210
0.0
220
0.0
230
1.0
  0
ARC
  8
6
  6
CONTINUOUS
 62
     7
  5
339
 10
922986.771962
 20
7285671.138617
 30
0.0
 40
15.0
 50
88.1335
 51
178.1335
210
0.0
220
0.0
230
1.0
  0
ARC
  8
6
  6
CONTINUOUS
 62
     7
  5
33A
 10
922900.817591
 20
7285673.939706
 30
0.0
 40
15.0
 50
358.1335
 51
88.1335
210
0.0
220
0.0
230
1.0
  0
ARC
  8
6
  6
CONTINUOUS
 62
     7
  5
33B
 10
921803.599457
 20
7286176.230489
 30
0.0
 40
15.0
 50
358.1335
 51
88.1335
210
0.0
220
0.0
230
1.0
  0
LINE
  8
6
  6
CONTINUOUS
 62
     7
  5
33C
 10
921494.727
 20
7286369.393
 30
0.0
 11
921485.629
 21
7286090.212
 31
0.0
  0
LINE
  8
6
  6
CONTINUOUS
 62
     7
  5
33D
 10
921485.629
 20
7286090.212
 30
0.0
 11
921815.454
 21
7286079.463
 31
0.0
  0
LINE
  8
6
  6
CONTINUOUS
 62
     7
  5
33E
 10
924023.029
 20
7285723.414
 30
0.0
 11
924026.188
 21
7285820.363
 31
0.0
  0
LINE
  8
6
  6
CONTINUOUS
 62
     7
  5
33F
 10
922651.609
 20
7285865.158
 30
0.0
 11
923635.396
 21
7285833.098
 31
0.0
  0
LINE
  8
6
  6
CONTINUOUS
 62
     7
  5
340
 10
923691.365
 20
7285831.275
 30
0.0
 11
924026.188
 21
7285820.363
 31
0.0
  0
LINE
  8
6
  6
CONTINUOUS
 62
     7
  5
341
 10
922684.311
 20
7285752.033
 30
0.0
 11
923616.755
 21
7285721.646
 31
0.0
  0
LINE
  8
6
  6
CONTINUOUS
 62
     7
  5
342
 10
923702.71
 20
7285718.845
 30
0.0
 11
924007.548
 21
7285708.911
 31
0.0
  0
LINE
  8
6
  6
CONTINUOUS
 62
     7
  5
343
 10
923691.365
 20
7285831.275
 30
0.0
 11
923688.206
 21
7285734.326
 31
0.0
  0
ARC
  8
6
  6
CONTINUOUS
 62
     7
  5
344
 10
923703.198223
 20
7285733.8373
 30
0.0
 40
15.0
 50
178.1335
 51
268.1335
210
0.0
220
0.0
230
1.0
  0
LINE
  8
6
  6
CONTINUOUS
 62
     7
  5
345
 10
923635.396
 20
7285833.098
 30
0.0
 11
923632.236
 21
7285736.15
 31
0.0
  0
ARC
  8
6
  6
CONTINUOUS
 62
     7
  5
346
 10
923617.243852
 20
7285736.638389
 30
0.0
 40
15.0
 50
268.1335
 51
358.1335
210
0.0
220
0.0
230
1.0
  0
LINE
  8
6
  6
CONTINUOUS
 62
     7
  5
347
 10
922660.542
 20
7285884.878
 30
0.0
 11
923694.016
 21
7285851.198
 31
0.0
  0
LINE
  8
6
  6
CONTINUOUS
 62
     7
  5
348
 10
923694.016
 20
7285851.198
 30
0.0
 11
924058.822
 21
7285839.31
 31
0.0
  0
ARC
  8
6
  6
CONTINUOUS
 62
     7
  5
349
 10
924008.036399
 20
7285723.903203
 30
0.0
 40
15.0
 50
268.1335
 51
358.1335
210
0.0
220
0.0
230
1.0
  0
ARC
  8
6
  6
CONTINUOUS
 62
     7
  5
34A
 10
924005.235309
 20
7285637.948832
 30
0.0
 40
15.0
 50
358.1335
 51
88.1335
210
0.0
220
0.0
230
1.0
  0
ARC
  8
6
  6
CONTINUOUS
 62
     7
  5
34B
 10
923333.191753
 20
7284726.151062
 30
0.0
 40
50.0
 50
122.193217
 51
54.079086
210
0.0
220
0.0
230
1.0
  0
LINE
  8
6
  6
CONTINUOUS
 62
     7
  5
34C
 10
921600.616
 20
7286197.853
 30
0.0
 11
921804.088
 21
7286191.222
 31
0.0
  0
LINE
  8
6
  6
CONTINUOUS
 62
     7
  5
34D
 10
921602.44
 20
7286253.824
 30
0.0
 11
922045.0
 21
7286239.402
 31
0.0
  0
LINE
  8
7
  6
CONTINUOUS
 62
     7
  5
34E
 10
921550.595
 20
7286088.094
 30
0.0
 11
921553.512
 21
7286177.627
 31
0.0
  0
LINE
  8
7
  6
CONTINUOUS
 62
     7
  5
34F
 10
921615.56
 20
7286085.977
 30
0.0
 11
921619.186
 21
7286197.248
 31
0.0
  0
LINE
  8
7
  6
CONTINUOUS
 62
     7
  5
350
 10
921680.526
 20
7286083.86
 30
0.0
 11
921684.152
 21
7286195.131
 31
0.0
  0
LINE
  8
7
  6
CONTINUOUS
 62
     7
  5
351
 10
921745.491
 20
7286081.743
 30
0.0
 11
921749.117
 21
7286193.014
 31
0.0
  0
LINE
  8
7
  6
CONTINUOUS
 62
     7
  5
352
 10
921549.943
 20
7286068.105
 30
0.0
 11
921546.295
 21
7285956.165
 31
0.0
  0
LINE
  8
7
  6
CONTINUOUS
 62
     7
  5
353
 10
921614.908
 20
7286065.988
 30
0.0
 11
921611.261
 21
7285954.047
 31
0.0
  0
LINE
  8
7
  6
CONTINUOUS
 62
     7
  5
354
 10
921679.874
 20
7286063.871
 30
0.0
 11
921676.226
 21
7285951.93
 31
0.0
  0
LINE
  8
7
  6
CONTINUOUS
 62
     7
  5
355
 10
921744.839
 20
7286061.754
 30
0.0
 11
921741.192
 21
7285949.813
 31
0.0
  0
ARC
  8
6
  6
CONTINUOUS
 62
     7
  5
356
 10
921796.651127
 20
7285963.013675
 30
0.0
 40
15.0
 50
268.1335
 51
358.1335
210
0.0
220
0.0
230
1.0
  0
LINE
  8
6
  6
CONTINUOUS
 62
     7
  5
357
 10
921811.643
 20
7285962.525
 30
0.0
 11
921814.803
 21
7286059.474
 31
0.0
  0
LINE
  8
6
  6
CONTINUOUS
 62
     7
  5
358
 10
921815.454
 20
7286079.463
 30
0.0
 11
921818.591
 21
7286175.742
 31
0.0
  0
POLYLINE
  8
6
  6
CONTINUOUS
 62
     7
  5
359
 66
     1
 10
0.0
 20
0.0
 30
0.0
  0
VERTEX
  8
6
  6
CONTINUOUS
 62
     7
  5
35A
 10
921481.818
 20
7285973.274
 30
0.0
  0
VERTEX
  8
6
  6
CONTINUOUS
 62
     7
  5
35B
 10
921484.977
 20
7286070.222
 30
0.0
  0
VERTEX
  8
6
  6
CONTINUOUS
 62
     7
  5
35C
 10
921814.803
 20
7286059.474
 30
0.0
  0
SEQEND
  8
6
  6
CONTINUOUS
 62
     7
  5
35D
  0
LINE
  8
7
  6
CONTINUOUS
 62
     7
  5
35E
 10
922842.687
 20
7285578.783
 30
0.0
 11
922846.336
 21
7285690.723
 31
0.0
  0
LINE
  8
7
  6
CONTINUOUS
 62
     7
  5
35F
 10
922777.722
 20
7285580.9
 30
0.0
 11
922781.37
 21
7285692.841
 31
0.0
  0
LINE
  8
7
  6
CONTINUOUS
 62
     7
  5
360
 10
922712.756
 20
7285583.017
 30
0.0
 11
922716.405
 21
7285694.958
 31
0.0
  0
LINE
  8
7
  6
CONTINUOUS
 62
     7
  5
361
 10
922842.036
 20
7285558.794
 30
0.0
 11
922838.388
 21
7285446.853
 31
0.0
  0
LINE
  8
7
  6
CONTINUOUS
 62
     7
  5
362
 10
922777.071
 20
7285560.911
 30
0.0
 11
922773.422
 21
7285448.97
 31
0.0
  0
LINE
  8
7
  6
CONTINUOUS
 62
     7
  5
363
 10
922712.105
 20
7285563.028
 30
0.0
 11
922708.457
 21
7285451.087
 31
0.0
  0
LINE
  8
7
  6
CONTINUOUS
 62
     7
  5
364
 10
922647.14
 20
7285565.145
 30
0.0
 11
922643.491
 21
7285453.204
 31
0.0
  0
LINE
  8
7
  6
CONTINUOUS
 62
     7
  5
365
 10
922582.174
 20
7285567.262
 30
0.0
 11
922578.526
 21
7285455.321
 31
0.0
  0
LINE
  8
7
  6
CONTINUOUS
 62
     7
  5
366
 10
923038.584
 20
7285572.399
 30
0.0
 11
923042.231
 21
7285684.339
 31
0.0
  0
LINE
  8
7
  6
CONTINUOUS
 62
     7
  5
367
 10
923103.549
 20
7285570.282
 30
0.0
 11
923107.197
 21
7285682.222
 31
0.0
  0
LINE
  8
7
  6
CONTINUOUS
 62
     7
  5
368
 10
923168.515
 20
7285568.164
 30
0.0
 11
923172.162
 21
7285680.105
 31
0.0
  0
LINE
  8
7
  6
CONTINUOUS
 62
     7
  5
369
 10
923233.48
 20
7285566.047
 30
0.0
 11
923237.128
 21
7285677.988
 31
0.0
  0
LINE
  8
7
  6
CONTINUOUS
 62
     7
  5
36A
 10
923298.446
 20
7285563.93
 30
0.0
 11
923302.093
 21
7285675.871
 31
0.0
  0
LINE
  8
7
  6
CONTINUOUS
 62
     7
  5
36B
 10
923363.411
 20
7285561.813
 30
0.0
 11
923367.059
 21
7285673.754
 31
0.0
  0
LINE
  8
7
  6
CONTINUOUS
 62
     7
  5
36C
 10
923037.932
 20
7285552.409
 30
0.0
 11
923034.284
 21
7285440.469
 31
0.0
  0
LINE
  8
7
  6
CONTINUOUS
 62
     7
  5
36D
 10
923102.897
 20
7285550.292
 30
0.0
 11
923099.25
 21
7285438.352
 31
0.0
  0
LINE
  8
7
  6
CONTINUOUS
 62
     7
  5
36E
 10
923167.863
 20
7285548.175
 30
0.0
 11
923164.215
 21
7285436.235
 31
0.0
  0
LINE
  8
7
  6
CONTINUOUS
 62
     7
  5
36F
 10
923232.828
 20
7285546.058
 30
0.0
 11
923229.181
 21
7285434.117
 31
0.0
  0
LINE
  8
7
  6
CONTINUOUS
 62
     7
  5
370
 10
923297.794
 20
7285543.941
 30
0.0
 11
923294.146
 21
7285432.0
 31
0.0
  0
LINE
  8
7
  6
CONTINUOUS
 62
     7
  5
371
 10
923362.759
 20
7285541.824
 30
0.0
 11
923359.112
 21
7285429.883
 31
0.0
  0
LINE
  8
7
  6
CONTINUOUS
 62
     7
  5
372
 10
923761.329
 20
7285828.995
 30
0.0
 11
923757.68
 21
7285717.054
 31
0.0
  0
LINE
  8
7
  6
CONTINUOUS
 62
     7
  5
373
 10
923826.294
 20
7285826.877
 30
0.0
 11
923822.646
 21
7285714.937
 31
0.0
  0
LINE
  8
7
  6
CONTINUOUS
 62
     7
  5
374
 10
923956.225
 20
7285822.643
 30
0.0
 11
923952.577
 21
7285710.703
 31
0.0
  0
LINE
  8
7
  6
CONTINUOUS
 62
     7
  5
375
 10
923559.307
 20
7285555.429
 30
0.0
 11
923562.955
 21
7285667.37
 31
0.0
  0
LINE
  8
7
  6
CONTINUOUS
 62
     7
  5
376
 10
923624.273
 20
7285553.312
 30
0.0
 11
923627.92
 21
7285665.253
 31
0.0
  0
LINE
  8
7
  6
CONTINUOUS
 62
     7
  5
377
 10
923689.238
 20
7285551.195
 30
0.0
 11
923692.886
 21
7285663.136
 31
0.0
  0
LINE
  8
7
  6
CONTINUOUS
 62
     7
  5
378
 10
923754.204
 20
7285549.078
 30
0.0
 11
923757.851
 21
7285661.019
 31
0.0
  0
LINE
  8
7
  6
CONTINUOUS
 62
     7
  5
379
 10
923819.169
 20
7285546.961
 30
0.0
 11
923822.817
 21
7285658.901
 31
0.0
  0
LINE
  8
7
  6
CONTINUOUS
 62
     7
  5
37A
 10
923884.135
 20
7285544.844
 30
0.0
 11
923887.782
 21
7285656.784
 31
0.0
  0
LINE
  8
7
  6
CONTINUOUS
 62
     7
  5
37B
 10
923949.1
 20
7285542.727
 30
0.0
 11
923952.748
 21
7285654.667
 31
0.0
  0
LINE
  8
7
  6
CONTINUOUS
 62
     7
  5
37C
 10
923558.656
 20
7285535.44
 30
0.0
 11
923555.008
 21
7285423.499
 31
0.0
  0
LINE
  8
7
  6
CONTINUOUS
 62
     7
  5
37D
 10
923623.621
 20
7285533.323
 30
0.0
 11
923619.973
 21
7285421.382
 31
0.0
  0
LINE
  8
7
  6
CONTINUOUS
 62
     7
  5
37E
 10
923688.587
 20
7285531.206
 30
0.0
 11
923684.939
 21
7285419.265
 31
0.0
  0
LINE
  8
7
  6
CONTINUOUS
 62
     7
  5
37F
 10
923753.553
 20
7285529.089
 30
0.0
 11
923749.904
 21
7285417.148
 31
0.0
  0
LINE
  8
7
  6
CONTINUOUS
 62
     7
  5
380
 10
923818.518
 20
7285526.972
 30
0.0
 11
923814.87
 21
7285415.031
 31
0.0
  0
LINE
  8
7
  6
CONTINUOUS
 62
     7
  5
381
 10
923883.484
 20
7285524.854
 30
0.0
 11
923879.835
 21
7285412.914
 31
0.0
  0
LINE
  8
7
  6
CONTINUOUS
 62
     7
  5
382
 10
923948.449
 20
7285522.737
 30
0.0
 11
923945.383
 21
7285428.668
 31
0.0
  0
LINE
  8
7
  6
CONTINUOUS
 62
     7
  5
383
 10
922848.911
 20
7285278.42
 30
0.0
 11
922852.56
 21
7285390.361
 31
0.0
  0
LINE
  8
7
  6
CONTINUOUS
 62
     7
  5
384
 10
922913.877
 20
7285276.303
 30
0.0
 11
922917.525
 21
7285388.244
 31
0.0
  0
LINE
  8
7
  6
CONTINUOUS
 62
     7
  5
385
 10
922978.842
 20
7285274.186
 30
0.0
 11
922982.491
 21
7285386.127
 31
0.0
  0
LINE
  8
7
  6
CONTINUOUS
 62
     7
  5
386
 10
923043.808
 20
7285272.069
 30
0.0
 11
923047.456
 21
7285384.01
 31
0.0
  0
LINE
  8
7
  6
CONTINUOUS
 62
     7
  5
387
 10
923108.773
 20
7285269.952
 30
0.0
 11
923112.422
 21
7285381.892
 31
0.0
  0
LINE
  8
7
  6
CONTINUOUS
 62
     7
  5
388
 10
923173.739
 20
7285267.835
 30
0.0
 11
923177.387
 21
7285379.775
 31
0.0
  0
LINE
  8
7
  6
CONTINUOUS
 62
     7
  5
389
 10
923238.704
 20
7285265.718
 30
0.0
 11
923242.353
 21
7285377.658
 31
0.0
  0
LINE
  8
7
  6
CONTINUOUS
 62
     7
  5
38A
 10
923303.67
 20
7285263.6
 30
0.0
 11
923307.318
 21
7285375.541
 31
0.0
  0
LINE
  8
7
  6
CONTINUOUS
 62
     7
  5
38B
 10
923368.635
 20
7285261.483
 30
0.0
 11
923372.284
 21
7285373.424
 31
0.0
  0
LINE
  8
7
  6
CONTINUOUS
 62
     7
  5
38C
 10
923433.601
 20
7285259.366
 30
0.0
 11
923437.249
 21
7285371.307
 31
0.0
  0
LINE
  8
7
  6
CONTINUOUS
 62
     7
  5
38D
 10
923498.566
 20
7285257.249
 30
0.0
 11
923502.215
 21
7285369.19
 31
0.0
  0
LINE
  8
7
  6
CONTINUOUS
 62
     7
  5
38E
 10
923563.532
 20
7285255.132
 30
0.0
 11
923567.18
 21
7285367.073
 31
0.0
  0
LINE
  8
7
  6
CONTINUOUS
 62
     7
  5
38F
 10
923628.497
 20
7285253.015
 30
0.0
 11
923632.146
 21
7285364.956
 31
0.0
  0
LINE
  8
7
  6
CONTINUOUS
 62
     7
  5
390
 10
923693.463
 20
7285250.898
 30
0.0
 11
923697.111
 21
7285362.839
 31
0.0
  0
LINE
  8
7
  6
CONTINUOUS
 62
     7
  5
391
 10
923753.431
 20
7285248.944
 30
0.0
 11
923757.08
 21
7285360.885
 31
0.0
  0
LINE
  8
7
  6
CONTINUOUS
 62
     7
  5
392
 10
923813.4
 20
7285246.99
 30
0.0
 11
923817.047
 21
7285358.931
 31
0.0
  0
LINE
  8
7
  6
CONTINUOUS
 62
     7
  5
393
 10
923874.367
 20
7285245.003
 30
0.0
 11
923878.015
 21
7285356.944
 31
0.0
  0
LINE
  8
7
  6
CONTINUOUS
 62
     7
  5
394
 10
923939.333
 20
7285242.886
 30
0.0
 11
923942.401
 21
7285337.04
 31
0.0
  0
LINE
  8
7
  6
CONTINUOUS
 62
     7
  5
395
 10
922661.012
 20
7285284.544
 30
0.0
 11
922664.659
 21
7285396.484
 31
0.0
  0
LINE
  8
7
  6
CONTINUOUS
 62
     7
  5
396
 10
922601.043
 20
7285286.498
 30
0.0
 11
922604.692
 21
7285398.438
 31
0.0
  0
LINE
  8
7
  6
CONTINUOUS
 62
     7
  5
397
 10
922541.075
 20
7285288.453
 30
0.0
 11
922544.723
 21
7285400.392
 31
0.0
  0
LINE
  8
7
  6
CONTINUOUS
 62
     7
  5
398
 10
922591.048
 20
7285286.824
 30
0.0
 11
922541.075
 21
7285288.453
 31
0.0
  0
LINE
  8
7
  6
CONTINUOUS
 62
     7
  5
399
 10
922590.397
 20
7285266.835
 30
0.0
 11
922478.466
 21
7285270.482
 31
0.0
  0
LINE
  8
7
  6
CONTINUOUS
 62
     7
  5
39A
 10
922588.397
 20
7285205.457
 30
0.0
 11
922476.466
 21
7285209.105
 31
0.0
  0
LINE
  8
7
  6
CONTINUOUS
 62
     7
  5
39B
 10
922586.443
 20
7285145.489
 30
0.0
 11
922474.512
 21
7285149.136
 31
0.0
  0
LINE
  8
7
  6
CONTINUOUS
 62
     7
  5
39C
 10
922584.489
 20
7285085.52
 30
0.0
 11
922472.558
 21
7285089.168
 31
0.0
  0
LINE
  8
7
  6
CONTINUOUS
 62
     7
  5
39D
 10
922582.534
 20
7285025.553
 30
0.0
 11
922470.604
 21
7285029.2
 31
0.0
  0
LINE
  8
7
  6
CONTINUOUS
 62
     7
  5
39E
 10
922580.58
 20
7284965.584
 30
0.0
 11
922468.649
 21
7284969.232
 31
0.0
  0
LINE
  8
7
  6
CONTINUOUS
 62
     7
  5
39F
 10
922578.463
 20
7284900.619
 30
0.0
 11
922466.532
 21
7284904.266
 31
0.0
  0
LINE
  8
7
  6
CONTINUOUS
 62
     7
  5
3A0
 10
922576.346
 20
7284835.653
 30
0.0
 11
922464.415
 21
7284839.301
 31
0.0
  0
LINE
  8
7
  6
CONTINUOUS
 62
     7
  5
3A1
 10
922574.229
 20
7284770.688
 30
0.0
 11
922462.298
 21
7284774.335
 31
0.0
  0
LINE
  8
7
  6
CONTINUOUS
 62
     7
  5
3A2
 10
922720.327
 20
7285201.158
 30
0.0
 11
922608.386
 21
7285204.805
 31
0.0
  0
LINE
  8
7
  6
CONTINUOUS
 62
     7
  5
3A3
 10
922718.373
 20
7285141.189
 30
0.0
 11
922606.432
 21
7285144.838
 31
0.0
  0
LINE
  8
7
  6
CONTINUOUS
 62
     7
  5
3A4
 10
922716.419
 20
7285081.222
 30
0.0
 11
922604.478
 21
7285084.869
 31
0.0
  0
LINE
  8
7
  6
CONTINUOUS
 62
     7
  5
3A5
 10
922714.464
 20
7285021.253
 30
0.0
 11
922602.524
 21
7285024.901
 31
0.0
  0
LINE
  8
7
  6
CONTINUOUS
 62
     7
  5
3A6
 10
922712.51
 20
7284961.285
 30
0.0
 11
922600.569
 21
7284964.933
 31
0.0
  0
LINE
  8
7
  6
CONTINUOUS
 62
     7
  5
3A7
 10
922710.393
 20
7284896.319
 30
0.0
 11
922598.452
 21
7284899.968
 31
0.0
  0
LINE
  8
7
  6
CONTINUOUS
 62
     7
  5
3A8
 10
922708.276
 20
7284831.354
 30
0.0
 11
922596.335
 21
7284835.002
 31
0.0
  0
LINE
  8
7
  6
CONTINUOUS
 62
     7
  5
3A9
 10
922688.104
 20
7284766.977
 30
0.0
 11
922594.218
 21
7284770.037
 31
0.0
  0
LINE
  8
7
  6
CONTINUOUS
 62
     7
  5
3AA
 10
922954.729
 20
7285086.872
 30
0.0
 11
922951.035
 21
7284973.532
 31
0.0
  0
LINE
  8
7
  6
CONTINUOUS
 62
     7
  5
3AB
 10
922894.761
 20
7285088.827
 30
0.0
 11
922891.067
 21
7284975.487
 31
0.0
  0
LINE
  8
7
  6
CONTINUOUS
 62
     7
  5
3AC
 10
922834.792
 20
7285090.781
 30
0.0
 11
922831.099
 21
7284977.441
 31
0.0
  0
LINE
  8
7
  6
CONTINUOUS
 62
     7
  5
3AD
 10
922881.073
 20
7284975.812
 30
0.0
 11
922831.099
 21
7284977.441
 31
0.0
  0
LINE
  8
7
  6
CONTINUOUS
 62
     7
  5
3AE
 10
922880.422
 20
7284955.823
 30
0.0
 11
922768.481
 21
7284959.471
 31
0.0
  0
LINE
  8
7
  6
CONTINUOUS
 62
     7
  5
3AF
 10
922878.304
 20
7284890.858
 30
0.0
 11
922766.364
 21
7284894.505
 31
0.0
  0
LINE
  8
7
  6
CONTINUOUS
 62
     7
  5
3B0
 10
922876.187
 20
7284825.892
 30
0.0
 11
922764.247
 21
7284829.539
 31
0.0
  0
LINE
  8
7
  6
CONTINUOUS
 62
     7
  5
3B1
 10
922874.07
 20
7284760.927
 30
0.0
 11
922780.18
 21
7284763.986
 31
0.0
  0
LINE
  8
7
  6
CONTINUOUS
 62
     7
  5
3B2
 10
922898.294
 20
7284890.206
 30
0.0
 11
923010.235
 21
7284886.558
 31
0.0
  0
LINE
  8
7
  6
CONTINUOUS
 62
     7
  5
3B3
 10
922896.177
 20
7284825.241
 30
0.0
 11
923008.118
 21
7284821.593
 31
0.0
  0
LINE
  8
7
  6
CONTINUOUS
 62
     7
  5
3B4
 10
922894.059
 20
7284760.275
 30
0.0
 11
923006.001
 21
7284756.627
 31
0.0
  0
LINE
  8
7
  6
CONTINUOUS
 62
     7
  5
3B5
 10
923134.634
 20
7285081.01
 30
0.0
 11
923130.94
 21
7284967.67
 31
0.0
  0
LINE
  8
7
  6
CONTINUOUS
 62
     7
  5
3B6
 10
923250.886
 20
7284963.758
 30
0.0
 11
923254.575
 21
7285077.101
 31
0.0
  0
LINE
  8
7
  6
CONTINUOUS
 62
     7
  5
3B7
 10
923190.918
 20
7284965.711
 30
0.0
 11
923194.606
 21
7285079.055
 31
0.0
  0
LINE
  8
7
  6
CONTINUOUS
 62
     7
  5
3B8
 10
923066.205
 20
7284884.734
 30
0.0
 11
923178.146
 21
7284881.086
 31
0.0
  0
LINE
  8
7
  6
CONTINUOUS
 62
     7
  5
3B9
 10
923064.088
 20
7284819.768
 30
0.0
 11
923176.029
 21
7284816.121
 31
0.0
  0
LINE
  8
7
  6
CONTINUOUS
 62
     7
  5
3BA
 10
923061.971
 20
7284754.803
 30
0.0
 11
923173.912
 21
7284751.155
 31
0.0
  0
LINE
  8
7
  6
CONTINUOUS
 62
     7
  5
3BB
 10
923198.137
 20
7284880.434
 30
0.0
 11
923310.076
 21
7284876.787
 31
0.0
  0
LINE
  8
7
  6
CONTINUOUS
 62
     7
  5
3BC
 10
923196.023
 20
7284815.469
 30
0.0
 11
923307.959
 21
7284811.821
 31
0.0
  0
LINE
  8
7
  6
CONTINUOUS
 62
     7
  5
3BD
 10
923193.908
 20
7284750.503
 30
0.0
 11
923287.95
 21
7284747.439
 31
0.0
  0
LINE
  8
7
  6
CONTINUOUS
 62
     7
  5
3BE
 10
923366.055
 20
7284874.963
 30
0.0
 11
923477.995
 21
7284871.315
 31
0.0
  0
LINE
  8
7
  6
CONTINUOUS
 62
     7
  5
3BF
 10
923363.938
 20
7284809.997
 30
0.0
 11
923475.878
 21
7284806.35
 31
0.0
  0
LINE
  8
7
  6
CONTINUOUS
 62
     7
  5
3C0
 10
923379.724
 20
7284744.448
 30
0.0
 11
923473.761
 21
7284741.384
 31
0.0
  0
LINE
  8
7
  6
CONTINUOUS
 62
     7
  5
3C1
 10
923430.791
 20
7284957.899
 30
0.0
 11
923434.439
 21
7285069.838
 31
0.0
  0
LINE
  8
7
  6
CONTINUOUS
 62
     7
  5
3C2
 10
923490.759
 20
7284955.944
 30
0.0
 11
923494.407
 21
7285067.884
 31
0.0
  0
LINE
  8
7
  6
CONTINUOUS
 62
     7
  5
3C3
 10
923550.727
 20
7284953.99
 30
0.0
 11
923554.375
 21
7285065.93
 31
0.0
  0
LINE
  8
7
  6
CONTINUOUS
 62
     7
  5
3C4
 10
923500.754
 20
7284955.618
 30
0.0
 11
923550.727
 21
7284953.99
 31
0.0
  0
LINE
  8
7
  6
CONTINUOUS
 62
     7
  5
3C5
 10
923500.103
 20
7284935.629
 30
0.0
 11
923612.042
 21
7284931.981
 31
0.0
  0
LINE
  8
7
  6
CONTINUOUS
 62
     7
  5
3C6
 10
923497.986
 20
7284870.663
 30
0.0
 11
923609.925
 21
7284867.016
 31
0.0
  0
LINE
  8
7
  6
CONTINUOUS
 62
     7
  5
3C7
 10
923495.868
 20
7284805.698
 30
0.0
 11
923607.808
 21
7284802.05
 31
0.0
  0
LINE
  8
7
  6
CONTINUOUS
 62
     7
  5
3C8
 10
923493.751
 20
7284740.732
 30
0.0
 11
923605.691
 21
7284737.085
 31
0.0
  0
LINE
  8
7
  6
CONTINUOUS
 62
     7
  5
3C9
 10
923933.209
 20
7285054.985
 30
0.0
 11
923929.516
 21
7284941.645
 31
0.0
  0
LINE
  8
7
  6
CONTINUOUS
 62
     7
  5
3CA
 10
923868.244
 20
7285057.102
 30
0.0
 11
923864.551
 21
7284943.762
 31
0.0
  0
LINE
  8
7
  6
CONTINUOUS
 62
     7
  5
3CB
 10
923807.276
 20
7285059.089
 30
0.0
 11
923803.583
 21
7284945.749
 31
0.0
  0
LINE
  8
7
  6
CONTINUOUS
 62
     7
  5
3CC
 10
923780.595
 20
7284946.499
 30
0.0
 11
923738.618
 21
7284947.866
 31
0.0
  0
LINE
  8
7
  6
CONTINUOUS
 62
     7
  5
3CD
 10
923779.944
 20
7284926.509
 30
0.0
 11
923668.003
 21
7284930.157
 31
0.0
  0
LINE
  8
7
  6
CONTINUOUS
 62
     7
  5
3CE
 10
923777.827
 20
7284861.544
 30
0.0
 11
923665.886
 21
7284865.191
 31
0.0
  0
LINE
  8
7
  6
CONTINUOUS
 62
     7
  5
3CF
 10
923775.71
 20
7284796.578
 30
0.0
 11
923663.769
 21
7284800.226
 31
0.0
  0
LINE
  8
7
  6
CONTINUOUS
 62
     7
  5
3D0
 10
923773.593
 20
7284731.613
 30
0.0
 11
923661.652
 21
7284735.26
 31
0.0
  0
LINE
  8
7
  6
CONTINUOUS
 62
     7
  5
3D1
 10
922848.26
 20
7285258.431
 30
0.0
 11
922844.613
 21
7285146.49
 31
0.0
  0
LINE
  8
7
  6
CONTINUOUS
 62
     7
  5
3D2
 10
922913.226
 20
7285256.314
 30
0.0
 11
922909.578
 21
7285144.373
 31
0.0
  0
LINE
  8
7
  6
CONTINUOUS
 62
     7
  5
3D3
 10
922978.191
 20
7285254.197
 30
0.0
 11
922974.544
 21
7285142.256
 31
0.0
  0
LINE
  8
7
  6
CONTINUOUS
 62
     7
  5
3D4
 10
923043.157
 20
7285252.08
 30
0.0
 11
923039.509
 21
7285140.139
 31
0.0
  0
LINE
  8
7
  6
CONTINUOUS
 62
     7
  5
3D5
 10
923108.122
 20
7285249.963
 30
0.0
 11
923104.475
 21
7285138.022
 31
0.0
  0
LINE
  8
7
  6
CONTINUOUS
 62
     7
  5
3D6
 10
923173.088
 20
7285247.845
 30
0.0
 11
923169.44
 21
7285135.905
 31
0.0
  0
LINE
  8
7
  6
CONTINUOUS
 62
     7
  5
3D7
 10
923238.053
 20
7285245.728
 30
0.0
 11
923234.406
 21
7285133.788
 31
0.0
  0
LINE
  8
7
  6
CONTINUOUS
 62
     7
  5
3D8
 10
923303.019
 20
7285243.611
 30
0.0
 11
923299.371
 21
7285131.671
 31
0.0
  0
LINE
  8
7
  6
CONTINUOUS
 62
     7
  5
3D9
 10
923367.984
 20
7285241.494
 30
0.0
 11
923364.337
 21
7285129.554
 31
0.0
  0
LINE
  8
7
  6
CONTINUOUS
 62
     7
  5
3DA
 10
923432.95
 20
7285239.377
 30
0.0
 11
923429.302
 21
7285127.436
 31
0.0
  0
LINE
  8
7
  6
CONTINUOUS
 62
     7
  5
3DB
 10
923497.915
 20
7285237.26
 30
0.0
 11
923494.268
 21
7285125.319
 31
0.0
  0
LINE
  8
7
  6
CONTINUOUS
 62
     7
  5
3DC
 10
923562.881
 20
7285235.143
 30
0.0
 11
923559.233
 21
7285123.202
 31
0.0
  0
LINE
  8
7
  6
CONTINUOUS
 62
     7
  5
3DD
 10
923627.846
 20
7285233.026
 30
0.0
 11
923624.199
 21
7285121.085
 31
0.0
  0
LINE
  8
7
  6
CONTINUOUS
 62
     7
  5
3DE
 10
923692.812
 20
7285230.909
 30
0.0
 11
923689.164
 21
7285118.968
 31
0.0
  0
LINE
  8
7
  6
CONTINUOUS
 62
     7
  5
3DF
 10
923752.78
 20
7285228.955
 30
0.0
 11
923749.132
 21
7285117.014
 31
0.0
  0
LINE
  8
7
  6
CONTINUOUS
 62
     7
  5
3E0
 10
923812.748
 20
7285227.001
 30
0.0
 11
923809.1
 21
7285115.06
 31
0.0
  0
LINE
  8
7
  6
CONTINUOUS
 62
     7
  5
3E1
 10
923873.716
 20
7285225.014
 30
0.0
 11
923870.068
 21
7285113.073
 31
0.0
  0
LINE
  8
7
  6
CONTINUOUS
 62
     7
  5
3E2
 10
923938.682
 20
7285222.897
 30
0.0
 11
923935.033
 21
7285110.956
 31
0.0
  0
LINE
  8
6
  6
CONTINUOUS
 62
     7
  5
3E3
 10
922571.966
 20
7284701.269
 30
0.0
 11
922591.048
 21
7285286.824
 31
0.0
  0
LINE
  8
7
  6
CONTINUOUS
 62
     7
  5
3E4
 10
923565.432
 20
7285835.379
 30
0.0
 11
923561.785
 21
7285723.438
 31
0.0
  0
LINE
  8
7
  6
CONTINUOUS
 62
     7
  5
3E5
 10
923500.467
 20
7285837.496
 30
0.0
 11
923496.819
 21
7285725.555
 31
0.0
  0
LINE
  8
7
  6
CONTINUOUS
 62
     7
  5
3E6
 10
923430.504
 20
7285839.775
 30
0.0
 11
923426.856
 21
7285727.835
 31
0.0
  0
LINE
  8
7
  6
CONTINUOUS
 62
     7
  5
3E7
 10
923365.539
 20
7285841.893
 30
0.0
 11
923361.89
 21
7285729.952
 31
0.0
  0
LINE
  8
7
  6
CONTINUOUS
 62
     7
  5
3E8
 10
923295.576
 20
7285844.172
 30
0.0
 11
923291.928
 21
7285732.231
 31
0.0
  0
LINE
  8
7
  6
CONTINUOUS
 62
     7
  5
3E9
 10
923230.61
 20
7285846.289
 30
0.0
 11
923226.962
 21
7285734.349
 31
0.0
  0
LINE
  8
7
  6
CONTINUOUS
 62
     7
  5
3EA
 10
923160.647
 20
7285848.569
 30
0.0
 11
923156.999
 21
7285736.629
 31
0.0
  0
LINE
  8
7
  6
CONTINUOUS
 62
     7
  5
3EB
 10
923095.681
 20
7285850.687
 30
0.0
 11
923092.034
 21
7285738.746
 31
0.0
  0
LINE
  8
7
  6
CONTINUOUS
 62
     7
  5
3EC
 10
923025.719
 20
7285852.967
 30
0.0
 11
923022.071
 21
7285741.026
 31
0.0
  0
LINE
  8
7
  6
CONTINUOUS
 62
     7
  5
3ED
 10
922960.753
 20
7285855.084
 30
0.0
 11
922957.106
 21
7285743.143
 31
0.0
  0
LINE
  8
7
  6
CONTINUOUS
 62
     7
  5
3EE
 10
922890.791
 20
7285857.364
 30
0.0
 11
922887.142
 21
7285745.423
 31
0.0
  0
LINE
  8
7
  6
CONTINUOUS
 62
     7
  5
3EF
 10
922825.825
 20
7285859.481
 30
0.0
 11
922822.177
 21
7285747.54
 31
0.0
  0
LINE
  8
7
  6
CONTINUOUS
 62
     7
  5
3F0
 10
922756.502
 20
7285861.74
 30
0.0
 11
922752.854
 21
7285749.8
 31
0.0
  0
LINE
  8
7
  6
CONTINUOUS
 62
     7
  5
3F1
 10
922684.311
 20
7285752.033
 30
0.0
 11
922701.531
 21
7285863.531
 31
0.0
  0
LINE
  8
6
  6
CONTINUOUS
 62
     7
  5
3F2
 10
923674.368
 20
7284664.862
 30
0.0
 11
923771.313
 21
7284661.66
 31
0.0
  0
ARC
  8
6
  6
CONTINUOUS
 62
     7
  5
3F3
 10
923674.864087
 20
7284679.85358
 30
0.0
 40
15.0
 50
178.1335
 51
268.108386
210
0.0
220
0.0
230
1.0
  0
LINE
  8
6
  6
CONTINUOUS
 62
     7
  5
3F4
 10
923491.476
 20
7284670.902
 30
0.0
 11
923588.416
 21
7284667.701
 31
0.0
  0
ARC
  8
6
  6
CONTINUOUS
 62
     7
  5
3F5
 10
923588.910955
 20
7284682.692686
 30
0.0
 40
15.0
 50
268.1085
 51
358.1335
210
0.0
220
0.0
230
1.0
  0
LINE
  8
6
  6
CONTINUOUS
 62
     7
  5
3F6
 10
923191.639
 20
7284680.805
 30
0.0
 11
923471.487
 21
7284671.562
 31
0.0
  0
LINE
  8
6
  6
CONTINUOUS
 62
     7
  5
3F7
 10
923074.696
 20
7284684.667
 30
0.0
 11
923171.65
 21
7284681.465
 31
0.0
  0
ARC
  8
6
  6
CONTINUOUS
 62
     7
  5
3F8
 10
923075.191086
 20
7284699.658689
 30
0.0
 40
15.0
 50
178.135267
 51
268.110092
210
0.0
220
0.0
230
1.0
  0
LINE
  8
6
  6
CONTINUOUS
 62
     7
  5
3F9
 10
922891.792
 20
7284690.706
 30
0.0
 11
922988.744
 21
7284687.505
 31
0.0
  0
ARC
  8
6
  6
CONTINUOUS
 62
     7
  5
3FA
 10
922989.237956
 20
7284702.496068
 30
0.0
 40
15.0
 50
268.110581
 51
358.135008
210
0.0
220
0.0
230
1.0
  0
LINE
  8
6
  6
CONTINUOUS
 62
     7
  5
3FB
 10
922591.955
 20
7284700.608
 30
0.0
 11
922871.803
 21
7284691.367
 31
0.0
  0
LINE
  8
6
  6
CONTINUOUS
 62
     7
  5
3FC
 10
922591.955
 20
7284700.608
 30
0.0
 11
922610.061
 21
7285256.189
 31
0.0
  0
ARC
  8
6
  6
CONTINUOUS
 62
     7
  5
3FD
 10
922475.517858
 20
7284719.462906
 30
0.0
 40
15.0
 50
178.1335
 51
268.110244
210
0.0
220
0.0
230
1.0
  0
LINE
  8
6
  6
CONTINUOUS
 62
     7
  5
3FE
 10
923799.933
 20
7284925.858
 30
0.0
 11
923791.302
 21
7284660.999
 31
0.0
  0
LINE
  8
6
  6
CONTINUOUS
 62
     7
  5
3FF
 10
924028.812
 20
7284918.399
 30
0.0
 11
923799.933
 21
7284925.858
 31
0.0
  0
LINE
  8
6
  6
CONTINUOUS
 62
     7
  5
400
 10
924020.18
 20
7284653.541
 30
0.0
 11
923791.302
 21
7284660.999
 31
0.0
  0
LINE
  8
6
  6
CONTINUOUS
 62
     7
  5
401
 10
924058.822
 20
7285839.31
 30
0.0
 11
924020.051
 21
7284649.567
 31
0.0
  0
LINE
  8
7
  6
CONTINUOUS
 62
     7
  5
402
 10
923742.311
 20
7285061.206
 30
0.0
 11
923738.618
 21
7284947.866
 31
0.0
  0
ARC
  8
6
  6
CONTINUOUS
 62
     7
  5
403
 10
923963.853655
 20
7285382.20462
 30
0.0
 40
50.0
 50
212.249686
 51
144.138047
210
0.0
220
0.0
230
1.0
  0
LINE
  8
6
  6
CONTINUOUS
 62
     7
  5
404
 10
922366.622
 20
7285478.981
 30
0.0
 11
922236.958
 21
7285617.38
 31
0.0
  0
LINE
  8
7
  6
CONTINUOUS
 62
     7
  5
405
 10
921490.167
 20
7286229.467
 30
0.0
 11
921510.156
 21
7286228.816
 31
0.0
  0
ARC
  8
6
  6
CONTINUOUS
 62
     7
  5
406
 10
921560.125364
 20
7286227.187673
 30
0.0
 40
50.0
 50
32.189297
 51
324.077703
210
0.0
220
0.0
230
1.0
  0
LINE
  8
6
  6
CONTINUOUS
 62
     7
  5
407
 10
921882.117
 20
7285945.22
 30
0.0
 11
921908.263
 21
7285944.369
 31
0.0
  0
LINE
  8
6
  6
CONTINUOUS
 62
     7
  5
408
 10
921867.613
 20
7285960.701
 30
0.0
 11
921870.772
 21
7286057.65
 31
0.0
  0
LINE
  8
6
  6
CONTINUOUS
 62
     7
  5
409
 10
921871.424
 20
7286077.639
 30
0.0
 11
921874.562
 21
7286173.918
 31
0.0
  0
ARC
  8
6
  6
CONTINUOUS
 62
     7
  5
40A
 10
921882.605498
 20
7285960.212585
 30
0.0
 40
15.0
 50
178.1335
 51
268.1335
210
0.0
220
0.0
230
1.0
  0
LINE
  8
6
  6
CONTINUOUS
 62
     7
  5
40B
 10
921870.772
 20
7286057.65
 30
0.0
 11
922066.137
 21
7286051.283
 31
0.0
  0
LINE
  8
7
  6
CONTINUOUS
 62
     7
  5
40C
 10
922492.278
 20
7285596.432
 30
0.0
 11
922410.545
 21
7285519.857
 31
0.0
  0
LINE
  8
7
  6
CONTINUOUS
 62
     7
  5
40D
 10
922447.838
 20
7285643.866
 30
0.0
 11
922366.104
 21
7285567.293
 31
0.0
  0
LINE
  8
7
  6
CONTINUOUS
 62
     7
  5
40E
 10
922403.399
 20
7285691.301
 30
0.0
 11
922321.663
 21
7285614.727
 31
0.0
  0
LINE
  8
7
  6
CONTINUOUS
 62
     7
  5
40F
 10
922358.958
 20
7285738.735
 30
0.0
 11
922277.223
 21
7285662.162
 31
0.0
  0
LINE
  8
7
  6
CONTINUOUS
 62
     7
  5
410
 10
922314.517
 20
7285786.17
 30
0.0
 11
922232.782
 21
7285709.596
 31
0.0
  0
LINE
  8
7
  6
CONTINUOUS
 62
     7
  5
411
 10
922270.077
 20
7285833.604
 30
0.0
 11
922188.342
 21
7285757.031
 31
0.0
  0
LINE
  8
7
  6
CONTINUOUS
 62
     7
  5
412
 10
922225.636
 20
7285881.039
 30
0.0
 11
922143.902
 21
7285804.465
 31
0.0
  0
LINE
  8
7
  6
CONTINUOUS
 62
     7
  5
413
 10
922180.688
 20
7285929.014
 30
0.0
 11
922098.956
 21
7285852.439
 31
0.0
  0
LINE
  8
6
  6
CONTINUOUS
 62
     7
  5
414
 10
921871.424
 20
7286077.639
 30
0.0
 11
922075.07
 21
7286071.003
 31
0.0
  0
LINE
  8
6
  6
CONTINUOUS
 62
     7
  5
415
 10
921890.042
 20
7286188.421
 30
0.0
 11
922042.711
 21
7286183.446
 31
0.0
  0
ARC
  8
6
  6
CONTINUOUS
 62
     7
  5
416
 10
921889.553828
 20
7286173.429399
 30
0.0
 40
15.0
 50
88.1335
 51
178.1335
210
0.0
220
0.0
230
1.0
  0
LINE
  8
7
  6
CONTINUOUS
 62
     7
  5
417
 10
921941.387
 20
7286075.359
 30
0.0
 11
921945.014
 21
7286186.63
 31
0.0
  0
LINE
  8
7
  6
CONTINUOUS
 62
     7
  5
418
 10
922006.353
 20
7286073.242
 30
0.0
 11
922009.979
 21
7286184.513
 31
0.0
  0
LINE
  8
6
  6
CONTINUOUS
 62
     7
  5
419
 10
921494.727
 20
7286369.393
 30
0.0
 11
922200.756
 21
7286346.385
 31
0.0
  0
LINE
  8
6
  6
CONTINUOUS
 62
     7
  5
41A
 10
921495.379
 20
7286389.382
 30
0.0
 11
922209.69
 21
7286366.104
 31
0.0
  0
LINE
  8
6
  6
CONTINUOUS
 62
     7
  5
41B
 10
922446.766
 20
7286083.801
 30
0.0
 11
922375.978
 21
7286017.481
 31
0.0
  0
LINE
  8
6
  6
CONTINUOUS
 62
     7
  5
41C
 10
922485.052
 20
7286042.935
 30
0.0
 11
922414.266
 21
7285976.616
 31
0.0
  0
LINE
  8
7
  6
CONTINUOUS
 62
     7
  5
41D
 10
922532.911
 20
7285991.853
 30
0.0
 11
922451.178
 21
7285915.276
 31
0.0
  0
LINE
  8
7
  6
CONTINUOUS
 62
     7
  5
41E
 10
922577.351
 20
7285944.418
 30
0.0
 11
922495.619
 21
7285867.842
 31
0.0
  0
LINE
  8
7
  6
CONTINUOUS
 62
     7
  5
41F
 10
922621.792
 20
7285896.983
 30
0.0
 11
922540.06
 21
7285820.407
 31
0.0
  0
LINE
  8
7
  6
CONTINUOUS
 62
     7
  5
420
 10
921950.99
 20
7286055.035
 30
0.0
 11
921935.307
 21
7285942.093
 31
0.0
  0
LINE
  8
7
  6
CONTINUOUS
 62
     7
  5
421
 10
922039.933
 20
7286052.137
 30
0.0
 11
921992.342
 21
7285927.554
 31
0.0
  0
LINE
  8
7
  6
CONTINUOUS
 62
     7
  5
422
 10
922044.636
 20
7285900.565
 30
0.0
 11
922112.223
 21
7286002.092
 31
0.0
  0
LINE
  8
6
  6
CONTINUOUS
 62
     7
  5
423
 10
921441.582
 20
7284738.597
 30
0.0
 11
922385.072
 21
7284707.441
 31
0.0
  0
LINE
  8
6
  6
CONTINUOUS
 62
     7
  5
424
 10
922475.023
 20
7284704.47
 30
0.0
 11
922571.966
 21
7284701.269
 31
0.0
  0
ARC
  8
6
  6
CONTINUOUS
 62
     7
  5
425
 10
922385.566873
 20
7284722.433037
 30
0.0
 40
15.0
 50
268.107658
 51
358.1335
210
0.0
220
0.0
230
1.0
  0
ARC
  8
6
  6
CONTINUOUS
 62
     7
  5
426
 10
921900.01402
 20
7285684.499411
 30
0.0
 40
200.0
 50
43.219667
 51
88.196378
210
0.0
220
0.0
230
1.0
  0
ARC
  8
6
  6
CONTINUOUS
 62
     7
  5
427
 10
922220.667086
 20
7285342.24277
 30
0.0
 40
260.0
 50
28.657914
 51
43.132453
210
0.0
220
0.0
230
1.0
  0
LINE
  8
6
  6
CONTINUOUS
 62
     7
  5
428
 10
922410.409
 20
7285520.003
 30
0.0
 11
922089.485
 21
7285862.547
 31
0.0
  0
ARC
  8
6
  6
CONTINUOUS
 62
     7
  5
429
 10
921900.01402
 20
7285684.499411
 30
0.0
 40
260.0
 50
43.219667
 51
88.196378
210
0.0
220
0.0
230
1.0
  0
ARC
  8
6
  6
CONTINUOUS
 62
     7
  5
42A
 10
922461.979222
 20
7285474.127012
 30
0.0
 40
15.0
 50
208.657914
 51
268.1335
210
0.0
220
0.0
230
1.0
  0
LINE
  8
6
  6
CONTINUOUS
 62
     7
  5
42B
 10
922517.638
 20
7285569.365
 30
0.0
 11
922066.137
 21
7286051.283
 31
0.0
  0
LINE
  8
6
  6
CONTINUOUS
 62
     7
  5
42C
 10
922526.57
 20
7285589.084
 30
0.0
 11
922075.07
 21
7286071.003
 31
0.0
  0
LINE
  8
6
  6
CONTINUOUS
 62
     7
  5
42D
 10
922504.252
 20
7285776.721
 30
0.0
 11
922182.367
 21
7286120.291
 31
0.0
  0
LINE
  8
7
  6
CONTINUOUS
 62
     7
  5
42E
 10
922209.715
 20
7286091.102
 30
0.0
 11
922127.982
 21
7286014.527
 31
0.0
  0
LINE
  8
7
  6
CONTINUOUS
 62
     7
  5
42F
 10
922254.156
 20
7286043.668
 30
0.0
 11
922172.423
 21
7285967.094
 31
0.0
  0
LINE
  8
7
  6
CONTINUOUS
 62
     7
  5
430
 10
922298.597
 20
7285996.234
 30
0.0
 11
922216.863
 21
7285919.659
 31
0.0
  0
LINE
  8
7
  6
CONTINUOUS
 62
     7
  5
431
 10
922343.037
 20
7285948.799
 30
0.0
 11
922261.304
 21
7285872.225
 31
0.0
  0
LINE
  8
7
  6
CONTINUOUS
 62
     7
  5
432
 10
922387.478
 20
7285901.364
 30
0.0
 11
922305.744
 21
7285824.79
 31
0.0
  0
LINE
  8
7
  6
CONTINUOUS
 62
     7
  5
433
 10
922431.919
 20
7285853.93
 30
0.0
 11
922350.184
 21
7285777.356
 31
0.0
  0
LINE
  8
7
  6
CONTINUOUS
 62
     7
  5
434
 10
922476.359
 20
7285806.495
 30
0.0
 11
922394.625
 21
7285729.921
 31
0.0
  0
ARC
  8
6
  6
CONTINUOUS
 62
     7
  5
435
 10
922036.420233
 20
7285983.545219
 30
0.0
 40
200.0
 50
43.135736
 51
88.197431
210
0.0
220
0.0
230
1.0
  0
LINE
  8
7
  6
CONTINUOUS
 62
     7
  5
436
 10
922525.437
 20
7285756.553
 30
0.0
 11
922442.485
 21
7285678.837
 31
0.0
  0
ARC
  8
6
  6
CONTINUOUS
 62
     7
  5
437
 10
922690.604085
 20
7285951.257124
 30
0.0
 40
255.323556
 50
223.124756
 51
268.183864
210
0.0
220
0.0
230
1.0
  0
LINE
  8
7
  6
CONTINUOUS
 62
     7
  5
438
 10
922647.791
 20
7285585.134
 30
0.0
 11
922646.523
 21
7285699.768
 31
0.0
  0
LINE
  8
7
  6
CONTINUOUS
 62
     7
  5
439
 10
922526.57
 20
7285589.084
 30
0.0
 11
922582.068
 21
7285720.15
 31
0.0
  0
ARC
  8
6
  6
CONTINUOUS
 62
     7
  5
43A
 10
922036.420233
 20
7285983.545219
 30
0.0
 40
256.0
 50
43.135736
 51
88.197431
210
0.0
220
0.0
230
1.0
  0
LINE
  8
6
  6
CONTINUOUS
 62
     7
  5
43B
 10
922660.542
 20
7285884.878
 30
0.0
 11
922209.69
 21
7286366.104
 31
0.0
  0
LINE
  8
6
  6
CONTINUOUS
 62
     7
  5
43C
 10
922545.222
 20
7285814.898
 30
0.0
 11
922413.575
 21
7285955.414
 31
0.0
  0
LINE
  8
6
  6
CONTINUOUS
 62
     7
  5
43D
 10
922354.777
 20
7286018.174
 30
0.0
 11
922223.235
 21
7286158.578
 31
0.0
  0
ARC
  8
6
  6
CONTINUOUS
 62
     7
  5
43E
 10
922365.723521
 20
7286028.428593
 30
0.0
 40
15.0
 50
223.1335
 51
313.131639
210
0.0
220
0.0
230
1.0
  0
ARC
  8
6
  6
CONTINUOUS
 62
     7
  5
43F
 10
922424.520997
 20
7285965.66983
 30
0.0
 40
15.0
 50
133.133783
 51
223.1335
210
0.0
220
0.0
230
1.0
  0
LINE
  8
6
  6
CONTINUOUS
 62
     7
  5
440
 10
922651.609
 20
7285865.158
 30
0.0
 11
922485.052
 21
7286042.935
 31
0.0
  0
LINE
  8
6
  6
CONTINUOUS
 62
     7
  5
441
 10
922446.766
 20
7286083.801
 30
0.0
 11
922200.756
 21
7286346.385
 31
0.0
  0
ARC
  8
6
  6
CONTINUOUS
 62
     7
  5
442
 10
922690.604085
 20
7285951.257124
 30
0.0
 40
199.323556
 50
223.165772
 51
268.183864
210
0.0
220
0.0
230
1.0
  0
LINE
  8
7
  6
CONTINUOUS
 62
     7
  5
443
 10
922651.609
 20
7285865.158
 30
0.0
 11
922598.755
 21
7285774.358
 31
0.0
  0
TEXT
  8
19
  6
CONTINUOUS
 62
     1
  5
444
 10
921574.096
 20
7286211.506
 30
0.0
 40
24.0
  1
ITASCA ST
 50
358.1335
  7
ROMANC
 72
     4
 11
921682.139702
 21
7286219.991431
 31
0.0
210
0.0
220
0.0
230
1.0
  0
TEXT
  8
19
  6
CONTINUOUS
 62
     1
  5
445
 10
921514.4
 20
7285912.611
 30
0.0
 40
24.0
  1
HARVARD ST
 50
358.1335
  7
ROMANC
 72
     4
 11
921647.373468
 21
7285920.284018
 31
0.0
210
0.0
220
0.0
230
1.0
  0
TEXT
  8
19
  6
CONTINUOUS
 62
     1
  5
446
 10
922082.481
 20
7285808.699
 30
0.0
 40
24.0
  1
N ELKHART AVE
 50
312.71565
  7
ROMANC
 72
     4
 11
922210.191263
 21
7285688.066253
 31
0.0
210
0.0
220
0.0
230
1.0
  0
TEXT
  8
19
  6
CONTINUOUS
 62
     1
  5
447
 10
922393.661
 20
7285980.77
 30
0.0
 40
24.0
  1
N ENGLEWOOD AVE
 50
43.1227
  7
ROMANC
 72
     4
 11
922534.553913
 21
7286129.160796
 31
0.0
210
0.0
220
0.0
230
1.0
  0
TEXT
  8
19
  6
CONTINUOUS
 62
     1
  5
448
 10
924037.429
 20
7285071.245
 30
0.0
 40
24.0
  1
N CHICAGO AVE
 50
88.1335
  7
ROMANC
 72
     4
 11
924030.956152
 21
7285241.046918
 31
0.0
210
0.0
220
0.0
230
1.0
  0
TEXT
  8
19
  6
CONTINUOUS
 62
     1
  5
449
 10
922746.712
 20
7284815.365
 30
0.0
 40
24.0
  1
N DURANT AVE
 50
88.1335
  7
ROMANC
 72
     4
 11
922740.036073
 21
7284978.935226
 31
0.0
210
0.0
220
0.0
230
1.0
  0
TEXT
  8
19
  6
CONTINUOUS
 62
     1
  5
44A
 10
922442.478
 20
7284750.804
 30
0.0
 40
24.0
  1
N ELKHART AVE
 50
88.1335
  7
ROMANC
 72
     4
 11
922436.192922
 21
7284926.367859
 31
0.0
210
0.0
220
0.0
230
1.0
  0
TEXT
  8
19
  6
CONTINUOUS
 62
     1
  5
44B
 10
921427.471
 20
7284869.557
 30
0.0
 40
24.0
  1
N FRANKFORD AVE
 50
88.1335
  7
ROMANC
 72
     4
 11
921422.127577
 21
7285074.01652
 31
0.0
210
0.0
220
0.0
230
1.0
  0
TEXT
  8
19
  6
CONTINUOUS
 62
     1
  5
44C
 10
921564.547
 20
7289075.897
 30
0.0
 40
24.0
  1
N FRANKFORD AVE
 50
88.1335
  7
ROMANC
 72
     4
 11
921559.203577
 21
7289280.35652
 31
0.0
210
0.0
220
0.0
230
1.0
  0
TEXT
  8
19
  6
CONTINUOUS
 62
     1
  5
44D
 10
921516.776
 20
7287360.06
 30
0.0
 40
24.0
  1
N FRANKFORD AVE
 50
88.1335
  7
ROMANC
 72
     4
 11
921511.432577
 21
7287564.51952
 31
0.0
210
0.0
220
0.0
230
1.0
  0
TEXT
  8
19
  6
CONTINUOUS
 62
     1
  5
44E
 10
923342.21
 20
7284787.849
 30
0.0
 40
24.0
  1
N COLTON AVE
 50
88.1335
  7
ROMANC
 72
     4
 11
923335.423267
 21
7284948.019031
 31
0.0
210
0.0
220
0.0
230
1.0
  0
TEXT
  8
19
  6
CONTINUOUS
 62
     1
  5
44F
 10
923075.985
 20
7285694.24
 30
0.0
 40
24.0
  1
HARVARD ST
 50
358.1335
  7
ROMANC
 72
     4
 11
923208.958468
 21
7285701.913018
 31
0.0
210
0.0
220
0.0
230
1.0
  0
TEXT
  8
19
  6
CONTINUOUS
 62
     1
  5
450
 10
923080.255
 20
7285404.645
 30
0.0
 40
24.0
  1
GRINNELL ST
 50
358.1335
  7
ROMANC
 72
     4
 11
923216.627664
 21
7285412.207244
 31
0.0
210
0.0
220
0.0
230
1.0
  0
TEXT
  8
19
  6
CONTINUOUS
 62
     1
  5
451
 10
923042.578
 20
7285101.64
 30
0.0
 40
24.0
  1
FORDHAM ST
 50
358.1335
  7
ROMANC
 72
     4
 11
923178.008164
 21
7285109.232959
 31
0.0
210
0.0
220
0.0
230
1.0
  0
TEXT
  8
19
  6
CONTINUOUS
 62
     1
  5
452
 10
922837.537
 20
7284652.195
 30
0.0
 40
24.0
  1
ERSKINE   ST
 50
358.1335
  7
ROMANC
 72
     4
 11
922986.470995
 21
7284659.347894
 31
0.0
210
0.0
220
0.0
230
1.0
  0
TEXT
  8
19
  6
CONTINUOUS
 62
     1
  5
453
 10
925001.799
 20
7284577.073
 30
0.0
 40
24.0
  1
ERSKINE   ST
 50
358.1335
  7
ROMANC
 72
     4
 11
925150.732995
 21
7284584.225894
 31
0.0
210
0.0
220
0.0
230
1.0
  0
TEXT
  8
22
  6
CONTINUOUS
 62
     3
  5
454
 10
924508.158
 20
7284679.033
 30
0.0
 40
6.0
  1
PLAT VACATED 06/19/2001
 50
358.1335
  7
txt
 72
     4
 11
924572.894399
 21
7284679.924956
 31
0.0
210
0.0
220
0.0
230
1.0
  0
TEXT
  8
13
  6
CONTINUOUS
 62
    14
  5
456
 10
924531.289
 20
7284663.946
 30
0.0
 40
8.0
  1
V7137 P235
 50
358.1335
  7
txt
 72
     4
 11
924569.130264
 21
7284666.714949
 31
0.0
210
0.0
220
0.0
230
1.0
  0
SOLID
  8
21
  6
DASHDOT
 62
     7
  5
457
 10
926657.022
 20
7284513.606
 30
0.0
 11
924018.422
 21
7284599.593
 31
0.0
 12
926658.65
 22
7284563.58
 32
0.0
 13
924020.051
 23
7284649.567
 33
0.0
  0
TEXT
  8
13
  6
CONTINUOUS
 62
    14
  5
458
 10
925403.861
 20
7284569.591
 30
0.0
 40
8.0
  1
V1109 P295
 50
358.1335
  7
txt
 72
     4
 11
925439.592384
 21
7284572.428706
 31
0.0
210
0.0
220
0.0
230
1.0
  0
TEXT
  8
13
  6
CONTINUOUS
 62
    14
  5
459
 10
924015.828
 20
7284838.29
 30
0.0
 40
8.0
  1
V1407 P550
 50
88.1335
  7
txt
 72
     4
 11
924013.062146
 21
7284876.226214
 31
0.0
210
0.0
220
0.0
230
1.0
  0
TEXT
  8
22
  6
CONTINUOUS
 62
     3
  5
45A
 10
924008.512
 20
7284660.23
 30
0.0
 40
6.0
  1
10'UWE
 50
88.1335
  7
txt
 72
     4
 11
924005.997529
 21
7284675.177829
 31
0.0
210
0.0
220
0.0
230
1.0
  0
POLYLINE
  8
21
  6
DASHDOT
 62
     7
  5
45B
 66
     1
 10
0.0
 20
0.0
 30
0.0
  0
VERTEX
  8
21
  6
DASHDOT
 62
     7
  5
45C
 10
924020.051
 20
7284649.567
 30
0.0
  0
VERTEX
  8
21
  6
DASHDOT
 62
     7
  5
45D
 10
924028.845
 20
7284919.424
 30
0.0
  0
VERTEX
  8
21
  6
DASHDOT
 62
     7
  5
45E
 10
924018.85
 20
7284919.749
 30
0.0
  0
VERTEX
  8
21
  6
DASHDOT
 62
     7
  5
45F
 10
924010.056
 20
7284649.893
 30
0.0
  0
VERTEX
  8
21
  6
DASHDOT
 62
     7
  5
460
 10
924020.051
 20
7284649.567
 30
0.0
  0
SEQEND
  8
21
  6
DASHDOT
 62
     7
  5
461
  0
SOLID
  8
21
  6
DASHDOT
 62
     7
  5
462
 10
921439.792
 20
7284683.627
 30
0.0
 11
924018.422
 21
7284599.593
 31
0.0
 12
921440.931
 22
7284718.608
 32
0.0
 13
924019.563
 23
7284634.574
 33
0.0
  0
SOLID
  8
21
  6
DASHDOT
 62
     7
  5
463
 10
921379.823
 20
7284685.581
 30
0.0
 11
921465.81
 21
7287324.18
 31
0.0
 12
921439.792
 22
7284683.627
 32
0.0
 13
921525.778
 23
7287322.226
 33
0.0
  0
TEXT
  8
13
  6
CONTINUOUS
 62
    14
  5
464
 10
921439.95
 20
7285437.912
 30
0.0
 40
8.0
  1
V982 P484
 50
88.1335
  7
txt
 72
     4
 11
921437.100048
 21
7285473.267584
 31
0.0
210
0.0
220
0.0
230
1.0
  0
TEXT
  8
22
  6
CONTINUOUS
 62
     3
  5
465
 10
922772.478
 20
7284966.055
 30
0.0
 40
6.0
  1
5'UUE
 50
358.1335
  7
txt
 72
     4
 11
922784.663296
 21
7284968.659497
 31
0.0
210
0.0
220
0.0
230
1.0
  0
TEXT
  8
13
  6
CONTINUOUS
 62
    14
  5
466
 10
922796.152
 20
7284964.644
 30
0.0
 40
8.0
  1
V1366 P292
 50
358.1335
  7
txt
 72
     4
 11
922833.142716
 21
7284967.440666
 31
0.0
210
0.0
220
0.0
230
1.0
  0
POLYLINE
  8
21
  6
DASHDOT
 62
     7
  5
467
 66
     1
 10
0.0
 20
0.0
 30
0.0
  0
VERTEX
  8
21
  6
DASHDOT
 62
     7
  5
468
 10
922768.481
 20
7284959.471
 30
0.0
  0
VERTEX
  8
21
  6
DASHDOT
 62
     7
  5
469
 10
922880.422
 20
7284955.823
 30
0.0
  0
VERTEX
  8
21
  6
DASHDOT
 62
     7
  5
46A
 10
922880.584
 20
7284960.82
 30
0.0
  0
VERTEX
  8
21
  6
DASHDOT
 62
     7
  5
46B
 10
922768.643
 20
7284964.469
 30
0.0
  0
VERTEX
  8
21
  6
DASHDOT
 62
     7
  5
46C
 10
922768.481
 20
7284959.471
 30
0.0
  0
SEQEND
  8
21
  6
DASHDOT
 62
     7
  5
46D
  0
SOLID
  8
25
  6
CONTINUOUS
 62
   212
  5
46F
 10
922232.782
 20
7285709.596
 30
0.0
 11
922314.517
 21
7285786.17
 31
0.0
 12
922236.2
 22
7285705.947
 32
0.0
 13
922317.935
 23
7285782.521
 33
0.0
  0
TEXT
  8
22
  6
CONTINUOUS
 62
     3
  5
470
 10
922241.71
 20
7285702.101
 30
0.0
 40
6.0
  1
QCD
 50
43.1335
  7
txt
 72
     4
 11
922245.812257
 21
7285710.055251
 31
0.0
210
0.0
220
0.0
230
1.0
  0
TEXT
  8
22
  6
CONTINUOUS
 62
     3
  5
471
 10
922310.646
 20
7285742.805
 30
0.0
 40
6.0
  1
5'SSE
 50
43.1335
  7
txt
 72
     4
 11
922317.420648
 21
7285753.262963
 31
0.0
210
0.0
220
0.0
230
1.0
  0
POLYLINE
  8
21
  6
DASHDOT
 62
     7
  5
472
 66
     1
 10
0.0
 20
0.0
 30
0.0
 70
     1
  0
VERTEX
  8
21
  6
DASHDOT
 62
     7
  5
473
 10
922253.293
 20
7285687.704
 30
0.0
  0
VERTEX
  8
21
  6
DASHDOT
 62
     7
  5
474
 10
922335.028
 20
7285764.277
 30
0.0
  0
VERTEX
  8
21
  6
DASHDOT
 62
     7
  5
475
 10
922338.446
 20
7285760.628
 30
0.0
  0
VERTEX
  8
21
  6
DASHDOT
 62
     7
  5
476
 10
922256.711
 20
7285684.055
 30
0.0
  0
SEQEND
  8
21
  6
DASHDOT
 62
     7
  5
477
  0
TEXT
  8
13
  6
CONTINUOUS
 62
    14
  5
478
 10
922301.511
 20
7285686.803
 30
0.0
 40
8.0
  1
V1542 P549
 50
43.1335
  7
txt
 72
     4
 11
922326.3802
 21
7285715.583708
 31
0.0
210
0.0
220
0.0
230
1.0
  0
TEXT
  8
22
  6
CONTINUOUS
 62
     3
  5
479
 10
922278.453
 20
7285665.202
 30
0.0
 40
6.0
  1
QCD
 50
43.1335
  7
txt
 72
     4
 11
922282.555257
 21
7285673.156251
 31
0.0
210
0.0
220
0.0
230
1.0
  0
TEXT
  8
13
  6
CONTINUOUS
 62
    14
  5
47A
 10
922313.927
 20
7285677.075
 30
0.0
 40
8.0
  1
V1366 P294
 50
43.1335
  7
txt
 72
     4
 11
922338.24304
 21
7285705.337463
 31
0.0
210
0.0
220
0.0
230
1.0
  0
TEXT
  8
22
  6
CONTINUOUS
 62
     3
  5
47B
 10
922286.348
 20
7285654.087
 30
0.0
 40
6.0
  1
5'UUE
 50
43.1335
  7
txt
 72
     4
 11
922293.122648
 21
7285664.544963
 31
0.0
210
0.0
220
0.0
230
1.0
  0
TEXT
  8
13
  6
CONTINUOUS
 62
    14
  5
47C
 10
922333.162
 20
7285654.157
 30
0.0
 40
8.0
  1
V1538 P447
 50
43.1335
  7
txt
 72
     4
 11
922358.191748
 21
7285683.088123
 31
0.0
210
0.0
220
0.0
230
1.0
  0
TEXT
  8
22
  6
CONTINUOUS
 62
     3
  5
47D
 10
922308.978
 20
7285630.823
 30
0.0
 40
6.0
  1
5'UWE
 50
43.1335
  7
txt
 72
     4
 11
922316.372946
 21
7285641.862108
 31
0.0
210
0.0
220
0.0
230
1.0
  0
POLYLINE
  8
21
  6
DASHDOT
 62
     7
  5
47E
 66
     1
 10
0.0
 20
0.0
 30
0.0
 70
     1
  0
VERTEX
  8
21
  6
DASHDOT
 62
     7
  5
47F
 10
922307.989
 20
7285629.322
 30
0.0
  0
VERTEX
  8
21
  6
DASHDOT
 62
     7
  5
480
 10
922389.734
 20
7285705.885
 30
0.0
  0
VERTEX
  8
21
  6
DASHDOT
 62
     7
  5
481
 10
922393.152
 20
7285702.237
 30
0.0
  0
VERTEX
  8
21
  6
DASHDOT
 62
     7
  5
482
 10
922311.409
 20
7285625.673
 30
0.0
  0
SEQEND
  8
21
  6
DASHDOT
 62
     7
  5
483
  0
SOLID
  8
25
  6
CONTINUOUS
 62
   212
  5
484
 10
922277.223
 20
7285662.162
 30
0.0
 11
922358.958
 21
7285738.735
 31
0.0
 12
922280.641
 22
7285658.513
 32
0.0
 13
922362.376
 23
7285735.086
 33
0.0
  0
TEXT
  8
22
  6
CONTINUOUS
 62
     3
  5
485
 10
922086.504
 20
7286150.468
 30
0.0
 40
6.0
  1
2'SLE
 50
78.1335
  7
txt
 72
     4
 11
922085.996626
 21
7286162.642509
 31
0.0
210
0.0
220
0.0
230
1.0
  0
LINE
  8
7
  6
CONTINUOUS
 62
     7
  5
486
 10
922095.581
 20
7286049.11
 30
0.0
 11
922150.836
 21
7286147.585
 31
0.0
  0
TEXT
  8
13
  6
CONTINUOUS
 62
    14
  5
487
 10
922610.453
 20
7285770.176
 30
0.0
 40
8.0
  1
V1560 P250
 50
60.1335
  7
txt
 72
     4
 11
922625.585324
 21
7285804.559999
 31
0.0
210
0.0
220
0.0
230
1.0
  0
TEXT
  8
22
  6
CONTINUOUS
 62
     3
  5
488
 10
922647.342
 20
7285839.286
 30
0.0
 40
6.0
  1
2'SLE
 50
60.1335
  7
txt
 72
     4
 11
922650.621589
 21
7285851.021433
 31
0.0
210
0.0
220
0.0
230
1.0
  0
TEXT
  8
22
  6
CONTINUOUS
 62
     3
  5
489
 10
921854.453
 20
7287038.307
 30
0.0
 40
6.0
  1
QCD
 50
88.1335
  7
txt
 72
     4
 11
921851.729229
 21
7287046.832239
 31
0.0
210
0.0
220
0.0
230
1.0
  0
TEXT
  8
13
  6
CONTINUOUS
 62
    14
  5
48A
 10
921869.376
 20
7287009.578
 30
0.0
 40
8.0
  1
V2498 P249
 50
88.1335
  7
txt
 72
     4
 11
921866.650143
 21
7287048.741562
 31
0.0
210
0.0
220
0.0
230
1.0
  0
POLYLINE
  8
25
  6
CONTINUOUS
 62
   212
  5
48B
 66
     1
 10
0.0
 20
0.0
 30
0.0
 70
     1
  0
VERTEX
  8
25
  6
CONTINUOUS
 62
   212
  5
48C
 10
921855.277
 20
7287301.482
 30
0.0
  0
VERTEX
  8
25
  6
CONTINUOUS
 62
   212
  5
48D
 10
921885.262
 20
7287300.505
 30
0.0
  0
VERTEX
  8
25
  6
CONTINUOUS
 62
   212
  5
48E
 10
921875.49
 20
7287000.665
 30
0.0
  0
VERTEX
  8
25
  6
CONTINUOUS
 62
   212
  5
48F
 10
921845.506
 20
7287001.641
 30
0.0
  0
VERTEX
  8
25
  6
CONTINUOUS
 62
   212
  5
490
 10
921855.827
 20
7287011.31
 30
0.0
  0
VERTEX
  8
25
  6
CONTINUOUS
 62
   212
  5
491
 10
921864.946
 20
7287291.162
 30
0.0
  0
SEQEND
  8
25
  6
CONTINUOUS
 62
   212
  5
492
  0
SOLID
  8
21
  6
DASHDOT
 62
     7
  5
493
 10
921525.761
 20
7287321.726
 30
0.0
 11
922025.496
 21
7287305.44
 31
0.0
 12
921524.622
 22
7287286.745
 32
0.0
 13
922024.357
 23
7287270.458
 33
0.0
  0
TEXT
  8
13
  6
CONTINUOUS
 62
    14
  5
494
 10
921768.855
 20
7287291.651
 30
0.0
 40
8.0
  1
V1011 P10
 50
358.1335
  7
txt
 72
     4
 11
921796.874478
 21
7287294.740022
 31
0.0
210
0.0
220
0.0
230
1.0
  0
TEXT
  8
22
  6
CONTINUOUS
 62
     3
  5
495
 10
921556.424
 20
7287289.504
 30
0.0
 40
6.0
  1
35'X500'  CHANNEL EASEMENT FOR DRAINAGE PURPOSES
 50
358.1335
  7
txt
 72
     4
 11
921689.460142
 21
7287288.170198
 31
0.0
210
0.0
220
0.0
230
1.0
  0
SOLID
  8
21
  6
DASHDOT
 62
     7
  5
496
 10
921465.81
 20
7287324.18
 30
0.0
 11
921551.796
 21
7289962.779
 31
0.0
 12
921525.778
 22
7287322.226
 32
0.0
 13
921611.765
 23
7289960.825
 33
0.0
  0
TEXT
  8
13
  6
CONTINUOUS
 62
    14
  5
497
 10
921582.417
 20
7289553.245
 30
0.0
 40
8.0
  1
V982 P524
 50
88.1335
  7
txt
 72
     4
 11
921579.560859
 21
7289588.410685
 31
0.0
210
0.0
220
0.0
230
1.0
  0
TEXT
  8
13
  6
CONTINUOUS
 62
    14
  5
498
 10
921547.583
 20
7288585.154
 30
0.0
 40
8.0
  1
V982 P524
 50
88.1335
  7
txt
 72
     4
 11
921544.726859
 21
7288620.319685
 31
0.0
210
0.0
220
0.0
230
1.0
  0
TEXT
  8
13
  6
CONTINUOUS
 62
    14
  5
499
 10
921525.731
 20
7287813.773
 30
0.0
 40
8.0
  1
V982 P524
 50
88.1335
  7
txt
 72
     4
 11
921522.874859
 21
7287848.938685
 31
0.0
210
0.0
220
0.0
230
1.0
  0
TEXT
  8
22
  6
CONTINUOUS
 62
     3
  5
49A
 10
922380.82
 20
7287265.958
 30
0.0
 40
8.0
  1
35' SWPS POWER LINE EASEMENT
 50
358.1335
  7
ROMANS
210
0.0
220
0.0
230
1.0
  0
TEXT
  8
22
  6
CONTINUOUS
 62
     3
  5
49B
 10
924049.036
 20
7287223.154
 30
0.0
 40
8.0
  1
35' SWPS POWER LINE EASEMENT
 50
358.1335
  7
ROMANS
210
0.0
220
0.0
230
1.0
  0
TEXT
  8
22
  6
CONTINUOUS
 62
     3
  5
49C
 10
925935.987
 20
7287155.881
 30
0.0
 40
8.0
  1
35' SWPS POWER LINE EASEMENT
 50
358.1335
  7
ROMANS
210
0.0
220
0.0
230
1.0
  0
POLYLINE
  8
21
  6
DASHDOT
 62
     7
  5
49D
 66
     1
 10
0.0
 20
0.0
 30
0.0
 70
     1
  0
VERTEX
  8
21
  6
DASHDOT
 62
     7
  5
49E
 10
922082.369
 20
7286178.196
 30
0.0
  0
VERTEX
  8
21
  6
DASHDOT
 62
     7
  5
49F
 10
922084.314
 20
7286177.726
 30
0.0
  0
VERTEX
  8
21
  6
DASHDOT
 62
     7
  5
4A0
 10
922063.349
 20
7286071.385
 30
0.0
  0
VERTEX
  8
21
  6
DASHDOT
 62
     7
  5
4A1
 10
922061.323
 20
7286071.451
 30
0.0
  0
SEQEND
  8
21
  6
DASHDOT
 62
     7
  5
4A2
  0
TEXT
  8
13
  6
CONTINUOUS
 62
    14
  5
4A3
 10
922071.417
 20
7286074.929
 30
0.0
 40
8.0
  1
V1560 P250
 50
78.1335
  7
txt
 72
     4
 11
922075.183456
 21
7286112.306271
 31
0.0
210
0.0
220
0.0
230
1.0
  0
TEXT
  8
10
  6
CONTINUOUS
 62
   134
  5
4A4
 10
922079.326
 20
7286117.646
 30
0.0
 40
13.999
  1
152
 50
358.1335
  7
ROMANS
 11
922079.781959
 21
7286131.637573
 31
0.0
210
0.0
220
0.0
230
1.0
 73
     3
  0
LINE
  8
7
  6
CONTINUOUS
 62
     7
  5
4A5
 10
922061.323
 20
7286071.451
 30
0.0
 11
922082.369
 21
7286178.196
 31
0.0
  0
TEXT
  8
22
  6
CONTINUOUS
 62
     3
  5
4A6
 10
922053.706
 20
7285897.257
 30
0.0
 40
6.0
  1
2'USE
 50
58.1335
  7
txt
 72
     4
 11
922057.543087
 21
7285909.112024
 31
0.0
210
0.0
220
0.0
230
1.0
  0
LINE
  8
21
  6
DASHDOT
 62
     7
  5
4A7
 10
922046.404
 20
7285899.734
 30
0.0
 11
922113.221
 21
7286000.803
 31
0.0
  0
TEXT
  8
13
  6
CONTINUOUS
 62
    14
  5
4A8
 10
922264.077
 20
7285678.745
 30
0.0
 40
8.0
  1
V1538 P449
 50
43.1335
  7
txt
 72
     4
 11
922288.9462
 21
7285707.525708
 31
0.0
210
0.0
220
0.0
230
1.0
  0
TEXT
  8
13
  6
CONTINUOUS
 62
    14
  5
4A9
 10
922267.857
 20
7285723.601
 30
0.0
 40
8.0
  1
V1542 P549
 50
43.1335
  7
txt
 72
     4
 11
922292.7262
 21
7285752.381708
 31
0.0
210
0.0
220
0.0
230
1.0
  0
TEXT
  8
22
  6
CONTINUOUS
 62
     3
  5
4AA
 10
922493.147
 20
7285460.241
 30
0.0
 40
6.0
  1
2'SLE
 50
70.1335
  7
txt
 72
     4
 11
922494.338928
 21
7285472.36764
 31
0.0
210
0.0
220
0.0
230
1.0
  0
LINE
  8
7
  6
CONTINUOUS
 62
     7
  5
4AB
 10
922517.579
 20
7285569.367
 30
0.0
 11
922481.498
 21
7285458.483
 31
0.0
  0
POLYLINE
  8
21
  6
DASHDOT
 62
     7
  5
4AC
 66
     1
 10
0.0
 20
0.0
 30
0.0
 70
     1
  0
VERTEX
  8
21
  6
DASHDOT
 62
     7
  5
4AD
 10
922481.498
 20
7285458.483
 30
0.0
  0
VERTEX
  8
21
  6
DASHDOT
 62
     7
  5
4AE
 10
922517.579
 20
7285569.367
 30
0.0
  0
VERTEX
  8
21
  6
DASHDOT
 62
     7
  5
4AF
 10
922519.66
 20
7285569.298
 30
0.0
  0
VERTEX
  8
21
  6
DASHDOT
 62
     7
  5
4B0
 10
922483.579
 20
7285458.415
 30
0.0
  0
SEQEND
  8
21
  6
DASHDOT
 62
     7
  5
4B1
  0
POLYLINE
  8
21
  6
DASHDOT
 62
     7
  5
4B2
 66
     1
 10
0.0
 20
0.0
 30
0.0
 70
     1
  0
VERTEX
  8
21
  6
DASHDOT
 62
     7
  5
4B3
 10
922598.755
 20
7285774.358
 30
0.0
  0
VERTEX
  8
21
  6
DASHDOT
 62
     7
  5
4B4
 10
922651.609
 20
7285865.158
 30
0.0
  0
VERTEX
  8
21
  6
DASHDOT
 62
     7
  5
4B5
 10
922653.879
 20
7285865.084
 30
0.0
  0
VERTEX
  8
21
  6
DASHDOT
 62
     7
  5
4B6
 10
922600.536
 20
7285773.443
 30
0.0
  0
SEQEND
  8
21
  6
DASHDOT
 62
     7
  5
4B7
  0
TEXT
  8
22
  6
CONTINUOUS
 62
     3
  5
4B8
 10
922615.293
 20
7285812.615
 30
0.0
 40
8.0
  1
 
 50
59.835708
  7
ROMANS
 72
     1
 11
922616.632615
 21
7285814.919992
 31
0.0
210
0.0
220
0.0
230
1.0
  0
TEXT
  8
22
  6
CONTINUOUS
 62
     3
  5
4B9
 10
923884.894
 20
7285798.901
 30
0.0
 40
6.0
  1
4'UUE
 50
88.1335
  7
txt
 72
     4
 11
923882.294128
 21
7285811.22822
 31
0.0
210
0.0
220
0.0
230
1.0
  0
LINE
  8
7
  6
CONTINUOUS
 62
     7
  5
4BA
 10
923891.26
 20
7285824.76
 30
0.0
 11
923887.611
 21
7285712.82
 31
0.0
  0
POLYLINE
  8
21
  6
DASHDOT
 62
     7
  5
4BB
 66
     1
 10
0.0
 20
0.0
 30
0.0
 70
     1
  0
VERTEX
  8
21
  6
DASHDOT
 62
     7
  5
4BC
 10
923887.262
 20
7285824.891
 30
0.0
  0
VERTEX
  8
21
  6
DASHDOT
 62
     7
  5
4BD
 10
923891.26
 20
7285824.76
 30
0.0
  0
VERTEX
  8
21
  6
DASHDOT
 62
     7
  5
4BE
 10
923887.611
 20
7285712.82
 30
0.0
  0
VERTEX
  8
21
  6
DASHDOT
 62
     7
  5
4BF
 10
923883.613
 20
7285712.95
 30
0.0
  0
SEQEND
  8
21
  6
DASHDOT
 62
     7
  5
4C0
  0
TEXT
  8
22
  6
CONTINUOUS
 62
     3
  5
4C1
 10
923877.501
 20
7285547.728
 30
0.0
 40
6.0
  1
4'UUE
 50
88.1335
  7
txt
 72
     4
 11
923874.901128
 21
7285560.05522
 31
0.0
210
0.0
220
0.0
230
1.0
  0
POLYLINE
  8
21
  6
DASHDOT
 62
     7
  5
4C2
 66
     1
 10
0.0
 20
0.0
 30
0.0
 70
     1
  0
VERTEX
  8
21
  6
DASHDOT
 62
     7
  5
4C3
 10
923883.785
 20
7285656.915
 30
0.0
  0
VERTEX
  8
21
  6
DASHDOT
 62
     7
  5
4C4
 10
923887.782
 20
7285656.784
 30
0.0
  0
VERTEX
  8
21
  6
DASHDOT
 62
     7
  5
4C5
 10
923884.135
 20
7285544.844
 30
0.0
  0
VERTEX
  8
21
  6
DASHDOT
 62
     7
  5
4C6
 10
923880.137
 20
7285544.974
 30
0.0
  0
SEQEND
  8
21
  6
DASHDOT
 62
     7
  5
4C7
  0
POLYLINE
  8
21
  6
DASHDOT
 62
     7
  5
4C8
 66
     1
 10
0.0
 20
0.0
 30
0.0
 70
     1
  0
VERTEX
  8
21
  6
DASHDOT
 62
     7
  5
4C9
 10
923362.987
 20
7285241.657
 30
0.0
  0
VERTEX
  8
21
  6
DASHDOT
 62
     7
  5
4CA
 10
923367.984
 20
7285241.494
 30
0.0
  0
VERTEX
  8
21
  6
DASHDOT
 62
     7
  5
4CB
 10
923364.337
 20
7285129.554
 30
0.0
  0
VERTEX
  8
21
  6
DASHDOT
 62
     7
  5
4CC
 10
923359.339
 20
7285129.717
 30
0.0
  0
SEQEND
  8
21
  6
DASHDOT
 62
     7
  5
4CD
  0
TEXT
  8
22
  6
CONTINUOUS
 62
     3
  5
4CE
 10
923361.24
 20
7285216.488
 30
0.0
 40
6.0
  1
5'UUE
 50
88.1335
  7
txt
 72
     4
 11
923358.635503
 21
7285228.673296
 31
0.0
210
0.0
220
0.0
230
1.0
  0
POLYLINE
  8
21
  6
DASHDOT
 62
     7
  5
4CF
 66
     1
 10
0.0
 20
0.0
 30
0.0
 70
     1
  0
VERTEX
  8
21
  6
DASHDOT
 62
     7
  5
4D0
 10
922896.177
 20
7284825.241
 30
0.0
  0
VERTEX
  8
21
  6
DASHDOT
 62
     7
  5
4D1
 10
923008.118
 20
7284821.593
 30
0.0
  0
VERTEX
  8
21
  6
DASHDOT
 62
     7
  5
4D2
 10
923007.988
 20
7284817.594
 30
0.0
  0
VERTEX
  8
21
  6
DASHDOT
 62
     7
  5
4D3
 10
922896.046
 20
7284821.243
 30
0.0
  0
SEQEND
  8
21
  6
DASHDOT
 62
     7
  5
4D4
  0
TEXT
  8
22
  6
CONTINUOUS
 62
     3
  5
4D5
 10
922897.524
 20
7284813.13
 30
0.0
 40
6.0
  1
4'UUE
 50
358.1335
  7
txt
 72
     4
 11
922909.85122
 21
7284815.729872
 31
0.0
210
0.0
220
0.0
230
1.0
  0
POLYLINE
  8
21
  6
DASHDOT
 62
     7
  5
4D6
 66
     1
 10
0.0
 20
0.0
 30
0.0
 70
     1
  0
VERTEX
  8
21
  6
DASHDOT
 62
     7
  5
4D7
 10
923064.087
 20
7284819.768
 30
0.0
  0
VERTEX
  8
21
  6
DASHDOT
 62
     7
  5
4D8
 10
923176.029
 20
7284816.121
 30
0.0
  0
VERTEX
  8
21
  6
DASHDOT
 62
     7
  5
4D9
 10
923175.899
 20
7284812.123
 30
0.0
  0
VERTEX
  8
21
  6
DASHDOT
 62
     7
  5
4DA
 10
923063.957
 20
7284815.771
 30
0.0
  0
SEQEND
  8
21
  6
DASHDOT
 62
     7
  5
4DB
  0
TEXT
  8
22
  6
CONTINUOUS
 62
     3
  5
4DC
 10
923148.005
 20
7284804.968
 30
0.0
 40
6.0
  1
4'UUE
 50
358.1335
  7
txt
 72
     4
 11
923160.33222
 21
7284807.567872
 31
0.0
210
0.0
220
0.0
230
1.0
  0
POLYLINE
  8
21
  6
DASHDOT
 62
     7
  5
4DD
 66
     1
 10
0.0
 20
0.0
 30
0.0
 70
     1
  0
VERTEX
  8
21
  6
DASHDOT
 62
     7
  5
4DE
 10
923196.017
 20
7284815.47
 30
0.0
  0
VERTEX
  8
21
  6
DASHDOT
 62
     7
  5
4DF
 10
923307.959
 20
7284811.821
 30
0.0
  0
VERTEX
  8
21
  6
DASHDOT
 62
     7
  5
4E0
 10
923307.828
 20
7284807.823
 30
0.0
  0
VERTEX
  8
21
  6
DASHDOT
 62
     7
  5
4E1
 10
923195.887
 20
7284811.472
 30
0.0
  0
SEQEND
  8
21
  6
DASHDOT
 62
     7
  5
4E2
  0
POLYLINE
  8
21
  6
DASHDOT
 62
     7
  5
4E3
 66
     1
 10
0.0
 20
0.0
 30
0.0
 70
     1
  0
VERTEX
  8
21
  6
DASHDOT
 62
     7
  5
4E4
 10
923363.937
 20
7284809.997
 30
0.0
  0
VERTEX
  8
21
  6
DASHDOT
 62
     7
  5
4E5
 10
923475.878
 20
7284806.35
 30
0.0
  0
VERTEX
  8
21
  6
DASHDOT
 62
     7
  5
4E6
 10
923475.748
 20
7284802.352
 30
0.0
  0
VERTEX
  8
21
  6
DASHDOT
 62
     7
  5
4E7
 10
923363.806
 20
7284805.999
 30
0.0
  0
SEQEND
  8
21
  6
DASHDOT
 62
     7
  5
4E8
  0
POLYLINE
  8
21
  6
DASHDOT
 62
     7
  5
4E9
 66
     1
 10
0.0
 20
0.0
 30
0.0
 70
     1
  0
VERTEX
  8
21
  6
DASHDOT
 62
     7
  5
4EA
 10
923495.867
 20
7284805.698
 30
0.0
  0
VERTEX
  8
21
  6
DASHDOT
 62
     7
  5
4EB
 10
923607.808
 20
7284802.05
 30
0.0
  0
VERTEX
  8
21
  6
DASHDOT
 62
     7
  5
4EC
 10
923607.678
 20
7284798.052
 30
0.0
  0
VERTEX
  8
21
  6
DASHDOT
 62
     7
  5
4ED
 10
923495.737
 20
7284801.7
 30
0.0
  0
SEQEND
  8
21
  6
DASHDOT
 62
     7
  5
4EE
  0
POLYLINE
  8
21
  6
DASHDOT
 62
     7
  5
4EF
 66
     1
 10
0.0
 20
0.0
 30
0.0
 70
     1
  0
VERTEX
  8
21
  6
DASHDOT
 62
     7
  5
4F0
 10
923500.232
 20
7284939.627
 30
0.0
  0
VERTEX
  8
21
  6
DASHDOT
 62
     7
  5
4F1
 10
923612.173
 20
7284935.979
 30
0.0
  0
VERTEX
  8
21
  6
DASHDOT
 62
     7
  5
4F2
 10
923612.042
 20
7284931.981
 30
0.0
  0
VERTEX
  8
21
  6
DASHDOT
 62
     7
  5
4F3
 10
923500.102
 20
7284935.629
 30
0.0
  0
SEQEND
  8
21
  6
DASHDOT
 62
     7
  5
4F4
  0
TEXT
  8
22
  6
CONTINUOUS
 62
     3
  5
4F5
 10
923198.545
 20
7284802.654
 30
0.0
 40
6.0
  1
4'UUE
 50
358.1335
  7
txt
 72
     4
 11
923210.87222
 21
7284805.253872
 31
0.0
210
0.0
220
0.0
230
1.0
  0
TEXT
  8
22
  6
CONTINUOUS
 62
     3
  5
4F6
 10
923448.027
 20
7284794.524
 30
0.0
 40
6.0
  1
4'UUE
 50
358.1335
  7
txt
 72
     4
 11
923460.35422
 21
7284797.123872
 31
0.0
210
0.0
220
0.0
230
1.0
  0
TEXT
  8
22
  6
CONTINUOUS
 62
     3
  5
4F7
 10
923500.564
 20
7284792.146
 30
0.0
 40
6.0
  1
4'UUE
 50
358.1335
  7
txt
 72
     4
 11
923512.89122
 21
7284794.745872
 31
0.0
210
0.0
220
0.0
230
1.0
  0
TEXT
  8
22
  6
CONTINUOUS
 62
     3
  5
4F8
 10
923522.698
 20
7284939.962
 30
0.0
 40
6.0
  1
4'UUE
 50
358.1335
  7
txt
 72
     4
 11
923535.02522
 21
7284942.561872
 31
0.0
210
0.0
220
0.0
230
1.0
  0
TEXT
  8
11
  6
CONTINUOUS
 62
     7
  5
4F9
 10
922763.76
 20
7284789.155
 30
0.0
 40
8.0
  1
28.46'
 50
313.1335
  7
txt
 72
     4
 11
922780.115818
 21
7284777.547777
 31
0.0
210
0.0
220
0.0
230
1.0
  0
TEXT
  8
11
  6
CONTINUOUS
 62
     7
  5
4FA
 10
922681.471
 20
7284767.48
 30
0.0
 40
8.0
  1
28.46'
 50
43.1335
  7
txt
 72
     4
 11
922693.078223
 21
7284783.835818
 31
0.0
210
0.0
220
0.0
230
1.0
  0
TEXT
  8
11
  6
CONTINUOUS
 62
     7
  5
4FB
 10
922781.457
 20
7284706.441
 30
0.0
 40
8.0
  1
83.33'
 50
68.1335
  7
txt
 72
     4
 11
922785.064822
 21
7284726.170758
 31
0.0
210
0.0
220
0.0
230
1.0
  0
TEXT
  8
11
  6
CONTINUOUS
 62
     7
  5
4FC
 10
922674.098
 20
7284730.467
 30
0.0
 40
8.0
  1
83.33'
 50
298.1335
  7
txt
 72
     4
 11
922686.892808
 21
7284715.021204
 31
0.0
210
0.0
220
0.0
230
1.0
  0
TEXT
  8
22
  6
CONTINUOUS
 62
     3
  5
4FD
 10
921838.369
 20
7287232.354
 30
0.0
 40
6.0
  1
5' ESMT
 50
88.1335
  7
txt
 72
     4
 11
921835.911463
 21
7287249.048902
 31
0.0
210
0.0
220
0.0
230
1.0
  0
TEXT
  8
22
  6
CONTINUOUS
 62
     3
  5
4FE
 10
921655.464
 20
7286994.143
 30
0.0
 40
6.0
  1
20' ALLEY
 50
358.1335
  7
txt
 72
     4
 11
921677.422108
 21
7286996.42902
 31
0.0
210
0.0
220
0.0
230
1.0
  0
TEXT
  8
15
  6
CONTINUOUS
 62
    30
  5
4FF
 10
921561.509
 20
7287103.131
 30
0.0
 40
30.0
  1
BROADVIEW
 50
28.1335
  7
ROMANC
 72
     4
 11
921682.12463
 21
7287184.634075
 31
0.0
210
0.0
220
0.0
230
1.0
  0
TEXT
  8
15
  6
CONTINUOUS
 62
    30
  5
500
 10
921614.148
 20
7287093.855
 30
0.0
 40
30.0
  1
BAPTIST
 50
28.1335
  7
ROMANC
 72
     4
 11
921697.68531
 21
7287155.532227
 31
0.0
210
0.0
220
0.0
230
1.0
  0
TEXT
  8
15
  6
CONTINUOUS
 62
    30
  5
501
 10
921631.583
 20
7287065.756
 30
0.0
 40
30.0
  1
CHURCH
 50
28.1335
  7
ROMANC
 72
     4
 11
921713.245494
 21
7287126.43076
 31
0.0
210
0.0
220
0.0
230
1.0
  0
TEXT
  8
10
  6
CONTINUOUS
 62
   134
  5
502
 10
921691.651
 20
7287145.07
 30
0.0
 40
13.999
  1
A
 50
358.1335
  7
ROMANS
 11
921692.106959
 21
7287159.061573
 31
0.0
210
0.0
220
0.0
230
1.0
 73
     3
  0
LINE
  8
6
  6
CONTINUOUS
 62
     7
  5
503
 10
921495.368
 20
7286389.05
 30
0.0
 11
921515.029
 21
7286992.4
 31
0.0
  0
LINE
  8
6
  6
CONTINUOUS
 62
     7
  5
504
 10
921515.681
 20
7287012.39
 30
0.0
 11
921606.722
 21
7289931.326
 31
0.0
  0
TEXT
  8
11
  6
CONTINUOUS
 62
     7
  5
505
 10
921561.627
 20
7286239.054
 30
0.0
 40
8.0
  1
R=50'
 50
43.1335
  7
txt
 72
     4
 11
921571.212051
 21
7286253.515284
 31
0.0
210
0.0
220
0.0
230
1.0
  0
TEXT
  8
11
  6
CONTINUOUS
 62
     7
  5
506
 10
921598.539
 20
7286162.939
 30
0.0
 40
8.0
  1
18.58'
 50
58.1335
  7
txt
 72
     4
 11
921604.769426
 21
7286180.538247
 31
0.0
210
0.0
220
0.0
230
1.0
  0
TEXT
  8
11
  6
CONTINUOUS
 62
     7
  5
507
 10
921570.502
 20
7286165.784
 30
0.0
 40
8.0
  1
51.27'
 50
28.1335
  7
txt
 72
     4
 11
921584.724668
 21
7286177.924799
 31
0.0
210
0.0
220
0.0
230
1.0
  0
TEXT
  8
11
  6
CONTINUOUS
 62
     7
  5
508
 10
921503.813
 20
7286201.399
 30
0.0
 40
8.0
  1
67.08'
 50
313.1335
  7
txt
 72
     4
 11
921520.039599
 21
7286189.929702
 31
0.0
210
0.0
220
0.0
230
1.0
  0
TEXT
  8
11
  6
CONTINUOUS
 62
     7
  5
509
 10
921881.362
 20
7286059.497
 30
0.0
 40
8.0
  1
20'
 50
88.1335
  7
txt
 72
     4
 11
921877.676997
 21
7286069.228187
 31
0.0
210
0.0
220
0.0
230
1.0
  0
TEXT
  8
11
  6
CONTINUOUS
 62
     7
  5
50A
 10
922065.101
 20
7286054.532
 30
0.0
 40
8.0
  1
20'
 50
88.1335
  7
txt
 72
     4
 11
922061.415997
 21
7286064.263187
 31
0.0
210
0.0
220
0.0
230
1.0
  0
TEXT
  8
11
  6
CONTINUOUS
 62
     7
  5
50B
 10
922059.245
 20
7286172.373
 30
0.0
 40
8.0
  1
40'
 50
353.1335
  7
txt
 72
     4
 11
922069.44797
 21
7286175.173255
 31
0.0
210
0.0
220
0.0
230
1.0
  0
TEXT
  8
11
  6
CONTINUOUS
 62
     7
  5
50C
 10
922065.375
 20
7286102.182
 30
0.0
 40
8.0
  1
108.84'
 50
78.1335
  7
txt
 72
     4
 11
922066.065201
 21
7286124.918976
 31
0.0
210
0.0
220
0.0
230
1.0
  0
TEXT
  8
11
  6
CONTINUOUS
 62
     7
  5
50D
 10
922106.767
 20
7286159.543
 30
0.0
 40
8.0
  1
75'
 50
338.1335
  7
txt
 72
     4
 11
922117.230137
 21
7286159.654044
 31
0.0
210
0.0
220
0.0
230
1.0
  0
TEXT
  8
11
  6
CONTINUOUS
 62
     7
  5
50E
 10
922145.512
 20
7286138.352
 30
0.0
 40
8.0
  1
41.49'
 50
323.1335
  7
txt
 72
     4
 11
922162.651666
 21
7286130.498616
 31
0.0
210
0.0
220
0.0
230
1.0
  0
TEXT
  8
11
  6
CONTINUOUS
 62
     7
  5
50F
 10
922183.728
 20
7286105.239
 30
0.0
 40
8.0
  1
40'
 50
313.1335
  7
txt
 72
     4
 11
922193.343898
 21
7286100.825777
 31
0.0
210
0.0
220
0.0
230
1.0
  0
TEXT
  8
11
  6
CONTINUOUS
 62
     7
  5
510
 10
922217.678
 20
7286068.481
 30
0.0
 40
8.0
  1
65'
 50
313.1335
  7
txt
 72
     4
 11
922227.056654
 21
7286064.321005
 31
0.0
210
0.0
220
0.0
230
1.0
  0
TEXT
  8
11
  6
CONTINUOUS
 62
     7
  5
511
 10
922080.647
 20
7286066.825
 30
0.0
 40
8.0
  1
30'
 50
313.1335
  7
txt
 72
     4
 11
922090.133678
 21
7286062.549702
 31
0.0
210
0.0
220
0.0
230
1.0
  0
TEXT
  8
11
  6
CONTINUOUS
 62
     7
  5
512
 10
922101.014
 20
7286046.114
 30
0.0
 40
8.0
  1
47.39'
 50
313.1335
  7
txt
 72
     4
 11
922117.391013
 21
7286034.484154
 31
0.0
210
0.0
220
0.0
230
1.0
  0
TEXT
  8
11
  6
CONTINUOUS
 62
     7
  5
513
 10
922065.828
 20
7286035.995
 30
0.0
 40
8.0
  1
68.19'
 50
313.1335
  7
txt
 72
     4
 11
922080.955892
 21
7286025.698431
 31
0.0
210
0.0
220
0.0
230
1.0
  0
TEXT
  8
11
  6
CONTINUOUS
 62
     7
  5
514
 10
922261.99
 20
7286020.662
 30
0.0
 40
8.0
  1
65'
 50
313.1335
  7
txt
 72
     4
 11
922271.368654
 21
7286016.502005
 31
0.0
210
0.0
220
0.0
230
1.0
  0
TEXT
  8
11
  6
CONTINUOUS
 62
     7
  5
515
 10
922306.334
 20
7285973.839
 30
0.0
 40
8.0
  1
65'
 50
313.1335
  7
txt
 72
     4
 11
922315.712654
 21
7285969.679005
 31
0.0
210
0.0
220
0.0
230
1.0
  0
TEXT
  8
11
  6
CONTINUOUS
 62
     7
  5
516
 10
922353.072
 20
7285923.946
 30
0.0
 40
8.0
  1
65'
 50
313.1335
  7
txt
 72
     4
 11
922362.450654
 21
7285919.786005
 31
0.0
210
0.0
220
0.0
230
1.0
  0
TEXT
  8
11
  6
CONTINUOUS
 62
     7
  5
517
 10
922149.664
 20
7286202.899
 30
0.0
 40
8.0
  1
R=256'
 50
328.1335
  7
txt
 72
     4
 11
922169.376257
 21
7286195.355055
 31
0.0
210
0.0
220
0.0
230
1.0
  0
TEXT
  8
11
  6
CONTINUOUS
 62
     7
  5
518
 10
922271.198
 20
7286109.671
 30
0.0
 40
8.0
  1
192.40'
 50
313.1335
  7
txt
 72
     4
 11
922289.297938
 21
7286096.202152
 31
0.0
210
0.0
220
0.0
230
1.0
  0
TEXT
  8
11
  6
CONTINUOUS
 62
     7
  5
519
 10
922112.719
 20
7286083.849
 30
0.0
 40
8.0
  1
112.98'
 50
60.1335
  7
txt
 72
     4
 11
922119.523094
 21
7286103.730146
 31
0.0
210
0.0
220
0.0
230
1.0
  0
TEXT
  8
11
  6
CONTINUOUS
 62
     7
  5
51A
 10
922159.749
 20
7286047.565
 30
0.0
 40
8.0
  1
112'
 50
43.1335
  7
txt
 72
     4
 11
922164.897094
 21
7286057.869384
 31
0.0
210
0.0
220
0.0
230
1.0
  0
TEXT
  8
11
  6
CONTINUOUS
 62
     7
  5
51B
 10
922101.749
 20
7285862.387
 30
0.0
 40
8.0
  1
14.3'
 50
88.1335
  7
txt
 72
     4
 11
922098.220956
 21
7285876.93463
 31
0.0
210
0.0
220
0.0
230
1.0
  0
TEXT
  8
11
  6
CONTINUOUS
 62
     7
  5
51C
 10
922128.476
 20
7285883.528
 30
0.0
 40
8.0
  1
112'
 50
43.1335
  7
txt
 72
     4
 11
922133.624094
 21
7285893.832384
 31
0.0
210
0.0
220
0.0
230
1.0
  0
TEXT
  8
11
  6
CONTINUOUS
 62
     7
  5
51D
 10
921948.611
 20
7285941.628
 30
0.0
 40
8.0
  1
58.87'
 50
348.1335
  7
txt
 72
     4
 11
921968.696869
 21
7285941.494857
 31
0.0
210
0.0
220
0.0
230
1.0
  0
TEXT
  8
11
  6
CONTINUOUS
 62
     7
  5
51E
 10
922003.966
 20
7285925.095
 30
0.0
 40
8.0
  1
58.87'
 50
333.1335
  7
txt
 72
     4
 11
922023.332999
 21
7285919.767788
 31
0.0
210
0.0
220
0.0
230
1.0
  0
TEXT
  8
11
  6
CONTINUOUS
 62
     7
  5
51F
 10
922055.751
 20
7285895.891
 30
0.0
 40
8.0
  1
58.87'
 50
318.1335
  7
txt
 72
     4
 11
922073.079301
 21
7285885.73276
 31
0.0
210
0.0
220
0.0
230
1.0
  0
TEXT
  8
11
  6
CONTINUOUS
 62
     7
  5
520
 10
922125.226
 20
7285973.18
 30
0.0
 40
8.0
  1
100.18'
 50
313.1335
  7
txt
 72
     4
 11
922142.335256
 21
7285960.768578
 31
0.0
210
0.0
220
0.0
230
1.0
  0
TEXT
  8
11
  6
CONTINUOUS
 62
     7
  5
521
 10
921971.093
 20
7285874.213
 30
0.0
 40
8.0
  1
R=200'
 50
336.1335
  7
txt
 72
     4
 11
921991.778559
 21
7285869.434907
 31
0.0
210
0.0
220
0.0
230
1.0
  0
TEXT
  8
11
  6
CONTINUOUS
 62
     7
  5
522
 10
921960.502
 20
7285864.106
 30
0.0
 40
8.0
  1
153.07'
 50
336.1335
  7
txt
 72
     4
 11
921982.455043
 21
7285858.767122
 31
0.0
210
0.0
220
0.0
230
1.0
  0
TEXT
  8
11
  6
CONTINUOUS
 62
     7
  5
523
 10
922118.789
 20
7285833.843
 30
0.0
 40
8.0
  1
65'
 50
313.1335
  7
txt
 72
     4
 11
922128.167654
 21
7285829.683005
 31
0.0
210
0.0
220
0.0
230
1.0
  0
TEXT
  8
11
  6
CONTINUOUS
 62
     7
  5
524
 10
922160.693
 20
7285788.596
 30
0.0
 40
8.0
  1
65'
 50
313.1335
  7
txt
 72
     4
 11
922170.071654
 21
7285784.436005
 31
0.0
210
0.0
220
0.0
230
1.0
  0
TEXT
  8
11
  6
CONTINUOUS
 62
     7
  5
525
 10
922204.057
 20
7285742.303
 30
0.0
 40
8.0
  1
65'
 50
313.1335
  7
txt
 72
     4
 11
922213.435654
 21
7285738.143005
 31
0.0
210
0.0
220
0.0
230
1.0
  0
TEXT
  8
11
  6
CONTINUOUS
 62
     7
  5
526
 10
922396.436
 20
7285877.653
 30
0.0
 40
8.0
  1
65'
 50
313.1335
  7
txt
 72
     4
 11
922405.814654
 21
7285873.493005
 31
0.0
210
0.0
220
0.0
230
1.0
  0
TEXT
  8
11
  6
CONTINUOUS
 62
     7
  5
527
 10
922441.729
 20
7285829.303
 30
0.0
 40
8.0
  1
65'
 50
313.1335
  7
txt
 72
     4
 11
922451.107654
 21
7285825.143005
 31
0.0
210
0.0
220
0.0
230
1.0
  0
TEXT
  8
11
  6
CONTINUOUS
 62
     7
  5
528
 10
922093.76
 20
7285755.177
 30
0.0
 40
8.0
  1
189.65'
 50
313.1335
  7
txt
 72
     4
 11
922111.622694
 21
7285741.96138
 31
0.0
210
0.0
220
0.0
230
1.0
  0
SOLID
  8
21
  6
DASHDOT
 62
     7
  5
529
 10
921614.908
 20
7286065.988
 30
0.0
 11
921618.906
 21
7286065.858
 31
0.0
 12
921614.778
 22
7286061.99
 32
0.0
 13
921618.776
 23
7286061.86
 33
0.0
  0
TEXT
  8
22
  6
CONTINUOUS
 62
     3
  5
52A
 10
921618.474
 20
7286054.796
 30
0.0
 40
6.0
  1
TPE-SPS
 50
358.1335
  7
txt
 72
     4
 11
921637.883461
 21
7286057.165075
 31
0.0
210
0.0
220
0.0
230
1.0
  0
TEXT
  8
22
  6
CONTINUOUS
 62
     3
  5
52B
 10
921683.726
 20
7286052.67
 30
0.0
 40
6.0
  1
TPE-LPL
 50
358.1335
  7
txt
 72
     4
 11
921702.568762
 21
7286055.057543
 31
0.0
210
0.0
220
0.0
230
1.0
  0
SOLID
  8
21
  6
DASHDOT
 62
     7
  5
52C
 10
921679.874
 20
7286063.871
 30
0.0
 11
921683.872
 21
7286063.741
 31
0.0
 12
921679.744
 22
7286059.873
 32
0.0
 13
921683.742
 23
7286059.743
 33
0.0
  0
SOLID
  8
21
  6
DASHDOT
 62
     7
  5
52D
 10
922039.933
 20
7286052.137
 30
0.0
 11
922038.493
 21
7286048.406
 31
0.0
 12
922044.067
 22
7286051.94
 32
0.0
 13
922042.491
 23
7286048.264
 33
0.0
  0
TEXT
  8
22
  6
CONTINUOUS
 62
     3
  5
52E
 10
922003.307
 20
7286056.455
 30
0.0
 40
6.0
  1
TPE-LPL
 50
358.1335
  7
txt
 72
     4
 11
922022.149762
 21
7286058.842543
 31
0.0
210
0.0
220
0.0
230
1.0
  0
SOLID
  8
21
  6
DASHDOT
 62
     7
  5
52F
 10
922112.223
 20
7286002.092
 30
0.0
 11
922110.015
 21
7285998.758
 31
0.0
 12
922114.902
 22
7285999.208
 32
0.0
 13
922112.611
 23
7285995.918
 33
0.0
  0
TEXT
  8
22
  6
CONTINUOUS
 62
     3
  5
530
 10
922114.825
 20
7286001.194
 30
0.0
 40
6.0
  1
TPE-SPS
 50
313.1335
  7
txt
 72
     4
 11
922130.22475
 21
7285989.144628
 31
0.0
210
0.0
220
0.0
230
1.0
  0
TEXT
  8
11
  6
CONTINUOUS
 62
     7
  5
531
 10
922006.322
 20
7285970.73
 30
0.0
 40
8.0
  1
133.45'
 50
68.1335
  7
txt
 72
     4
 11
922010.961868
 21
7285993.031396
 31
0.0
210
0.0
220
0.0
230
1.0
  0
TEXT
  8
11
  6
CONTINUOUS
 62
     7
  5
532
 10
922066.804
 20
7285935.995
 30
0.0
 40
8.0
  1
121.78'
 50
58.1335
  7
txt
 72
     4
 11
922074.414466
 21
7285955.814266
 31
0.0
210
0.0
220
0.0
230
1.0
  0
TEXT
  8
11
  6
CONTINUOUS
 62
     7
  5
533
 10
922470.325
 20
7285898.432
 30
0.0
 40
8.0
  1
65'
 50
313.1335
  7
txt
 72
     4
 11
922479.703654
 21
7285894.272005
 31
0.0
210
0.0
220
0.0
230
1.0
  0
TEXT
  8
11
  6
CONTINUOUS
 62
     7
  5
534
 10
922515.35
 20
7285850.367
 30
0.0
 40
8.0
  1
65'
 50
313.1335
  7
txt
 72
     4
 11
922524.728654
 21
7285846.207005
 31
0.0
210
0.0
220
0.0
230
1.0
  0
TEXT
  8
11
  6
CONTINUOUS
 62
     7
  5
535
 10
922404.625
 20
7286046.301
 30
0.0
 40
8.0
  1
97'
 50
43.1335
  7
txt
 72
     4
 11
922408.808348
 21
7286055.701532
 31
0.0
210
0.0
220
0.0
230
1.0
  0
TEXT
  8
11
  6
CONTINUOUS
 62
     7
  5
536
 10
922449.776
 20
7285996.377
 30
0.0
 40
8.0
  1
97'
 50
43.1335
  7
txt
 72
     4
 11
922453.959348
 21
7286005.777532
 31
0.0
210
0.0
220
0.0
230
1.0
  0
TEXT
  8
11
  6
CONTINUOUS
 62
     7
  5
537
 10
922482.7
 20
7285948.507
 30
0.0
 40
8.0
  1
112'
 50
43.1335
  7
txt
 72
     4
 11
922487.848094
 21
7285958.811384
 31
0.0
210
0.0
220
0.0
230
1.0
  0
TEXT
  8
11
  6
CONTINUOUS
 62
     7
  5
538
 10
922572.828
 20
7285854.784
 30
0.0
 40
8.0
  1
112'
 50
43.1335
  7
txt
 72
     4
 11
922577.976094
 21
7285865.088384
 31
0.0
210
0.0
220
0.0
230
1.0
  0
TEXT
  8
11
  6
CONTINUOUS
 62
     7
  5
539
 10
922498.005
 20
7286014.569
 30
0.0
 40
8.0
  1
70'
 50
313.1335
  7
txt
 72
     4
 11
922507.512873
 21
7286010.27108
 31
0.0
210
0.0
220
0.0
230
1.0
  0
TEXT
  8
11
  6
CONTINUOUS
 62
     7
  5
53A
 10
922426.404
 20
7285944.464
 30
0.0
 40
8.0
  1
55'
 50
313.1335
  7
txt
 72
     4
 11
922435.912557
 21
7285940.16535
 31
0.0
210
0.0
220
0.0
230
1.0
  0
TEXT
  8
11
  6
CONTINUOUS
 62
     7
  5
53B
 10
922616.458
 20
7285887.296
 30
0.0
 40
8.0
  1
43.35'
 50
313.1335
  7
txt
 72
     4
 11
922632.943037
 21
7285875.550852
 31
0.0
210
0.0
220
0.0
230
1.0
  0
TEXT
  8
11
  6
CONTINUOUS
 62
     7
  5
53C
 10
922553.11
 20
7285808.821
 30
0.0
 40
8.0
  1
67.60'
 50
323.1335
  7
txt
 72
     4
 11
922570.929696
 21
7285800.457657
 31
0.0
210
0.0
220
0.0
230
1.0
  0
TEXT
  8
11
  6
CONTINUOUS
 62
     7
  5
53D
 10
922632.138
 20
7285761.965
 30
0.0
 40
8.0
  1
88.42'
 50
348.1335
  7
txt
 72
     4
 11
922652.378492
 21
7285761.799367
 31
0.0
210
0.0
220
0.0
230
1.0
  0
TEXT
  8
11
  6
CONTINUOUS
 62
     7
  5
53E
 10
922615.052
 20
7285808.062
 30
0.0
 40
8.0
  1
105.01'
 50
58.1335
  7
txt
 72
     4
 11
922622.612311
 21
7285827.800584
 31
0.0
210
0.0
220
0.0
230
1.0
  0
SOLID
  8
21
  6
DASHDOT
 62
     7
  5
53F
 10
922577.351
 20
7285944.418
 30
0.0
 11
922574.444
 21
7285941.671
 31
0.0
 12
922580.098
 22
7285941.51
 32
0.0
 13
922577.191
 23
7285938.763
 33
0.0
  0
SOLID
  8
21
  6
DASHDOT
 62
     7
  5
540
 10
922574.605
 20
7285947.326
 30
0.0
 11
922571.697
 21
7285944.579
 31
0.0
 12
922577.351
 22
7285944.418
 32
0.0
 13
922574.444
 23
7285941.671
 33
0.0
  0
TEXT
  8
22
  6
CONTINUOUS
 62
     3
  5
541
 10
922279.996
 20
7285807.927
 30
0.0
 40
6.0
  1
TPE-LPL
 50
313.1335
  7
txt
 72
     4
 11
922295.008092
 21
7285796.291403
 31
0.0
210
0.0
220
0.0
230
1.0
  0
TEXT
  8
22
  6
CONTINUOUS
 62
     3
  5
542
 10
922396.071
 20
7285682.228
 30
0.0
 40
6.0
  1
TPE-SPS
 50
313.1335
  7
txt
 72
     4
 11
922411.47075
 21
7285670.178628
 31
0.0
210
0.0
220
0.0
230
1.0
  0
TEXT
  8
11
  6
CONTINUOUS
 62
     7
  5
543
 10
922686.764
 20
7285786.281
 30
0.0
 40
8.0
  1
112.82'
 50
80.1335
  7
txt
 72
     4
 11
922686.39039
 21
7285807.476508
 31
0.0
210
0.0
220
0.0
230
1.0
  0
TEXT
  8
11
  6
CONTINUOUS
 62
     7
  5
544
 10
922671.29
 20
7285854.86
 30
0.0
 40
8.0
  1
50'
 50
358.1335
  7
txt
 72
     4
 11
922681.021187
 21
7285858.545003
 31
0.0
210
0.0
220
0.0
230
1.0
  0
TEXT
  8
11
  6
CONTINUOUS
 62
     7
  5
545
 10
922701.971
 20
7285753.313
 30
0.0
 40
8.0
  1
68.58'
 50
358.1335
  7
txt
 72
     4
 11
922721.554956
 21
7285756.676919
 31
0.0
210
0.0
220
0.0
230
1.0
  0
TEXT
  8
11
  6
CONTINUOUS
 62
     7
  5
546
 10
922752.643
 20
7285800.715
 30
0.0
 40
8.0
  1
112'
 50
88.1335
  7
txt
 72
     4
 11
922748.996952
 21
7285811.641552
 31
0.0
210
0.0
220
0.0
230
1.0
  0
SOLID
  8
21
  6
DASHDOT
 62
     7
  5
547
 10
922756.502
 20
7285861.74
 30
0.0
 11
922756.372
 21
7285857.742
 31
0.0
 12
922760.5
 22
7285861.61
 32
0.0
 13
922760.37
 23
7285857.612
 33
0.0
  0
SOLID
  8
21
  6
DASHDOT
 62
     7
  5
548
 10
922752.504
 20
7285861.87
 30
0.0
 11
922752.374
 21
7285857.873
 31
0.0
 12
922756.502
 22
7285861.74
 32
0.0
 13
922756.372
 23
7285857.742
 33
0.0
  0
TEXT
  8
22
  6
CONTINUOUS
 62
     3
  5
549
 10
922718.055
 20
7285852.12
 30
0.0
 40
6.0
  1
TPE-LPL
 50
358.1335
  7
txt
 72
     4
 11
922736.897762
 21
7285854.507543
 31
0.0
210
0.0
220
0.0
230
1.0
  0
TEXT
  8
22
  6
CONTINUOUS
 62
     3
  5
54A
 10
922760.232
 20
7285850.746
 30
0.0
 40
6.0
  1
TPE-SPS
 50
358.1335
  7
txt
 72
     4
 11
922779.641461
 21
7285853.115075
 31
0.0
210
0.0
220
0.0
230
1.0
  0
SOLID
  8
21
  6
DASHDOT
 62
     7
  5
54B
 10
923095.681
 20
7285850.687
 30
0.0
 11
923095.551
 21
7285846.689
 31
0.0
 12
923099.679
 22
7285850.556
 32
0.0
 13
923099.549
 23
7285846.558
 33
0.0
  0
SOLID
  8
21
  6
DASHDOT
 62
     7
  5
54C
 10
923091.684
 20
7285850.817
 30
0.0
 11
923091.553
 21
7285846.819
 31
0.0
 12
923095.681
 22
7285850.687
 32
0.0
 13
923095.551
 23
7285846.689
 33
0.0
  0
TEXT
  8
22
  6
CONTINUOUS
 62
     3
  5
54D
 10
923057.235
 20
7285841.067
 30
0.0
 40
6.0
  1
TPE-LPL
 50
358.1335
  7
txt
 72
     4
 11
923076.077762
 21
7285843.454543
 31
0.0
210
0.0
220
0.0
230
1.0
  0
TEXT
  8
22
  6
CONTINUOUS
 62
     3
  5
54E
 10
923099.413
 20
7285839.692
 30
0.0
 40
6.0
  1
TPE-SPS
 50
358.1335
  7
txt
 72
     4
 11
923118.822461
 21
7285842.061075
 31
0.0
210
0.0
220
0.0
230
1.0
  0
SOLID
  8
21
  6
DASHDOT
 62
     7
  5
54F
 10
923430.504
 20
7285839.775
 30
0.0
 11
923430.374
 21
7285835.777
 31
0.0
 12
923434.502
 22
7285839.645
 32
0.0
 13
923434.372
 23
7285835.647
 33
0.0
  0
SOLID
  8
21
  6
DASHDOT
 62
     7
  5
550
 10
923426.506
 20
7285839.906
 30
0.0
 11
923426.376
 21
7285835.907
 31
0.0
 12
923430.504
 22
7285839.775
 32
0.0
 13
923430.374
 23
7285835.777
 33
0.0
  0
TEXT
  8
22
  6
CONTINUOUS
 62
     3
  5
551
 10
923392.057
 20
7285830.155
 30
0.0
 40
6.0
  1
TPE-LPL
 50
358.1335
  7
txt
 72
     4
 11
923410.899762
 21
7285832.542543
 31
0.0
210
0.0
220
0.0
230
1.0
  0
TEXT
  8
22
  6
CONTINUOUS
 62
     3
  5
552
 10
923434.235
 20
7285828.781
 30
0.0
 40
6.0
  1
TPE-SPS
 50
358.1335
  7
txt
 72
     4
 11
923453.644461
 21
7285831.150075
 31
0.0
210
0.0
220
0.0
230
1.0
  0
SOLID
  8
21
  6
DASHDOT
 62
     7
  5
553
 10
923826.294
 20
7285826.877
 30
0.0
 11
923826.163
 21
7285822.88
 31
0.0
 12
923830.292
 22
7285826.747
 32
0.0
 13
923830.161
 23
7285822.749
 33
0.0
  0
SOLID
  8
21
  6
DASHDOT
 62
     7
  5
554
 10
923822.296
 20
7285827.008
 30
0.0
 11
923822.166
 21
7285823.01
 31
0.0
 12
923826.294
 22
7285826.877
 32
0.0
 13
923826.163
 23
7285822.88
 33
0.0
  0
TEXT
  8
22
  6
CONTINUOUS
 62
     3
  5
555
 10
923787.848
 20
7285817.257
 30
0.0
 40
6.0
  1
TPE-LPL
 50
358.1335
  7
txt
 72
     4
 11
923806.690762
 21
7285819.644543
 31
0.0
210
0.0
220
0.0
230
1.0
  0
TEXT
  8
22
  6
CONTINUOUS
 62
     3
  5
556
 10
923830.025
 20
7285815.883
 30
0.0
 40
6.0
  1
TPE-SPS
 50
358.1335
  7
txt
 72
     4
 11
923849.434461
 21
7285818.252075
 31
0.0
210
0.0
220
0.0
230
1.0
  0
TEXT
  8
11
  6
CONTINUOUS
 62
     7
  5
557
 10
923561.192
 20
7285773.072
 30
0.0
 40
8.0
  1
112'
 50
88.1335
  7
txt
 72
     4
 11
923557.545952
 21
7285783.998552
 31
0.0
210
0.0
220
0.0
230
1.0
  0
TEXT
  8
11
  6
CONTINUOUS
 62
     7
  5
558
 10
923757.18
 20
7285764.375
 30
0.0
 40
8.0
  1
112'
 50
88.1335
  7
txt
 72
     4
 11
923753.533952
 21
7285775.301552
 31
0.0
210
0.0
220
0.0
230
1.0
  0
TEXT
  8
11
  6
CONTINUOUS
 62
     7
  5
559
 10
923631.924
 20
7285775.322
 30
0.0
 40
8.0
  1
97'
 50
88.1335
  7
txt
 72
     4
 11
923628.234894
 21
7285784.927253
 31
0.0
210
0.0
220
0.0
230
1.0
  0
TEXT
  8
11
  6
CONTINUOUS
 62
     7
  5
55A
 10
923698.8
 20
7285772.682
 30
0.0
 40
8.0
  1
97'
 50
88.1335
  7
txt
 72
     4
 11
923695.110894
 21
7285782.287253
 31
0.0
210
0.0
220
0.0
230
1.0
  0
TEXT
  8
11
  6
CONTINUOUS
 62
     7
  5
55B
 10
923952.901
 20
7285761.692
 30
0.0
 40
8.0
  1
112'
 50
88.1335
  7
txt
 72
     4
 11
923949.254952
 21
7285772.618552
 31
0.0
210
0.0
220
0.0
230
1.0
  0
SOLID
  8
21
  6
DASHDOT
 62
     7
  5
55C
 10
923623.621
 20
7285533.323
 30
0.0
 11
923623.49
 21
7285529.325
 31
0.0
 12
923627.619
 22
7285533.193
 32
0.0
 13
923627.489
 23
7285529.195
 33
0.0
  0
SOLID
  8
21
  6
DASHDOT
 62
     7
  5
55D
 10
923619.623
 20
7285533.453
 30
0.0
 11
923619.492
 21
7285529.455
 31
0.0
 12
923623.621
 22
7285533.323
 32
0.0
 13
923623.49
 23
7285529.325
 33
0.0
  0
TEXT
  8
22
  6
CONTINUOUS
 62
     3
  5
55E
 10
923628.168
 20
7285521.211
 30
0.0
 40
6.0
  1
TPE-LPL
 50
358.1335
  7
txt
 72
     4
 11
923647.010762
 21
7285523.598543
 31
0.0
210
0.0
220
0.0
230
1.0
  0
TEXT
  8
22
  6
CONTINUOUS
 62
     3
  5
55F
 10
923580.457
 20
7285522.22
 30
0.0
 40
6.0
  1
TPE-SPS
 50
358.1335
  7
txt
 72
     4
 11
923599.866461
 21
7285524.589075
 31
0.0
210
0.0
220
0.0
230
1.0
  0
TEXT
  8
11
  6
CONTINUOUS
 62
     7
  5
560
 10
923948.416
 20
7285590.606
 30
0.0
 40
8.0
  1
112'
 50
88.1335
  7
txt
 72
     4
 11
923944.769952
 21
7285601.532552
 31
0.0
210
0.0
220
0.0
230
1.0
  0
TEXT
  8
11
  6
CONTINUOUS
 62
     7
  5
561
 10
923879.286
 20
7285460.346
 30
0.0
 40
8.0
  1
112'
 50
88.1335
  7
txt
 72
     4
 11
923875.639952
 21
7285471.272552
 31
0.0
210
0.0
220
0.0
230
1.0
  0
SOLID
  8
21
  6
DASHDOT
 62
     7
  5
562
 10
923883.484
 20
7285524.854
 30
0.0
 11
923883.353
 21
7285520.857
 31
0.0
 12
923887.481
 22
7285524.724
 32
0.0
 13
923887.351
 23
7285520.726
 33
0.0
  0
SOLID
  8
21
  6
DASHDOT
 62
     7
  5
563
 10
923879.486
 20
7285524.985
 30
0.0
 11
923879.355
 21
7285520.987
 31
0.0
 12
923883.484
 22
7285524.854
 32
0.0
 13
923883.353
 23
7285520.857
 33
0.0
  0
TEXT
  8
22
  6
CONTINUOUS
 62
     3
  5
564
 10
923886.703
 20
7285526.364
 30
0.0
 40
6.0
  1
TPE-LPL
 50
358.1335
  7
txt
 72
     4
 11
923905.545762
 21
7285528.751543
 31
0.0
210
0.0
220
0.0
230
1.0
  0
TEXT
  8
22
  6
CONTINUOUS
 62
     3
  5
565
 10
923840.319
 20
7285513.752
 30
0.0
 40
6.0
  1
TPE-SPS
 50
358.1335
  7
txt
 72
     4
 11
923859.728461
 21
7285516.121075
 31
0.0
210
0.0
220
0.0
230
1.0
  0
SOLID
  8
21
  6
DASHDOT
 62
     7
  5
566
 10
923297.794
 20
7285543.941
 30
0.0
 11
923297.664
 21
7285539.943
 31
0.0
 12
923301.792
 22
7285543.811
 32
0.0
 13
923301.662
 23
7285539.813
 33
0.0
  0
SOLID
  8
21
  6
DASHDOT
 62
     7
  5
567
 10
923293.796
 20
7285544.071
 30
0.0
 11
923293.666
 21
7285540.073
 31
0.0
 12
923297.794
 22
7285543.941
 32
0.0
 13
923297.664
 23
7285539.943
 33
0.0
  0
TEXT
  8
22
  6
CONTINUOUS
 62
     3
  5
568
 10
923302.341
 20
7285531.829
 30
0.0
 40
6.0
  1
TPE-LPL
 50
358.1335
  7
txt
 72
     4
 11
923321.183762
 21
7285534.216543
 31
0.0
210
0.0
220
0.0
230
1.0
  0
TEXT
  8
22
  6
CONTINUOUS
 62
     3
  5
569
 10
923254.631
 20
7285532.839
 30
0.0
 40
6.0
  1
TPE-SPS
 50
358.1335
  7
txt
 72
     4
 11
923274.040461
 21
7285535.208075
 31
0.0
210
0.0
220
0.0
230
1.0
  0
SOLID
  8
21
  6
DASHDOT
 62
     7
  5
56A
 10
923037.932
 20
7285552.409
 30
0.0
 11
923037.802
 21
7285548.412
 31
0.0
 12
923041.93
 22
7285552.279
 32
0.0
 13
923041.8
 23
7285548.281
 33
0.0
  0
SOLID
  8
21
  6
DASHDOT
 62
     7
  5
56B
 10
923098.899
 20
7285550.423
 30
0.0
 11
923098.769
 21
7285546.425
 31
0.0
 12
923102.897
 22
7285550.292
 32
0.0
 13
923102.767
 23
7285546.294
 33
0.0
  0
TEXT
  8
22
  6
CONTINUOUS
 62
     3
  5
56C
 10
923042.516
 20
7285540.663
 30
0.0
 40
6.0
  1
TPE-LPL
 50
358.1335
  7
txt
 72
     4
 11
923061.358762
 21
7285543.050543
 31
0.0
210
0.0
220
0.0
230
1.0
  0
TEXT
  8
22
  6
CONTINUOUS
 62
     3
  5
56D
 10
923104.488
 20
7285538.709
 30
0.0
 40
6.0
  1
TPE-SPS
 50
358.1335
  7
txt
 72
     4
 11
923123.897461
 21
7285541.078075
 31
0.0
210
0.0
220
0.0
230
1.0
  0
TEXT
  8
11
  6
CONTINUOUS
 62
     7
  5
56E
 10
922841.956
 20
7285622.517
 30
0.0
 40
8.0
  1
112'
 50
88.1335
  7
txt
 72
     4
 11
922838.309952
 21
7285633.443552
 31
0.0
210
0.0
220
0.0
230
1.0
  0
TEXT
  8
11
  6
CONTINUOUS
 62
     7
  5
56F
 10
922837.399
 20
7285499.422
 30
0.0
 40
8.0
  1
112'
 50
88.1335
  7
txt
 72
     4
 11
922833.752952
 21
7285510.348552
 31
0.0
210
0.0
220
0.0
230
1.0
  0
TEXT
  8
11
  6
CONTINUOUS
 62
     7
  5
570
 10
923034.256
 20
7285500.096
 30
0.0
 40
8.0
  1
112'
 50
88.1335
  7
txt
 72
     4
 11
923030.609952
 21
7285511.022552
 31
0.0
210
0.0
220
0.0
230
1.0
  0
TEXT
  8
11
  6
CONTINUOUS
 62
     7
  5
571
 10
923038.617
 20
7285617.198
 30
0.0
 40
8.0
  1
112'
 50
88.1335
  7
txt
 72
     4
 11
923034.970952
 21
7285628.124552
 31
0.0
210
0.0
220
0.0
230
1.0
  0
SOLID
  8
21
  6
DASHDOT
 62
     7
  5
572
 10
922708.107
 20
7285563.158
 30
0.0
 11
922707.977
 21
7285559.16
 31
0.0
 12
922712.105
 22
7285563.028
 32
0.0
 13
922711.975
 23
7285559.03
 33
0.0
  0
SOLID
  8
21
  6
DASHDOT
 62
     7
  5
573
 10
922777.071
 20
7285560.911
 30
0.0
 11
922776.941
 21
7285556.913
 31
0.0
 12
922781.069
 22
7285560.78
 32
0.0
 13
922780.938
 23
7285556.782
 33
0.0
  0
TEXT
  8
22
  6
CONTINUOUS
 62
     3
  5
574
 10
922669.394
 20
7285553.007
 30
0.0
 40
6.0
  1
TPE-SPS
 50
358.1335
  7
txt
 72
     4
 11
922688.803461
 21
7285555.376075
 31
0.0
210
0.0
220
0.0
230
1.0
  0
TEXT
  8
22
  6
CONTINUOUS
 62
     3
  5
575
 10
922782.033
 20
7285549.519
 30
0.0
 40
6.0
  1
TPE-LPL
 50
358.1335
  7
txt
 72
     4
 11
922800.875762
 21
7285551.906543
 31
0.0
210
0.0
220
0.0
230
1.0
  0
TEXT
  8
11
  6
CONTINUOUS
 62
     7
  5
576
 10
922578.596
 20
7285504.203
 30
0.0
 40
8.0
  1
112'
 50
88.1335
  7
txt
 72
     4
 11
922574.949952
 21
7285515.129552
 31
0.0
210
0.0
220
0.0
230
1.0
  0
TEXT
  8
11
  6
CONTINUOUS
 62
     7
  5
577
 10
922712.831
 20
7285627.82
 30
0.0
 40
8.0
  1
112'
 50
88.1335
  7
txt
 72
     4
 11
922709.184952
 21
7285638.746552
 31
0.0
210
0.0
220
0.0
230
1.0
  0
SOLID
  8
21
  6
DASHDOT
 62
     7
  5
578
 10
922517.579
 20
7285569.367
 30
0.0
 11
922516.388
 21
7285565.735
 31
0.0
 12
922521.576
 22
7285569.237
 32
0.0
 13
922520.387
 23
7285565.605
 33
0.0
  0
TEXT
  8
22
  6
CONTINUOUS
 62
     3
  5
579
 10
922519.898
 20
7285570.351
 30
0.0
 40
6.0
  1
TPE-LPL
 50
358.1335
  7
txt
 72
     4
 11
922538.740762
 21
7285572.738543
 31
0.0
210
0.0
220
0.0
230
1.0
  0
TEXT
  8
11
  6
CONTINUOUS
 62
     7
  5
57A
 10
922575.042
 20
7285589.287
 30
0.0
 40
8.0
  1
116.34'
 50
358.1335
  7
txt
 72
     4
 11
922595.979238
 21
7285592.606819
 31
0.0
210
0.0
220
0.0
230
1.0
  0
TEXT
  8
11
  6
CONTINUOUS
 62
     7
  5
57B
 10
923363.19
 20
7285605.832
 30
0.0
 40
8.0
  1
112'
 50
88.1335
  7
txt
 72
     4
 11
923359.543952
 21
7285616.758552
 31
0.0
210
0.0
220
0.0
230
1.0
  0
TEXT
  8
11
  6
CONTINUOUS
 62
     7
  5
57C
 10
923358.573
 20
7285479.486
 30
0.0
 40
8.0
  1
112'
 50
88.1335
  7
txt
 72
     4
 11
923354.926952
 21
7285490.412552
 31
0.0
210
0.0
220
0.0
230
1.0
  0
TEXT
  8
11
  6
CONTINUOUS
 62
     7
  5
57D
 10
923559.595
 20
7285603.93
 30
0.0
 40
8.0
  1
112'
 50
88.1335
  7
txt
 72
     4
 11
923555.948952
 21
7285614.856552
 31
0.0
210
0.0
220
0.0
230
1.0
  0
TEXT
  8
11
  6
CONTINUOUS
 62
     7
  5
57E
 10
923554.896
 20
7285475.087
 30
0.0
 40
8.0
  1
112'
 50
88.1335
  7
txt
 72
     4
 11
923551.249952
 21
7285486.013552
 31
0.0
210
0.0
220
0.0
230
1.0
  0
TEXT
  8
11
  6
CONTINUOUS
 62
     7
  5
57F
 10
923970.575
 20
7285435.195
 30
0.0
 40
8.0
  1
83.67'
 50
338.1335
  7
txt
 72
     4
 11
923990.157197
 21
7285431.646397
 31
0.0
210
0.0
220
0.0
230
1.0
  0
TEXT
  8
11
  6
CONTINUOUS
 62
     7
  5
580
 10
923966.051
 20
7285321.056
 30
0.0
 40
8.0
  1
83.67'
 50
18.1335
  7
txt
 72
     4
 11
923983.332831
 21
7285330.924806
 31
0.0
210
0.0
220
0.0
230
1.0
  0
SOLID
  8
21
  6
DASHDOT
 62
     7
  5
581
 10
923874.497
 20
7285249.001
 30
0.0
 11
923874.367
 21
7285245.003
 31
0.0
 12
923878.495
 22
7285248.871
 32
0.0
 13
923878.365
 23
7285244.873
 33
0.0
  0
TEXT
  8
22
  6
CONTINUOUS
 62
     3
  5
582
 10
923878.857
 20
7285213.161
 30
0.0
 40
6.0
  1
TPE-LPL
 50
358.1335
  7
txt
 72
     4
 11
923897.699762
 21
7285215.548543
 31
0.0
210
0.0
220
0.0
230
1.0
  0
TEXT
  8
22
  6
CONTINUOUS
 62
     3
  5
583
 10
923881.461
 20
7285236.733
 30
0.0
 40
6.0
  1
TPE-SPS
 50
358.1335
  7
txt
 72
     4
 11
923900.870461
 21
7285239.102075
 31
0.0
210
0.0
220
0.0
230
1.0
  0
SOLID
  8
21
  6
DASHDOT
 62
     7
  5
584
 10
923689.596
 20
7285255.026
 30
0.0
 11
923689.465
 21
7285251.028
 31
0.0
 12
923693.594
 22
7285254.896
 32
0.0
 13
923693.463
 23
7285250.898
 33
0.0
  0
SOLID
  8
21
  6
DASHDOT
 62
     7
  5
585
 10
923429.734
 20
7285263.494
 30
0.0
 11
923429.604
 21
7285259.497
 31
0.0
 12
923433.732
 22
7285263.364
 32
0.0
 13
923433.601
 23
7285259.366
 33
0.0
  0
SOLID
  8
21
  6
DASHDOT
 62
     7
  5
586
 10
922910.01
 20
7285280.431
 30
0.0
 11
922909.88
 21
7285276.433
 31
0.0
 12
922914.008
 22
7285280.301
 32
0.0
 13
922913.877
 23
7285276.303
 33
0.0
  0
TEXT
  8
22
  6
CONTINUOUS
 62
     3
  5
587
 10
922868.957
 20
7285284.283
 30
0.0
 40
6.0
  1
TPE-SPS
 50
358.1335
  7
txt
 72
     4
 11
922888.366461
 21
7285286.652075
 31
0.0
210
0.0
220
0.0
230
1.0
  0
TEXT
  8
22
  6
CONTINUOUS
 62
     3
  5
588
 10
923389.976
 20
7285266.714
 30
0.0
 40
6.0
  1
TPE-SPS
 50
358.1335
  7
txt
 72
     4
 11
923409.385461
 21
7285269.083075
 31
0.0
210
0.0
220
0.0
230
1.0
  0
TEXT
  8
22
  6
CONTINUOUS
 62
     3
  5
589
 10
923649.76
 20
7285258.248
 30
0.0
 40
6.0
  1
TPE-SPS
 50
358.1335
  7
txt
 72
     4
 11
923669.169461
 21
7285260.617075
 31
0.0
210
0.0
220
0.0
230
1.0
  0
SOLID
  8
21
  6
DASHDOT
 62
     7
  5
58A
 10
923692.812
 20
7285230.909
 30
0.0
 11
923692.682
 21
7285226.911
 31
0.0
 12
923696.81
 22
7285230.778
 32
0.0
 13
923696.68
 23
7285226.781
 33
0.0
  0
SOLID
  8
21
  6
DASHDOT
 62
     7
  5
58B
 10
923873.716
 20
7285225.014
 30
0.0
 11
923873.585
 21
7285221.016
 31
0.0
 12
923877.713
 22
7285224.884
 32
0.0
 13
923877.583
 23
7285220.885
 33
0.0
  0
SOLID
  8
21
  6
DASHDOT
 62
     7
  5
58C
 10
923432.95
 20
7285239.377
 30
0.0
 11
923432.82
 21
7285235.379
 31
0.0
 12
923436.948
 22
7285239.247
 32
0.0
 13
923436.818
 23
7285235.249
 33
0.0
  0
SOLID
  8
21
  6
DASHDOT
 62
     7
  5
58D
 10
923173.088
 20
7285247.845
 30
0.0
 11
923172.958
 21
7285243.848
 31
0.0
 12
923177.086
 22
7285247.715
 32
0.0
 13
923176.956
 23
7285243.717
 33
0.0
  0
SOLID
  8
21
  6
DASHDOT
 62
     7
  5
58E
 10
922913.226
 20
7285256.314
 30
0.0
 11
922913.096
 21
7285252.316
 31
0.0
 12
922917.224
 22
7285256.184
 32
0.0
 13
922917.094
 23
7285252.186
 33
0.0
  0
TEXT
  8
22
  6
CONTINUOUS
 62
     3
  5
58F
 10
922918.158
 20
7285243.877
 30
0.0
 40
6.0
  1
TPE-LPL
 50
358.1335
  7
txt
 72
     4
 11
922937.000762
 21
7285246.264543
 31
0.0
210
0.0
220
0.0
230
1.0
  0
TEXT
  8
22
  6
CONTINUOUS
 62
     3
  5
590
 10
923178.785
 20
7285235.975
 30
0.0
 40
6.0
  1
TPE-LPL
 50
358.1335
  7
txt
 72
     4
 11
923197.627762
 21
7285238.362543
 31
0.0
210
0.0
220
0.0
230
1.0
  0
TEXT
  8
22
  6
CONTINUOUS
 62
     3
  5
591
 10
923437.843
 20
7285226.942
 30
0.0
 40
6.0
  1
TPE-LPL
 50
358.1335
  7
txt
 72
     4
 11
923456.685762
 21
7285229.329543
 31
0.0
210
0.0
220
0.0
230
1.0
  0
TEXT
  8
22
  6
CONTINUOUS
 62
     3
  5
592
 10
923697.899
 20
7285219.648
 30
0.0
 40
6.0
  1
TPE-LPL
 50
358.1335
  7
txt
 72
     4
 11
923716.741762
 21
7285222.035543
 31
0.0
210
0.0
220
0.0
230
1.0
  0
SOLID
  8
21
  6
DASHDOT
 62
     7
  5
593
 10
922315.188
 20
7285785.428
 30
0.0
 11
922312.28
 21
7285782.681
 31
0.0
 12
922317.935
 22
7285782.521
 32
0.0
 13
922315.027
 23
7285779.774
 33
0.0
  0
SOLID
  8
21
  6
DASHDOT
 62
     7
  5
594
 10
922400.652
 20
7285694.208
 30
0.0
 11
922397.744
 21
7285691.461
 31
0.0
 12
922403.399
 22
7285691.301
 32
0.0
 13
922400.49
 23
7285688.554
 33
0.0
  0
TEXT
  8
11
  6
CONTINUOUS
 62
     7
  5
595
 10
922427.937
 20
7285763.962
 30
0.0
 40
8.0
  1
112'
 50
43.1335
  7
txt
 72
     4
 11
922433.085094
 21
7285774.266384
 31
0.0
210
0.0
220
0.0
230
1.0
  0
TEXT
  8
11
  6
CONTINUOUS
 62
     7
  5
596
 10
922245.768
 20
7285698.905
 30
0.0
 40
8.0
  1
65'
 50
313.1335
  7
txt
 72
     4
 11
922255.146654
 21
7285694.745005
 31
0.0
210
0.0
220
0.0
230
1.0
  0
TEXT
  8
11
  6
CONTINUOUS
 62
     7
  5
597
 10
922291.137
 20
7285650.473
 30
0.0
 40
8.0
  1
65'
 50
313.1335
  7
txt
 72
     4
 11
922300.515654
 21
7285646.313005
 31
0.0
210
0.0
220
0.0
230
1.0
  0
TEXT
  8
11
  6
CONTINUOUS
 62
     7
  5
598
 10
922340.708
 20
7285596.99
 30
0.0
 40
8.0
  1
65'
 50
313.1335
  7
txt
 72
     4
 11
922350.086654
 21
7285592.830005
 31
0.0
210
0.0
220
0.0
230
1.0
  0
TEXT
  8
11
  6
CONTINUOUS
 62
     7
  5
599
 10
922384.494
 20
7285550.248
 30
0.0
 40
8.0
  1
65'
 50
313.1335
  7
txt
 72
     4
 11
922393.872654
 21
7285546.088005
 31
0.0
210
0.0
220
0.0
230
1.0
  0
TEXT
  8
11
  6
CONTINUOUS
 62
     7
  5
59A
 10
922443.487
 20
7285554.349
 30
0.0
 40
8.0
  1
112'
 50
43.1335
  7
txt
 72
     4
 11
922448.635094
 21
7285564.653384
 31
0.0
210
0.0
220
0.0
230
1.0
  0
TEXT
  8
11
  6
CONTINUOUS
 62
     7
  5
59B
 10
922470.002
 20
7285707.312
 30
0.0
 40
8.0
  1
113.67'
 50
43.1335
  7
txt
 72
     4
 11
922482.344094
 21
7285724.356304
 31
0.0
210
0.0
220
0.0
230
1.0
  0
TEXT
  8
11
  6
CONTINUOUS
 62
     7
  5
59C
 10
922473.775
 20
7285649.77
 30
0.0
 40
8.0
  1
123.24'
 50
313.1335
  7
txt
 72
     4
 11
922492.026036
 21
7285636.139875
 31
0.0
210
0.0
220
0.0
230
1.0
  0
TEXT
  8
11
  6
CONTINUOUS
 62
     7
  5
59D
 10
922185.537
 20
7285635.218
 30
0.0
 40
8.0
  1
60'
 50
313.1335
  7
txt
 72
     4
 11
922194.893775
 21
7285631.081357
 31
0.0
210
0.0
220
0.0
230
1.0
  0
TEXT
  8
11
  6
CONTINUOUS
 62
     7
  5
59E
 10
922286.977
 20
7285550.629
 30
0.0
 40
8.0
  1
189.65'
 50
313.1335
  7
txt
 72
     4
 11
922304.839694
 21
7285537.41338
 31
0.0
210
0.0
220
0.0
230
1.0
  0
TEXT
  8
11
  6
CONTINUOUS
 62
     7
  5
59F
 10
922485.31
 20
7285588.356
 30
0.0
 40
8.0
  1
37.26'
 50
313.1335
  7
txt
 72
     4
 11
922501.557793
 21
7285576.864079
 31
0.0
210
0.0
220
0.0
230
1.0
  0
TEXT
  8
11
  6
CONTINUOUS
 62
     7
  5
5A0
 10
922546.817
 20
7285643.199
 30
0.0
 40
8.0
  1
124.39'
 50
68.1335
  7
txt
 72
     4
 11
922551.386475
 21
7285665.324994
 31
0.0
210
0.0
220
0.0
230
1.0
  0
TEXT
  8
11
  6
CONTINUOUS
 62
     7
  5
5A1
 10
922488.587
 20
7285496.173
 30
0.0
 40
8.0
  1
116.61'
 50
73.1335
  7
txt
 72
     4
 11
922490.278161
 21
7285515.537309
 31
0.0
210
0.0
220
0.0
230
1.0
  0
TEXT
  8
11
  6
CONTINUOUS
 62
     7
  5
5A2
 10
922510.761
 20
7285578.95
 30
0.0
 40
8.0
  1
20'
 50
43.1335
  7
txt
 72
     4
 11
922515.036298
 21
7285588.436678
 31
0.0
210
0.0
220
0.0
230
1.0
  0
TEXT
  8
11
  6
CONTINUOUS
 62
     7
  5
5A3
 10
922463.589
 20
7285460.539
 30
0.0
 40
8.0
  1
20'
 50
358.1335
  7
txt
 72
     4
 11
922473.320187
 21
7285464.224003
 31
0.0
210
0.0
220
0.0
230
1.0
  0
TEXT
  8
11
  6
CONTINUOUS
 62
     7
  5
5A4
 10
922470.73
 20
7285798.06
 30
0.0
 40
8.0
  1
40.8'
 50
313.1335
  7
txt
 72
     4
 11
922484.458357
 21
7285789.257255
 31
0.0
210
0.0
220
0.0
230
1.0
  0
TEXT
  8
11
  6
CONTINUOUS
 62
     7
  5
5A5
 10
922479.492
 20
7285756.864
 30
0.0
 40
8.0
  1
29.25'
 50
358.1335
  7
txt
 72
     4
 11
922499.075956
 21
7285760.227919
 31
0.0
210
0.0
220
0.0
230
1.0
  0
TEXT
  8
11
  6
CONTINUOUS
 62
     7
  5
5A6
 10
922535.665
 20
7285734.999
 30
0.0
 40
8.0
  1
67.6'
 50
328.1335
  7
txt
 72
     4
 11
922550.775855
 21
7285730.315444
 31
0.0
210
0.0
220
0.0
230
1.0
  0
TEXT
  8
11
  6
CONTINUOUS
 62
     7
  5
5A7
 10
922596.225
 20
7285702.726
 30
0.0
 40
8.0
  1
67.6'
 50
343.1335
  7
txt
 72
     4
 11
922612.033159
 21
7285702.113009
 31
0.0
210
0.0
220
0.0
230
1.0
  0
TEXT
  8
11
  6
CONTINUOUS
 62
     7
  5
5A8
 10
922648.895
 20
7285659.939
 30
0.0
 40
8.0
  1
142.56'
 50
273.1335
  7
txt
 72
     4
 11
922654.104498
 21
7285637.954896
 31
0.0
210
0.0
220
0.0
230
1.0
  0
TEXT
  8
11
  6
CONTINUOUS
 62
     7
  5
5A9
 10
922419.379
 20
7285513.948
 30
0.0
 40
8.0
  1
65.57'
 50
308.1335
  7
txt
 72
     4
 11
922434.563379
 21
7285501.083721
 31
0.0
210
0.0
220
0.0
230
1.0
  0
TEXT
  8
11
  6
CONTINUOUS
 62
     7
  5
5AA
 10
922392.241
 20
7285449.626
 30
0.0
 40
8.0
  1
R=200'
 50
298.1335
  7
txt
 72
     4
 11
922405.599755
 21
7285433.12551
 31
0.0
210
0.0
220
0.0
230
1.0
  0
TEXT
  8
11
  6
CONTINUOUS
 62
     7
  5
5AB
 10
922376.301
 20
7285450.801
 30
0.0
 40
8.0
  1
153.07'
 50
298.1335
  7
txt
 72
     4
 11
922390.313292
 21
7285433.078264
 31
0.0
210
0.0
220
0.0
230
1.0
  0
TEXT
  8
11
  6
CONTINUOUS
 62
     7
  5
5AC
 10
923265.321
 20
7284782.777
 30
0.0
 40
8.0
  1
28.08'
 50
313.1335
  7
txt
 72
     4
 11
923281.655623
 21
7284771.1924
 31
0.0
210
0.0
220
0.0
230
1.0
  0
TEXT
  8
11
  6
CONTINUOUS
 62
     7
  5
5AD
 10
923271.965
 20
7284714.804
 30
0.0
 40
8.0
  1
83.55'
 50
298.1335
  7
txt
 72
     4
 11
923284.759808
 21
7284699.358204
 31
0.0
210
0.0
220
0.0
230
1.0
  0
TEXT
  8
11
  6
CONTINUOUS
 62
     7
  5
5AE
 10
923378.466
 20
7284753.355
 30
0.0
 40
8.0
  1
28.08'
 50
43.1335
  7
txt
 72
     4
 11
923390.0506
 21
7284769.689623
 31
0.0
210
0.0
220
0.0
230
1.0
  0
TEXT
  8
11
  6
CONTINUOUS
 62
     7
  5
5AF
 10
923380.984
 20
7284685.245
 30
0.0
 40
8.0
  1
83.55'
 50
68.1335
  7
txt
 72
     4
 11
923384.591822
 21
7284704.974758
 31
0.0
210
0.0
220
0.0
230
1.0
  0
LINE
  8
6
  6
CONTINUOUS
 62
     7
  5
5B0
 10
921606.722
 20
7289931.326
 30
0.0
 11
926844.912
 21
7289770.572
 31
0.0
  0
TEXT
  8
19
  6
CONTINUOUS
 62
     1
  5
5B1
 10
923761.931
 20
7289897.886
 30
0.0
 40
24.0
  1
URSULINE ST
 50
358.1335
  7
ROMANC
 72
     4
 11
923900.003761
 21
7289905.392841
 31
0.0
210
0.0
220
0.0
230
1.0
  0
TEXT
  8
19
  6
CONTINUOUS
 62
     1
  5
5B2
 10
921706.751
 20
7289961.613
 30
0.0
 40
24.0
  1
URSULINE ST
 50
358.1335
  7
ROMANC
 72
     4
 11
921844.823761
 21
7289969.119841
 31
0.0
210
0.0
220
0.0
230
1.0
  0
TEXT
  8
19
  6
CONTINUOUS
 62
     1
  5
5B3
 10
926390.65
 20
7289818.228
 30
0.0
 40
24.0
  1
URSULINE ST
 50
358.1335
  7
ROMANC
 72
     4
 11
926528.722761
 21
7289825.734841
 31
0.0
210
0.0
220
0.0
230
1.0
  0
ENDSEC
  0
EOF
