  0
SECTION
  2
HEADER
  9
$ACADVER
  1
AC1009
  9
$INSBASE
 10
0.0
 20
0.0
 30
0.0
  9
$EXTMIN
 10
952180.216
 20
7257108.172
 30
0.0
  9
$EXTMAX
 10
957672.719
 20
7262571.567
 30
0.0
  9
$LIMMIN
 10
0.0
 20
0.0
  9
$LIMMAX
 10
12.0
 20
9.0
  9
$ORTHOMODE
 70
     0
  9
$REGENMODE
 70
     1
  9
$FILLMODE
 70
     1
  9
$QTEXTMODE
 70
     0
  9
$MIRRTEXT
 70
     1
  9
$DRAGMODE
 70
     2
  9
$LTSCALE
 40
1.0
  9
$OSMODE
 70
     0
  9
$ATTMODE
 70
     1
  9
$TEXTSIZE
 40
0.2
  9
$TRACEWID
 40
0.05
  9
$TEXTSTYLE
  7
STANDARD
  9
$CLAYER
  8
0
  9
$CELTYPE
  6
CONTINUOUS
  9
$CECOLOR
 62
   256
  9
$DIMSCALE
 40
1.0
  9
$DIMASZ
 40
0.18
  9
$DIMEXO
 40
0.0625
  9
$DIMDLI
 40
0.38
  9
$DIMRND
 40
0.0
  9
$DIMDLE
 40
0.0
  9
$DIMEXE
 40
0.18
  9
$DIMTP
 40
0.0
  9
$DIMTM
 40
0.0
  9
$DIMTXT
 40
0.18
  9
$DIMCEN
 40
0.09
  9
$DIMTSZ
 40
0.0
  9
$DIMTOL
 70
     0
  9
$DIMLIM
 70
     0
  9
$DIMTIH
 70
     1
  9
$DIMTOH
 70
     1
  9
$DIMSE1
 70
     0
  9
$DIMSE2
 70
     0
  9
$DIMTAD
 70
     0
  9
$DIMZIN
 70
     0
  9
$DIMBLK
  1

  9
$DIMASO
 70
     1
  9
$DIMSHO
 70
     1
  9
$DIMPOST
  1

  9
$DIMAPOST
  1

  9
$DIMALT
 70
     0
  9
$DIMALTD
 70
     2
  9
$DIMALTF
 40
25.4
  9
$DIMLFAC
 40
1.0
  9
$DIMTOFL
 70
     0
  9
$DIMTVP
 40
0.0
  9
$DIMTIX
 70
     0
  9
$DIMSOXD
 70
     0
  9
$DIMSAH
 70
     0
  9
$DIMBLK1
  1

  9
$DIMBLK2
  1

  9
$DIMSTYLE
  2
STANDARD
  9
$DIMCLRD
 70
     0
  9
$DIMCLRE
 70
     0
  9
$DIMCLRT
 70
     0
  9
$DIMTFAC
 40
1.0
  9
$DIMGAP
 40
0.09
  9
$LUNITS
 70
     2
  9
$LUPREC
 70
     4
  9
$AXISMODE
 70
     0
  9
$AXISUNIT
 10
0.0
 20
0.0
  9
$SKETCHINC
 40
0.1
  9
$FILLETRAD
 40
0.0
  9
$AUNITS
 70
     0
  9
$AUPREC
 70
     0
  9
$MENU
  1
acad
  9
$ELEVATION
 40
0.0
  9
$PELEVATION
 40
0.0
  9
$THICKNESS
 40
0.0
  9
$LIMCHECK
 70
     0
  9
$BLIPMODE
 70
     1
  9
$CHAMFERA
 40
0.0
  9
$CHAMFERB
 40
0.0
  9
$SKPOLY
 70
     0
  9
$TDCREATE
 40
2453013.899247685
  9
$TDUPDATE
 40
2453013.899247685
  9
$TDINDWG
 40
0.0000000000
  9
$TDUSRTIMER
 40
0.0000000000
  9
$USRTIMER
 70
     1
  9
$ANGBASE
 50
0.0
  9
$ANGDIR
 70
     0
  9
$PDMODE
 70
     0
  9
$PDSIZE
 40
0.0
  9
$PLINEWID
 40
0.0
  9
$COORDS
 70
     0
  9
$SPLFRAME
 70
     0
  9
$SPLINETYPE
 70
     6
  9
$SPLINESEGS
 70
    10
  9
$ATTDIA
 70
     0
  9
$ATTREQ
 70
     1
  9
$HANDLING
 70
     1
  9
$HANDSEED
  5
641
  9
$SURFTAB1
 70
     6
  9
$SURFTAB2
 70
     6
  9
$SURFTYPE
 70
     6
  9
$SURFU
 70
     6
  9
$SURFV
 70
     6
  9
$UCSNAME
  2

  9
$UCSORG
 10
0.0
 20
0.0
 30
0.0
  9
$UCSXDIR
 10
1.0
 20
0.0
 30
0.0
  9
$UCSYDIR
 10
0.0
 20
1.0
 30
0.0
  9
$PUCSNAME
  2

  9
$PUCSORG
 10
0.0
 20
0.0
 30
0.0
  9
$PUCSXDIR
 10
1.0
 20
0.0
 30
0.0
  9
$PUCSYDIR
 10
0.0
 20
1.0
 30
0.0
  9
$USERI1
 70
     0
  9
$USERI2
 70
     0
  9
$USERI3
 70
     0
  9
$USERI4
 70
     0
  9
$USERI5
 70
     0
  9
$USERR1
 40
0.0
  9
$USERR2
 40
0.0
  9
$USERR3
 40
0.0
  9
$USERR4
 40
0.0
  9
$USERR5
 40
0.0
  9
$WORLDVIEW
 70
     1
  9
$SHADEDGE
 70
     3
  9
$SHADEDIF
 70
    70
  9
$TILEMODE
 70
     1
  9
$MAXACTVP
 70
    16
  9
$PINSBASE
 10
0.0
 20
0.0
 30
0.0
  9
$PLIMCHECK
 70
     0
  9
$PEXTMIN
 10
-1.000000E+20
 20
-1.000000E+20
 30
-1.000000E+20
  9
$PEXTMAX
 10
-1.000000E+20
 20
-1.000000E+20
 30
-1.000000E+20
  9
$PLIMMIN
 10
0.0
 20
0.0
  9
$PLIMMAX
 10
12.0
 20
9.0
  9
$UNITMODE
 70
     0
  9
$VISRETAIN
 70
     0
  9
$PLINEGEN
 70
     1
  9
$PSLTSCALE
 70
     0
  9
$TREEDEPTH
 70
  3020
  9
$DWGCODEPAGE
  3
ansi_1252
  0
ENDSEC
  0
SECTION
  2
TABLES
  0
TABLE
  2
VPORT
 70
     1
  0
VPORT
  2
*ACTIVE
 70
     0
 10
0.0
 20
0.0
 11
1.0
 21
1.0
 12
0.0
 22
0.0
 13
0.0
 23
0.0
 14
0.0
 24
0.0
 15
0.0
 25
0.0
 16
0.0
 26
0.0
 36
1.0
 17
954647.009906
 27
7259774.489623
 37
0.0
 40
5532.267
 41
1.264463
 42
50.0
 43
0.004
 44
0.0
 50
1.817819
 51
0.0
 71
     0
 72
   100
 73
     1
 74
     0
 75
     0
 76
     0
 77
     0
 78
     0
  0
ENDTAB
  0
TABLE
  2
LTYPE
 70
     7
  0
LTYPE
  2
CONTINUOUS
 70
     0
  3
Solid line
 72
    65
 73
     0
 40
0.0
  0
LTYPE
  2
DOT
 70
    64
  3
. . . . . . . . . . . . . . . . . . . . . . . . . . . . . . . . .
 72
    65
 73
     2
 40
0.25
 49
0.0
 49
-0.25
  0
LTYPE
  2
HIDDEN
 70
    64
  3
__ __ __ __ __ __ __ __ __ __ __ __ __ __ __ __ __ __ __ __ __ 
 72
    65
 73
     2
 40
0.375
 49
0.25
 49
-0.125
  0
LTYPE
  2
DASHED
 70
    64
  3
__ __ __ __ __ __ __ __ __ __ __ __ __ __ __ __ __ __ __ __ __
 72
    65
 73
     2
 40
0.75
 49
0.5
 49
-0.25
  0
LTYPE
  2
DASHDOT
 70
    64
  3
__ . __ . __ . __ . __ . __ . __ . __ . __ . __ . __ . __ . _
 72
    65
 73
     4
 40
1.0
 49
0.5
 49
-0.25
 49
0.0
 49
-0.25
  0
LTYPE
  2
DIVIDE
 70
    64
  3
____ . . ____ . . ____ . . ____ . . ____ . . ____ . . ____ . .
 72
    65
 73
     6
 40
1.25
 49
0.5
 49
-0.25
 49
0.0
 49
-0.25
 49
0.0
 49
-0.25
  0
LTYPE
  2
CENTER
 70
    64
  3
____ _ ____ _ ____ _ ____ _ ____ _ ____ _ ____ _ ____ _ ____ _
 72
    65
 73
     4
 40
2.0
 49
1.25
 49
-0.25
 49
0.25
 49
-0.25
  0
ENDTAB
  0
TABLE
  2
LAYER
 70
    14
  0
LAYER
  2
0
 70
     0
 62
     7
  6
CONTINUOUS
  0
LAYER
  2
CONSTRUCTION_CLASS
 70
     1
 62
     7
  6
CONTINUOUS
  0
LAYER
  2
PATTERN_CLASS
 70
     0
 62
     7
  6
CONTINUOUS
  0
LAYER
  2
7
 70
    64
 62
     7
  6
CONTINUOUS
  0
LAYER
  2
6
 70
    64
 62
     7
  6
CONTINUOUS
  0
LAYER
  2
10
 70
    64
 62
     7
  6
CONTINUOUS
  0
LAYER
  2
11
 70
    64
 62
     7
  6
CONTINUOUS
  0
LAYER
  2
19
 70
    64
 62
     7
  6
CONTINUOUS
  0
LAYER
  2
15
 70
    64
 62
     7
  6
CONTINUOUS
  0
LAYER
  2
21
 70
    64
 62
     7
  6
CONTINUOUS
  0
LAYER
  2
22
 70
    64
 62
     7
  6
CONTINUOUS
  0
LAYER
  2
13
 70
    64
 62
     7
  6
CONTINUOUS
  0
LAYER
  2
1
 70
    64
 62
     7
  6
CONTINUOUS
  0
LAYER
  2
25
 70
    64
 62
     7
  6
CONTINUOUS
  0
ENDTAB
  0
TABLE
  2
STYLE
 70
     4
  0
STYLE
  2
STANDARD
 70
     0
 40
0.0
 41
1.0
 50
0.0
 71
     0
 42
0.0
  3
txt
  4

  0
STYLE
  2
ROMANS
 70
     0
 40
0.2
 41
1.0
 50
0.0
 71
     0
 42
0.2
  3
ROMANS
  4

  0
STYLE
  2
ROMANC
 70
     0
 40
0.2
 41
1.0
 50
0.0
 71
     0
 42
0.2
  3
ROMANC
  4

  0
STYLE
  2
txt
 70
     0
 40
0.2
 41
1.0
 50
0.0
 71
     0
 42
0.2
  3
TXT
  4

  0
ENDTAB
  0
TABLE
  2
VIEW
 70
     0
  0
ENDTAB
  0
TABLE
  2
UCS
 70
     0
  0
ENDTAB
  0
TABLE
  2
APPID
 70
     1
  0
APPID
  2
ACAD
 70
     0
  0
ENDTAB
  0
TABLE
  2
DIMSTYLE
 70
     1
  0
DIMSTYLE
  2
STANDARD
 70
     0
  3

  4

  5

  6

  7

 40
1.0
 41
0.18
 42
0.0625
 43
0.38
 44
0.18
 45
0.0
 46
0.0
 47
0.0
 48
0.0
140
0.18
141
0.09
142
0.0
143
25.4
144
1.0
145
0.0
146
1.0
147
0.09
 71
     0
 72
     0
 73
     1
 74
     1
 75
     0
 76
     0
 77
     0
 78
     0
170
     0
171
     2
172
     0
173
     0
174
     0
175
     0
176
     0
177
     0
178
     0
  0
ENDTAB
  0
ENDSEC
  0
SECTION
  2
BLOCKS
  0
ENDSEC
  0
SECTION
  2
ENTITIES
  0
LINE
  8
7
  6
CONTINUOUS
 62
     7
  5
29
 10
957062.956
 20
7262074.808
 30
0.0
 11
957640.604
 21
7262055.343
 31
0.0
  0
LINE
  8
7
  6
CONTINUOUS
 62
     7
  5
2A
 10
957222.638
 20
7262359.592
 30
0.0
 11
957202.769
 21
7261769.927
 31
0.0
  0
LINE
  8
7
  6
CONTINUOUS
 62
     7
  5
2B
 10
957372.553
 20
7262354.541
 30
0.0
 11
957352.683
 21
7261764.875
 31
0.0
  0
LINE
  8
7
  6
CONTINUOUS
 62
     7
  5
2C
 10
957521.912
 20
7262333.003
 30
0.0
 11
957502.599
 21
7261759.824
 31
0.0
  0
LINE
  8
7
  6
CONTINUOUS
 62
     7
  5
2D
 10
956403.33
 20
7262097.034
 30
0.0
 11
957002.991
 21
7262076.829
 31
0.0
  0
LINE
  8
7
  6
CONTINUOUS
 62
     7
  5
2E
 10
956563.013
 20
7262381.818
 30
0.0
 11
956543.143
 21
7261792.153
 31
0.0
  0
LINE
  8
7
  6
CONTINUOUS
 62
     7
  5
2F
 10
956712.927
 20
7262376.766
 30
0.0
 11
956693.057
 21
7261787.102
 31
0.0
  0
LINE
  8
7
  6
CONTINUOUS
 62
     7
  5
30
 10
956862.843
 20
7262371.715
 30
0.0
 11
956842.973
 21
7261782.05
 31
0.0
  0
POLYLINE
  8
6
  6
CONTINUOUS
 62
     7
  5
32
 66
     1
 10
0.0
 20
0.0
 30
0.0
  0
VERTEX
  8
6
  6
CONTINUOUS
 62
     7
  5
33
 10
956353.132
 20
7262388.89
 30
0.0
  0
VERTEX
  8
6
  6
CONTINUOUS
 62
     7
  5
34
 10
955753.472
 20
7262409.095
 30
0.0
  0
VERTEX
  8
6
  6
CONTINUOUS
 62
     7
  5
35
 10
955733.602
 20
7261819.431
 30
0.0
  0
VERTEX
  8
6
  6
CONTINUOUS
 62
     7
  5
36
 10
956333.262
 20
7261799.224
 30
0.0
  0
VERTEX
  8
6
  6
CONTINUOUS
 62
     7
  5
37
 10
956353.132
 20
7262388.89
 30
0.0
  0
SEQEND
  8
6
  6
CONTINUOUS
 62
     7
  5
38
  0
LINE
  8
7
  6
CONTINUOUS
 62
     7
  5
39
 10
955743.705
 20
7262119.261
 30
0.0
 11
956343.365
 21
7262099.055
 31
0.0
  0
LINE
  8
7
  6
CONTINUOUS
 62
     7
  5
3A
 10
955903.387
 20
7262404.044
 30
0.0
 11
955883.517
 21
7261814.379
 31
0.0
  0
LINE
  8
7
  6
CONTINUOUS
 62
     7
  5
3B
 10
956053.302
 20
7262398.993
 30
0.0
 11
956033.432
 21
7261809.328
 31
0.0
  0
LINE
  8
7
  6
CONTINUOUS
 62
     7
  5
3C
 10
956203.217
 20
7262393.941
 30
0.0
 11
956183.347
 21
7261804.277
 31
0.0
  0
POLYLINE
  8
6
  6
CONTINUOUS
 62
     7
  5
3D
 66
     1
 10
0.0
 20
0.0
 30
0.0
  0
VERTEX
  8
6
  6
CONTINUOUS
 62
     7
  5
3E
 10
956990.867
 20
7261717.032
 30
0.0
  0
VERTEX
  8
6
  6
CONTINUOUS
 62
     7
  5
3F
 10
956391.208
 20
7261737.238
 30
0.0
  0
VERTEX
  8
6
  6
CONTINUOUS
 62
     7
  5
40
 10
956371.002
 20
7261137.578
 30
0.0
  0
VERTEX
  8
6
  6
CONTINUOUS
 62
     7
  5
41
 10
956970.662
 20
7261117.373
 30
0.0
  0
VERTEX
  8
6
  6
CONTINUOUS
 62
     7
  5
42
 10
956990.867
 20
7261717.032
 30
0.0
  0
SEQEND
  8
6
  6
CONTINUOUS
 62
     7
  5
43
  0
LINE
  8
7
  6
CONTINUOUS
 62
     7
  5
44
 10
956381.105
 20
7261437.408
 30
0.0
 11
956980.764
 21
7261417.203
 31
0.0
  0
LINE
  8
7
  6
CONTINUOUS
 62
     7
  5
45
 10
956541.122
 20
7261732.187
 30
0.0
 11
956520.916
 21
7261132.527
 31
0.0
  0
LINE
  8
7
  6
CONTINUOUS
 62
     7
  5
46
 10
956691.037
 20
7261727.135
 30
0.0
 11
956670.832
 21
7261127.476
 31
0.0
  0
LINE
  8
7
  6
CONTINUOUS
 62
     7
  5
47
 10
956840.952
 20
7261722.084
 30
0.0
 11
956820.746
 21
7261122.424
 31
0.0
  0
POLYLINE
  8
6
  6
CONTINUOUS
 62
     7
  5
48
 66
     1
 10
0.0
 20
0.0
 30
0.0
  0
VERTEX
  8
6
  6
CONTINUOUS
 62
     7
  5
49
 10
956331.241
 20
7261739.259
 30
0.0
  0
VERTEX
  8
6
  6
CONTINUOUS
 62
     7
  5
4A
 10
955731.582
 20
7261759.464
 30
0.0
  0
VERTEX
  8
6
  6
CONTINUOUS
 62
     7
  5
4B
 10
955711.376
 20
7261159.805
 30
0.0
  0
VERTEX
  8
6
  6
CONTINUOUS
 62
     7
  5
4C
 10
956311.036
 20
7261139.599
 30
0.0
  0
VERTEX
  8
6
  6
CONTINUOUS
 62
     7
  5
4D
 10
956331.241
 20
7261739.259
 30
0.0
  0
SEQEND
  8
6
  6
CONTINUOUS
 62
     7
  5
4E
  0
LINE
  8
7
  6
CONTINUOUS
 62
     7
  5
4F
 10
955721.479
 20
7261459.635
 30
0.0
 11
956321.138
 21
7261439.429
 31
0.0
  0
LINE
  8
7
  6
CONTINUOUS
 62
     7
  5
50
 10
955881.497
 20
7261754.413
 30
0.0
 11
955861.29
 21
7261154.753
 31
0.0
  0
LINE
  8
7
  6
CONTINUOUS
 62
     7
  5
51
 10
956031.411
 20
7261749.362
 30
0.0
 11
956011.206
 21
7261149.702
 31
0.0
  0
LINE
  8
7
  6
CONTINUOUS
 62
     7
  5
52
 10
956181.327
 20
7261744.31
 30
0.0
 11
956161.12
 21
7261144.651
 31
0.0
  0
POLYLINE
  8
6
  6
CONTINUOUS
 62
     7
  5
53
 66
     1
 10
0.0
 20
0.0
 30
0.0
  0
VERTEX
  8
6
  6
CONTINUOUS
 62
     7
  5
54
 10
955671.615
 20
7261761.486
 30
0.0
  0
VERTEX
  8
6
  6
CONTINUOUS
 62
     7
  5
55
 10
955071.956
 20
7261781.692
 30
0.0
  0
VERTEX
  8
6
  6
CONTINUOUS
 62
     7
  5
56
 10
955051.75
 20
7261182.032
 30
0.0
  0
VERTEX
  8
6
  6
CONTINUOUS
 62
     7
  5
57
 10
955651.41
 20
7261161.827
 30
0.0
  0
VERTEX
  8
6
  6
CONTINUOUS
 62
     7
  5
58
 10
955671.615
 20
7261761.486
 30
0.0
  0
SEQEND
  8
6
  6
CONTINUOUS
 62
     7
  5
59
  0
LINE
  8
7
  6
CONTINUOUS
 62
     7
  5
5A
 10
955061.853
 20
7261481.862
 30
0.0
 11
955661.512
 21
7261461.656
 31
0.0
  0
LINE
  8
7
  6
CONTINUOUS
 62
     7
  5
5B
 10
955221.871
 20
7261776.64
 30
0.0
 11
955201.665
 21
7261176.981
 31
0.0
  0
LINE
  8
7
  6
CONTINUOUS
 62
     7
  5
5C
 10
955371.785
 20
7261771.589
 30
0.0
 11
955351.58
 21
7261171.929
 31
0.0
  0
LINE
  8
7
  6
CONTINUOUS
 62
     7
  5
5D
 10
955521.701
 20
7261766.538
 30
0.0
 11
955501.495
 21
7261166.878
 31
0.0
  0
POLYLINE
  8
6
  6
CONTINUOUS
 62
     7
  5
5E
 66
     1
 10
0.0
 20
0.0
 30
0.0
  0
VERTEX
  8
6
  6
CONTINUOUS
 62
     7
  5
5F
 10
955649.39
 20
7261101.86
 30
0.0
  0
VERTEX
  8
6
  6
CONTINUOUS
 62
     7
  5
60
 10
955049.73
 20
7261122.066
 30
0.0
  0
VERTEX
  8
6
  6
CONTINUOUS
 62
     7
  5
61
 10
955029.524
 20
7260522.406
 30
0.0
  0
VERTEX
  8
6
  6
CONTINUOUS
 62
     7
  5
62
 10
955629.183
 20
7260502.201
 30
0.0
  0
VERTEX
  8
6
  6
CONTINUOUS
 62
     7
  5
63
 10
955649.39
 20
7261101.86
 30
0.0
  0
SEQEND
  8
6
  6
CONTINUOUS
 62
     7
  5
64
  0
LINE
  8
7
  6
CONTINUOUS
 62
     7
  5
65
 10
955039.626
 20
7260822.236
 30
0.0
 11
955639.287
 21
7260802.03
 31
0.0
  0
LINE
  8
7
  6
CONTINUOUS
 62
     7
  5
66
 10
955199.645
 20
7261117.014
 30
0.0
 11
955179.439
 21
7260517.355
 31
0.0
  0
LINE
  8
7
  6
CONTINUOUS
 62
     7
  5
67
 10
955349.56
 20
7261111.963
 30
0.0
 11
955329.353
 21
7260512.303
 31
0.0
  0
LINE
  8
7
  6
CONTINUOUS
 62
     7
  5
68
 10
955499.474
 20
7261106.912
 30
0.0
 11
955479.269
 21
7260507.252
 31
0.0
  0
POLYLINE
  8
6
  6
CONTINUOUS
 62
     7
  5
69
 66
     1
 10
0.0
 20
0.0
 30
0.0
  0
VERTEX
  8
6
  6
CONTINUOUS
 62
     7
  5
6A
 10
956309.015
 20
7261079.633
 30
0.0
  0
VERTEX
  8
6
  6
CONTINUOUS
 62
     7
  5
6B
 10
955709.355
 20
7261099.838
 30
0.0
  0
VERTEX
  8
6
  6
CONTINUOUS
 62
     7
  5
6C
 10
955689.15
 20
7260500.179
 30
0.0
  0
VERTEX
  8
6
  6
CONTINUOUS
 62
     7
  5
6D
 10
956288.809
 20
7260479.973
 30
0.0
  0
VERTEX
  8
6
  6
CONTINUOUS
 62
     7
  5
6E
 10
956309.015
 20
7261079.633
 30
0.0
  0
SEQEND
  8
6
  6
CONTINUOUS
 62
     7
  5
6F
  0
LINE
  8
7
  6
CONTINUOUS
 62
     7
  5
70
 10
955699.252
 20
7260800.009
 30
0.0
 11
956298.912
 21
7260779.803
 31
0.0
  0
LINE
  8
7
  6
CONTINUOUS
 62
     7
  5
71
 10
955859.271
 20
7261094.787
 30
0.0
 11
955839.065
 21
7260495.127
 31
0.0
  0
LINE
  8
7
  6
CONTINUOUS
 62
     7
  5
72
 10
956009.185
 20
7261089.736
 30
0.0
 11
955988.979
 21
7260490.076
 31
0.0
  0
LINE
  8
7
  6
CONTINUOUS
 62
     7
  5
73
 10
956159.1
 20
7261084.684
 30
0.0
 11
956138.895
 21
7260485.025
 31
0.0
  0
POLYLINE
  8
6
  6
CONTINUOUS
 62
     7
  5
74
 66
     1
 10
0.0
 20
0.0
 30
0.0
  0
VERTEX
  8
6
  6
CONTINUOUS
 62
     7
  5
75
 10
957625.99
 20
7261695.632
 30
0.0
  0
VERTEX
  8
6
  6
CONTINUOUS
 62
     7
  5
76
 10
957050.833
 20
7261715.012
 30
0.0
  0
VERTEX
  8
6
  6
CONTINUOUS
 62
     7
  5
77
 10
957030.627
 20
7261115.352
 30
0.0
  0
VERTEX
  8
6
  6
CONTINUOUS
 62
     7
  5
78
 10
957630.287
 20
7261095.146
 30
0.0
  0
VERTEX
  8
6
  6
CONTINUOUS
 62
     7
  5
79
 10
957640.389
 20
7261394.976
 30
0.0
  0
SEQEND
  8
6
  6
CONTINUOUS
 62
     7
  5
7A
  0
LINE
  8
7
  6
CONTINUOUS
 62
     7
  5
7B
 10
957040.73
 20
7261415.182
 30
0.0
 11
957640.389
 21
7261394.976
 31
0.0
  0
LINE
  8
7
  6
CONTINUOUS
 62
     7
  5
7C
 10
957200.748
 20
7261709.96
 30
0.0
 11
957180.542
 21
7261110.301
 31
0.0
  0
LINE
  8
7
  6
CONTINUOUS
 62
     7
  5
7D
 10
957350.662
 20
7261704.909
 30
0.0
 11
957330.457
 21
7261105.249
 31
0.0
  0
LINE
  8
7
  6
CONTINUOUS
 62
     7
  5
7E
 10
957500.578
 20
7261699.857
 30
0.0
 11
957480.372
 21
7261100.198
 31
0.0
  0
LINE
  8
7
  6
CONTINUOUS
 62
     7
  5
7F
 10
955017.401
 20
7260162.61
 30
0.0
 11
955617.061
 21
7260142.404
 31
0.0
  0
LINE
  8
7
  6
CONTINUOUS
 62
     7
  5
80
 10
955177.418
 20
7260457.388
 30
0.0
 11
955157.213
 21
7259857.729
 31
0.0
  0
LINE
  8
7
  6
CONTINUOUS
 62
     7
  5
81
 10
955327.334
 20
7260452.337
 30
0.0
 11
955307.128
 21
7259852.677
 31
0.0
  0
LINE
  8
7
  6
CONTINUOUS
 62
     7
  5
82
 10
955477.248
 20
7260447.286
 30
0.0
 11
955457.042
 21
7259847.626
 31
0.0
  0
LINE
  8
7
  6
CONTINUOUS
 62
     7
  5
83
 10
955677.026
 20
7260140.384
 30
0.0
 11
956276.686
 21
7260120.177
 31
0.0
  0
LINE
  8
7
  6
CONTINUOUS
 62
     7
  5
84
 10
955837.044
 20
7260435.162
 30
0.0
 11
955816.839
 21
7259835.501
 31
0.0
  0
LINE
  8
7
  6
CONTINUOUS
 62
     7
  5
85
 10
955986.959
 20
7260430.111
 30
0.0
 11
955966.753
 21
7259830.45
 31
0.0
  0
LINE
  8
7
  6
CONTINUOUS
 62
     7
  5
86
 10
956136.874
 20
7260425.058
 30
0.0
 11
956116.668
 21
7259825.399
 31
0.0
  0
LINE
  8
6
  6
CONTINUOUS
 62
     7
  5
87
 10
955543.591
 20
7262416.169
 30
0.0
 11
955523.722
 21
7261826.503
 31
0.0
  0
LINE
  8
6
  6
CONTINUOUS
 62
     7
  5
88
 10
955523.722
 20
7261826.503
 30
0.0
 11
955373.806
 21
7261831.554
 31
0.0
  0
ARC
  8
6
  6
CONTINUOUS
 62
     7
  5
89
 10
955089.473481
 20
7261856.143572
 30
0.0
 40
15.0
 50
178.070122
 51
268.070122
210
0.0
220
0.0
230
1.0
  0
LINE
  8
7
  6
CONTINUOUS
 62
     7
  5
8A
 10
955677.004
 20
7261921.395
 30
0.0
 11
955537.084
 21
7261926.109
 31
0.0
  0
LINE
  8
7
  6
CONTINUOUS
 62
     7
  5
8B
 10
955540.451
 20
7262026.053
 30
0.0
 11
955680.372
 21
7262021.338
 31
0.0
  0
LINE
  8
7
  6
CONTINUOUS
 62
     7
  5
8C
 10
955683.739
 20
7262121.281
 30
0.0
 11
955541.32
 21
7262126.08
 31
0.0
  0
LINE
  8
6
  6
CONTINUOUS
 62
     7
  5
8D
 10
956625.368
 20
7259778.241
 30
0.0
 11
956626.379
 21
7259808.225
 31
0.0
  0
LINE
  8
6
  6
CONTINUOUS
 62
     7
  5
8E
 10
956626.379
 20
7259808.225
 30
0.0
 11
956326.549
 21
7259818.327
 31
0.0
  0
LINE
  8
6
  6
CONTINUOUS
 62
     7
  5
8F
 10
956326.549
 20
7259818.327
 30
0.0
 11
956346.755
 21
7260417.987
 31
0.0
  0
LINE
  8
6
  6
CONTINUOUS
 62
     7
  5
90
 10
956346.755
 20
7260417.987
 30
0.0
 11
956646.585
 21
7260407.884
 31
0.0
  0
LINE
  8
6
  6
CONTINUOUS
 62
     7
  5
91
 10
956646.585
 20
7260407.884
 30
0.0
 11
956648.605
 21
7260467.85
 31
0.0
  0
LINE
  8
6
  6
CONTINUOUS
 62
     7
  5
92
 10
956648.605
 20
7260467.85
 30
0.0
 11
956348.776
 21
7260477.952
 31
0.0
  0
POLYLINE
  8
6
  6
CONTINUOUS
 62
     7
  5
93
 66
     1
 10
0.0
 20
0.0
 30
0.0
  0
VERTEX
  8
6
  6
CONTINUOUS
 62
     7
  5
94
 10
956348.776
 20
7260477.952
 30
0.0
  0
VERTEX
  8
6
  6
CONTINUOUS
 62
     7
  5
95
 10
956368.981
 20
7261077.613
 30
0.0
  0
VERTEX
  8
6
  6
CONTINUOUS
 62
     7
  5
96
 10
956968.641
 20
7261057.406
 30
0.0
  0
VERTEX
  8
6
  6
CONTINUOUS
 62
     7
  5
97
 10
956956.737
 20
7260704.132
 30
0.0
  0
SEQEND
  8
6
  6
CONTINUOUS
 62
     7
  5
98
  0
POLYLINE
  8
6
  6
CONTINUOUS
 62
     7
  5
99
 66
     1
 10
0.0
 20
0.0
 30
0.0
  0
VERTEX
  8
6
  6
CONTINUOUS
 62
     7
  5
9A
 10
957628.267
 20
7261035.181
 30
0.0
  0
VERTEX
  8
6
  6
CONTINUOUS
 62
     7
  5
9B
 10
957028.607
 20
7261055.387
 30
0.0
  0
VERTEX
  8
6
  6
CONTINUOUS
 62
     7
  5
9C
 10
957018.504
 20
7260755.557
 30
0.0
  0
SEQEND
  8
6
  6
CONTINUOUS
 62
     7
  5
9D
  0
LINE
  8
7
  6
CONTINUOUS
 62
     7
  5
9E
 10
956648.605
 20
7260467.85
 30
0.0
 11
956668.811
 21
7261067.509
 31
0.0
  0
LINE
  8
7
  6
CONTINUOUS
 62
     7
  5
9F
 10
956499.248
 20
7260472.882
 30
0.0
 11
956519.454
 21
7261072.543
 31
0.0
  0
LINE
  8
7
  6
CONTINUOUS
 62
     7
  5
A0
 10
956358.878
 20
7260777.782
 30
0.0
 11
956958.538
 21
7260757.577
 31
0.0
  0
LINE
  8
7
  6
CONTINUOUS
 62
     7
  5
A1
 10
957018.504
 20
7260755.557
 30
0.0
 11
957483.24
 21
7260739.897
 31
0.0
  0
LINE
  8
7
  6
CONTINUOUS
 62
     7
  5
A2
 10
956818.726
 20
7261062.458
 30
0.0
 11
956808.623
 21
7260762.628
 31
0.0
  0
LINE
  8
7
  6
CONTINUOUS
 62
     7
  5
A3
 10
957178.522
 20
7261050.335
 30
0.0
 11
957168.419
 21
7260750.505
 31
0.0
  0
LINE
  8
7
  6
CONTINUOUS
 62
     7
  5
A4
 10
957328.437
 20
7261045.284
 30
0.0
 11
957318.334
 21
7260745.454
 31
0.0
  0
LINE
  8
7
  6
CONTINUOUS
 62
     7
  5
A5
 10
957478.351
 20
7261040.232
 30
0.0
 11
957468.249
 21
7260740.403
 31
0.0
  0
LINE
  8
7
  6
CONTINUOUS
 62
     7
  5
A6
 10
956646.585
 20
7260407.884
 30
0.0
 11
956626.379
 21
7259808.225
 31
0.0
  0
LINE
  8
7
  6
CONTINUOUS
 62
     7
  5
A7
 10
956336.652
 20
7260118.157
 30
0.0
 11
956636.482
 21
7260108.054
 31
0.0
  0
LINE
  8
7
  6
CONTINUOUS
 62
     7
  5
A8
 10
956504.028
 20
7260412.688
 30
0.0
 11
956483.823
 21
7259813.029
 31
0.0
  0
TEXT
  8
10
  6
CONTINUOUS
 62
   134
  5
AB
 10
957577.511
 20
7262188.671
 30
0.0
 40
13.999
  1
1
 50
358.070122
  7
ROMANS
 11
957577.982435
 21
7262202.66206
 31
0.0
210
0.0
220
0.0
230
1.0
 73
     3
  0
TEXT
  8
10
  6
CONTINUOUS
 62
   134
  5
AC
 10
957441.084
 20
7262193.268
 30
0.0
 40
13.999
  1
2
 50
358.070122
  7
ROMANS
 11
957441.555435
 21
7262207.25906
 31
0.0
210
0.0
220
0.0
230
1.0
 73
     3
  0
TEXT
  8
10
  6
CONTINUOUS
 62
   134
  5
AD
 10
957284.596
 20
7262198.541
 30
0.0
 40
13.999
  1
3
 50
358.070122
  7
ROMANS
 11
957285.067435
 21
7262212.53206
 31
0.0
210
0.0
220
0.0
230
1.0
 73
     3
  0
TEXT
  8
10
  6
CONTINUOUS
 62
   134
  5
AE
 10
957140.145
 20
7262203.409
 30
0.0
 40
13.999
  1
4
 50
358.070122
  7
ROMANS
 11
957140.616435
 21
7262217.40006
 31
0.0
210
0.0
220
0.0
230
1.0
 73
     3
  0
TEXT
  8
10
  6
CONTINUOUS
 62
   134
  5
AF
 10
956931.492
 20
7262210.439
 30
0.0
 40
13.999
  1
5
 50
358.070122
  7
ROMANS
 11
956931.963435
 21
7262224.43006
 31
0.0
210
0.0
220
0.0
230
1.0
 73
     3
  0
TEXT
  8
10
  6
CONTINUOUS
 62
   134
  5
B0
 10
956783.029
 20
7262215.441
 30
0.0
 40
13.999
  1
6
 50
358.070122
  7
ROMANS
 11
956783.500435
 21
7262229.43206
 31
0.0
210
0.0
220
0.0
230
1.0
 73
     3
  0
TEXT
  8
10
  6
CONTINUOUS
 62
   134
  5
B1
 10
956634.565
 20
7262220.445
 30
0.0
 40
13.999
  1
7
 50
358.070122
  7
ROMANS
 11
956635.036435
 21
7262234.43606
 31
0.0
210
0.0
220
0.0
230
1.0
 73
     3
  0
TEXT
  8
10
  6
CONTINUOUS
 62
   134
  5
B2
 10
956478.076
 20
7262225.717
 30
0.0
 40
13.999
  1
8
 50
358.070122
  7
ROMANS
 11
956478.547435
 21
7262239.70806
 31
0.0
210
0.0
220
0.0
230
1.0
 73
     3
  0
TEXT
  8
10
  6
CONTINUOUS
 62
   134
  5
B3
 10
956267.615
 20
7262232.808
 30
0.0
 40
13.999
  1
9
 50
358.070122
  7
ROMANS
 11
956268.086435
 21
7262246.79906
 31
0.0
210
0.0
220
0.0
230
1.0
 73
     3
  0
TEXT
  8
10
  6
CONTINUOUS
 62
   134
  5
B4
 10
956101.685
 20
7262233.399
 30
0.0
 40
13.999
  1
 10
 50
358.070122
  7
ROMANS
 11
956102.156435
 21
7262247.39006
 31
0.0
210
0.0
220
0.0
230
1.0
 73
     3
  0
TEXT
  8
10
  6
CONTINUOUS
 62
   134
  5
B5
 10
955947.885
 20
7262238.581
 30
0.0
 40
13.999
  1
 11
 50
358.070122
  7
ROMANS
 11
955948.356435
 21
7262252.57206
 31
0.0
210
0.0
220
0.0
230
1.0
 73
     3
  0
TEXT
  8
10
  6
CONTINUOUS
 62
   134
  5
B6
 10
955802.181
 20
7262243.491
 30
0.0
 40
13.999
  1
 12
 50
358.070122
  7
ROMANS
 11
955802.652435
 21
7262257.48206
 31
0.0
210
0.0
220
0.0
230
1.0
 73
     3
  0
TEXT
  8
10
  6
CONTINUOUS
 62
   134
  5
B7
 10
955597.116
 20
7262250.4
 30
0.0
 40
13.999
  1
 13
 50
358.070122
  7
ROMANS
 11
955597.587435
 21
7262264.39106
 31
0.0
210
0.0
220
0.0
230
1.0
 73
     3
  0
TEXT
  8
10
  6
CONTINUOUS
 62
   134
  5
B8
 10
955446.014
 20
7262255.492
 30
0.0
 40
13.999
  1
 14
 50
358.070122
  7
ROMANS
 11
955446.485435
 21
7262269.48306
 31
0.0
210
0.0
220
0.0
230
1.0
 73
     3
  0
TEXT
  8
10
  6
CONTINUOUS
 62
   134
  5
B9
 10
955428.003
 20
7261961.437
 30
0.0
 40
13.999
  1
 19
 50
358.070122
  7
ROMANS
 11
955428.474435
 21
7261975.42806
 31
0.0
210
0.0
220
0.0
230
1.0
 73
     3
  0
TEXT
  8
10
  6
CONTINUOUS
 62
   134
  5
BA
 10
955789.564
 20
7261949.255
 30
0.0
 40
13.999
  1
 21
 50
358.070122
  7
ROMANS
 11
955790.035435
 21
7261963.24606
 31
0.0
210
0.0
220
0.0
230
1.0
 73
     3
  0
TEXT
  8
10
  6
CONTINUOUS
 62
   134
  5
BB
 10
955937.967
 20
7261944.254
 30
0.0
 40
13.999
  1
 22
 50
358.070122
  7
ROMANS
 11
955938.438435
 21
7261958.24506
 31
0.0
210
0.0
220
0.0
230
1.0
 73
     3
  0
TEXT
  8
10
  6
CONTINUOUS
 62
   134
  5
BC
 10
956091.765
 20
7261939.073
 30
0.0
 40
13.999
  1
 23
 50
358.070122
  7
ROMANS
 11
956092.236435
 21
7261953.06406
 31
0.0
210
0.0
220
0.0
230
1.0
 73
     3
  0
TEXT
  8
10
  6
CONTINUOUS
 62
   134
  5
BD
 10
956240.169
 20
7261934.071
 30
0.0
 40
13.999
  1
 24
 50
358.070122
  7
ROMANS
 11
956240.640435
 21
7261948.06206
 31
0.0
210
0.0
220
0.0
230
1.0
 73
     3
  0
TEXT
  8
10
  6
CONTINUOUS
 62
   134
  5
BE
 10
956445.233
 20
7261927.161
 30
0.0
 40
13.999
  1
 25
 50
358.070122
  7
ROMANS
 11
956445.704435
 21
7261941.15206
 31
0.0
210
0.0
220
0.0
230
1.0
 73
     3
  0
TEXT
  8
10
  6
CONTINUOUS
 62
   134
  5
BF
 10
956601.73
 20
7261921.889
 30
0.0
 40
13.999
  1
 26
 50
358.070122
  7
ROMANS
 11
956602.201435
 21
7261935.88006
 31
0.0
210
0.0
220
0.0
230
1.0
 73
     3
  0
TEXT
  8
10
  6
CONTINUOUS
 62
   134
  5
C0
 10
956752.83
 20
7261916.797
 30
0.0
 40
13.999
  1
 27
 50
358.070122
  7
ROMANS
 11
956753.301435
 21
7261930.78806
 31
0.0
210
0.0
220
0.0
230
1.0
 73
     3
  0
TEXT
  8
10
  6
CONTINUOUS
 62
   134
  5
C1
 10
956901.233
 20
7261911.797
 30
0.0
 40
13.999
  1
 28
 50
358.070122
  7
ROMANS
 11
956901.704435
 21
7261925.78806
 31
0.0
210
0.0
220
0.0
230
1.0
 73
     3
  0
TEXT
  8
10
  6
CONTINUOUS
 62
   134
  5
C2
 10
957111.693
 20
7261904.706
 30
0.0
 40
13.999
  1
 29
 50
358.070122
  7
ROMANS
 11
957112.164435
 21
7261918.69706
 31
0.0
210
0.0
220
0.0
230
1.0
 73
     3
  0
TEXT
  8
10
  6
CONTINUOUS
 62
   134
  5
C3
 10
957254.699
 20
7261899.886
 30
0.0
 40
13.999
  1
 30
 50
358.070122
  7
ROMANS
 11
957255.170435
 21
7261913.87706
 31
0.0
210
0.0
220
0.0
230
1.0
 73
     3
  0
TEXT
  8
10
  6
CONTINUOUS
 62
   134
  5
C4
 10
957411.197
 20
7261894.613
 30
0.0
 40
13.999
  1
 31
 50
358.070122
  7
ROMANS
 11
957411.668435
 21
7261908.60406
 31
0.0
210
0.0
220
0.0
230
1.0
 73
     3
  0
TEXT
  8
10
  6
CONTINUOUS
 62
   134
  5
C5
 10
957551.505
 20
7261889.886
 30
0.0
 40
13.999
  1
 32
 50
358.070122
  7
ROMANS
 11
957551.976435
 21
7261903.87706
 31
0.0
210
0.0
220
0.0
230
1.0
 73
     3
  0
TEXT
  8
10
  6
CONTINUOUS
 62
   134
  5
C6
 10
957539.131
 20
7261522.652
 30
0.0
 40
13.999
  1
 33
 50
358.070122
  7
ROMANS
 11
957539.602435
 21
7261536.64306
 31
0.0
210
0.0
220
0.0
230
1.0
 73
     3
  0
TEXT
  8
10
  6
CONTINUOUS
 62
   134
  5
C7
 10
957404.22
 20
7261527.197
 30
0.0
 40
13.999
  1
 34
 50
358.070122
  7
ROMANS
 11
957404.691435
 21
7261541.18806
 31
0.0
210
0.0
220
0.0
230
1.0
 73
     3
  0
TEXT
  8
10
  6
CONTINUOUS
 62
   134
  5
C8
 10
957245.025
 20
7261532.561
 30
0.0
 40
13.999
  1
 35
 50
358.070122
  7
ROMANS
 11
957245.496435
 21
7261546.55206
 31
0.0
210
0.0
220
0.0
230
1.0
 73
     3
  0
TEXT
  8
10
  6
CONTINUOUS
 62
   134
  5
C9
 10
957102.018
 20
7261537.379
 30
0.0
 40
13.999
  1
 36
 50
358.070122
  7
ROMANS
 11
957102.489435
 21
7261551.37006
 31
0.0
210
0.0
220
0.0
230
1.0
 73
     3
  0
TEXT
  8
10
  6
CONTINUOUS
 62
   134
  5
CA
 10
956888.859
 20
7261544.563
 30
0.0
 40
13.999
  1
 37
 50
358.070122
  7
ROMANS
 11
956889.330435
 21
7261558.55406
 31
0.0
210
0.0
220
0.0
230
1.0
 73
     3
  0
TEXT
  8
10
  6
CONTINUOUS
 62
   134
  5
CB
 10
956743.155
 20
7261549.472
 30
0.0
 40
13.999
  1
 38
 50
358.070122
  7
ROMANS
 11
956743.626435
 21
7261563.46306
 31
0.0
210
0.0
220
0.0
230
1.0
 73
     3
  0
TEXT
  8
10
  6
CONTINUOUS
 62
   134
  5
CC
 10
956589.356
 20
7261554.654
 30
0.0
 40
13.999
  1
 39
 50
358.070122
  7
ROMANS
 11
956589.827435
 21
7261568.64506
 31
0.0
210
0.0
220
0.0
230
1.0
 73
     3
  0
TEXT
  8
10
  6
CONTINUOUS
 62
   134
  5
CD
 10
956432.86
 20
7261559.927
 30
0.0
 40
13.999
  1
 40
 50
358.070122
  7
ROMANS
 11
956433.331435
 21
7261573.91806
 31
0.0
210
0.0
220
0.0
230
1.0
 73
     3
  0
TEXT
  8
10
  6
CONTINUOUS
 62
   134
  5
CE
 10
956230.492
 20
7261566.746
 30
0.0
 40
13.999
  1
 41
 50
358.070122
  7
ROMANS
 11
956230.963435
 21
7261580.73706
 31
0.0
210
0.0
220
0.0
230
1.0
 73
     3
  0
TEXT
  8
10
  6
CONTINUOUS
 62
   134
  5
CF
 10
956082.09
 20
7261571.747
 30
0.0
 40
13.999
  1
 42
 50
358.070122
  7
ROMANS
 11
956082.561435
 21
7261585.73806
 31
0.0
210
0.0
220
0.0
230
1.0
 73
     3
  0
TEXT
  8
10
  6
CONTINUOUS
 62
   134
  5
D0
 10
955928.291
 20
7261576.929
 30
0.0
 40
13.999
  1
 43
 50
358.070122
  7
ROMANS
 11
955928.762435
 21
7261590.92006
 31
0.0
210
0.0
220
0.0
230
1.0
 73
     3
  0
TEXT
  8
10
  6
CONTINUOUS
 62
   134
  5
D1
 10
955777.19
 20
7261582.02
 30
0.0
 40
13.999
  1
 44
 50
358.070122
  7
ROMANS
 11
955777.661435
 21
7261596.01106
 31
0.0
210
0.0
220
0.0
230
1.0
 73
     3
  0
TEXT
  8
10
  6
CONTINUOUS
 62
   134
  5
D2
 10
955572.126
 20
7261588.931
 30
0.0
 40
13.999
  1
 45
 50
358.070122
  7
ROMANS
 11
955572.597435
 21
7261602.92206
 31
0.0
210
0.0
220
0.0
230
1.0
 73
     3
  0
TEXT
  8
10
  6
CONTINUOUS
 62
   134
  5
D3
 10
955415.628
 20
7261594.203
 30
0.0
 40
13.999
  1
 46
 50
358.070122
  7
ROMANS
 11
955416.099435
 21
7261608.19406
 31
0.0
210
0.0
220
0.0
230
1.0
 73
     3
  0
TEXT
  8
10
  6
CONTINUOUS
 62
   134
  5
D4
 10
955272.623
 20
7261599.022
 30
0.0
 40
13.999
  1
 47
 50
358.070122
  7
ROMANS
 11
955273.094435
 21
7261613.01306
 31
0.0
210
0.0
220
0.0
230
1.0
 73
     3
  0
TEXT
  8
10
  6
CONTINUOUS
 62
   134
  5
D5
 10
955121.523
 20
7261604.114
 30
0.0
 40
13.999
  1
 48
 50
358.070122
  7
ROMANS
 11
955121.994435
 21
7261618.10506
 31
0.0
210
0.0
220
0.0
230
1.0
 73
     3
  0
TEXT
  8
10
  6
CONTINUOUS
 62
   134
  5
D6
 10
955111.968
 20
7261320.587
 30
0.0
 40
13.999
  1
 49
 50
358.070122
  7
ROMANS
 11
955112.439435
 21
7261334.57806
 31
0.0
210
0.0
220
0.0
230
1.0
 73
     3
  0
TEXT
  8
10
  6
CONTINUOUS
 62
   134
  5
D7
 10
955260.37
 20
7261315.586
 30
0.0
 40
13.999
  1
 50
 50
358.070122
  7
ROMANS
 11
955260.841435
 21
7261329.57706
 31
0.0
210
0.0
220
0.0
230
1.0
 73
     3
  0
TEXT
  8
10
  6
CONTINUOUS
 62
   134
  5
D8
 10
955408.773
 20
7261310.586
 30
0.0
 40
13.999
  1
 51
 50
358.070122
  7
ROMANS
 11
955409.244435
 21
7261324.57706
 31
0.0
210
0.0
220
0.0
230
1.0
 73
     3
  0
TEXT
  8
10
  6
CONTINUOUS
 62
   134
  5
D9
 10
955565.27
 20
7261305.313
 30
0.0
 40
13.999
  1
 52
 50
358.070122
  7
ROMANS
 11
955565.741435
 21
7261319.30406
 31
0.0
210
0.0
220
0.0
230
1.0
 73
     3
  0
TEXT
  8
10
  6
CONTINUOUS
 62
   134
  5
DA
 10
955767.636
 20
7261298.494
 30
0.0
 40
13.999
  1
 53
 50
358.070122
  7
ROMANS
 11
955768.107435
 21
7261312.48506
 31
0.0
210
0.0
220
0.0
230
1.0
 73
     3
  0
TEXT
  8
10
  6
CONTINUOUS
 62
   134
  5
DB
 10
955921.435
 20
7261293.312
 30
0.0
 40
13.999
  1
 54
 50
358.070122
  7
ROMANS
 11
955921.906435
 21
7261307.30306
 31
0.0
210
0.0
220
0.0
230
1.0
 73
     3
  0
TEXT
  8
10
  6
CONTINUOUS
 62
   134
  5
DC
 10
956072.536
 20
7261288.221
 30
0.0
 40
13.999
  1
 55
 50
358.070122
  7
ROMANS
 11
956073.007435
 21
7261302.21206
 31
0.0
210
0.0
220
0.0
230
1.0
 73
     3
  0
TEXT
  8
10
  6
CONTINUOUS
 62
   134
  5
DD
 10
956220.938
 20
7261283.22
 30
0.0
 40
13.999
  1
 56
 50
358.070122
  7
ROMANS
 11
956221.409435
 21
7261297.21106
 31
0.0
210
0.0
220
0.0
230
1.0
 73
     3
  0
TEXT
  8
10
  6
CONTINUOUS
 62
   134
  5
DE
 10
956423.305
 20
7261276.401
 30
0.0
 40
13.999
  1
 57
 50
358.070122
  7
ROMANS
 11
956423.776435
 21
7261290.39206
 31
0.0
210
0.0
220
0.0
230
1.0
 73
     3
  0
TEXT
  8
10
  6
CONTINUOUS
 62
   134
  5
DF
 10
956577.104
 20
7261271.218
 30
0.0
 40
13.999
  1
 58
 50
358.070122
  7
ROMANS
 11
956577.575435
 21
7261285.20906
 31
0.0
210
0.0
220
0.0
230
1.0
 73
     3
  0
TEXT
  8
10
  6
CONTINUOUS
 62
   134
  5
E0
 10
956736.3
 20
7261265.855
 30
0.0
 40
13.999
  1
 59
 50
358.070122
  7
ROMANS
 11
956736.771435
 21
7261279.84606
 31
0.0
210
0.0
220
0.0
230
1.0
 73
     3
  0
TEXT
  8
10
  6
CONTINUOUS
 62
   134
  5
E1
 10
956879.306
 20
7261261.036
 30
0.0
 40
13.999
  1
 60
 50
358.070122
  7
ROMANS
 11
956879.777435
 21
7261275.02706
 31
0.0
210
0.0
220
0.0
230
1.0
 73
     3
  0
TEXT
  8
10
  6
CONTINUOUS
 62
   134
  5
E2
 10
957089.766
 20
7261253.945
 30
0.0
 40
13.999
  1
 61
 50
358.070122
  7
ROMANS
 11
957090.237435
 21
7261267.93606
 31
0.0
210
0.0
220
0.0
230
1.0
 73
     3
  0
TEXT
  8
10
  6
CONTINUOUS
 62
   134
  5
E3
 10
957235.47
 20
7261249.035
 30
0.0
 40
13.999
  1
 62
 50
358.070122
  7
ROMANS
 11
957235.941435
 21
7261263.02606
 31
0.0
210
0.0
220
0.0
230
1.0
 73
     3
  0
TEXT
  8
10
  6
CONTINUOUS
 62
   134
  5
E4
 10
957394.666
 20
7261243.671
 30
0.0
 40
13.999
  1
 63
 50
358.070122
  7
ROMANS
 11
957395.137435
 21
7261257.66206
 31
0.0
210
0.0
220
0.0
230
1.0
 73
     3
  0
TEXT
  8
10
  6
CONTINUOUS
 62
   134
  5
E5
 10
957529.578
 20
7261239.125
 30
0.0
 40
13.999
  1
 64
 50
358.070122
  7
ROMANS
 11
957530.049435
 21
7261253.11606
 31
0.0
210
0.0
220
0.0
230
1.0
 73
     3
  0
TEXT
  8
10
  6
CONTINUOUS
 62
   134
  5
E6
 10
955567.492
 20
7261964.603
 30
0.0
 40
13.999
  1
 20-A
 50
358.070122
  7
ROMANS
 11
955567.963435
 21
7261978.59406
 31
0.0
210
0.0
220
0.0
230
1.0
 73
     3
  0
TEXT
  8
10
  6
CONTINUOUS
 62
   134
  5
E7
 10
957520.189
 20
7260879.69
 30
0.0
 40
13.999
  1
 65
 50
358.070122
  7
ROMANS
 11
957520.660435
 21
7260893.68106
 31
0.0
210
0.0
220
0.0
230
1.0
 73
     3
  0
TEXT
  8
10
  6
CONTINUOUS
 62
   134
  5
E8
 10
957381.458
 20
7260884.364
 30
0.0
 40
13.999
  1
 66
 50
358.070122
  7
ROMANS
 11
957381.929435
 21
7260898.35506
 31
0.0
210
0.0
220
0.0
230
1.0
 73
     3
  0
TEXT
  8
10
  6
CONTINUOUS
 62
   134
  5
E9
 10
957223.682
 20
7260889.681
 30
0.0
 40
13.999
  1
 67
 50
358.070122
  7
ROMANS
 11
957224.153435
 21
7260903.67206
 31
0.0
210
0.0
220
0.0
230
1.0
 73
     3
  0
TEXT
  8
10
  6
CONTINUOUS
 62
   134
  5
EA
 10
957079.509
 20
7260894.539
 30
0.0
 40
13.999
  1
 68
 50
358.070122
  7
ROMANS
 11
957079.980435
 21
7260908.53006
 31
0.0
210
0.0
220
0.0
230
1.0
 73
     3
  0
TEXT
  8
10
  6
CONTINUOUS
 62
   134
  5
EB
 10
956867.33
 20
7260901.688
 30
0.0
 40
13.999
  1
 69
 50
358.070122
  7
ROMANS
 11
956867.801435
 21
7260915.67906
 31
0.0
210
0.0
220
0.0
230
1.0
 73
     3
  0
TEXT
  8
10
  6
CONTINUOUS
 62
   134
  5
EC
 10
956725.876
 20
7260906.456
 30
0.0
 40
13.999
  1
 70
 50
358.070122
  7
ROMANS
 11
956726.347435
 21
7260920.44706
 31
0.0
210
0.0
220
0.0
230
1.0
 73
     3
  0
TEXT
  8
10
  6
CONTINUOUS
 62
   134
  5
ED
 10
956570.823
 20
7260911.679
 30
0.0
 40
13.999
  1
 71
 50
358.070122
  7
ROMANS
 11
956571.294435
 21
7260925.67006
 31
0.0
210
0.0
220
0.0
230
1.0
 73
     3
  0
TEXT
  8
10
  6
CONTINUOUS
 62
   134
  5
EE
 10
956415.768
 20
7260916.904
 30
0.0
 40
13.999
  1
 72
 50
358.070122
  7
ROMANS
 11
956416.239435
 21
7260930.89506
 31
0.0
210
0.0
220
0.0
230
1.0
 73
     3
  0
TEXT
  8
10
  6
CONTINUOUS
 62
   134
  5
EF
 10
956211.749
 20
7260923.779
 30
0.0
 40
13.999
  1
 73
 50
358.070122
  7
ROMANS
 11
956212.220435
 21
7260937.77006
 31
0.0
210
0.0
220
0.0
230
1.0
 73
     3
  0
TEXT
  8
10
  6
CONTINUOUS
 62
   134
  5
F0
 10
956067.576
 20
7260928.636
 30
0.0
 40
13.999
  1
 74
 50
358.070122
  7
ROMANS
 11
956068.047435
 21
7260942.62706
 31
0.0
210
0.0
220
0.0
230
1.0
 73
     3
  0
TEXT
  8
10
  6
CONTINUOUS
 62
   134
  5
F1
 10
955907.081
 20
7260934.044
 30
0.0
 40
13.999
  1
 75
 50
358.070122
  7
ROMANS
 11
955907.552435
 21
7260948.03506
 31
0.0
210
0.0
220
0.0
230
1.0
 73
     3
  0
TEXT
  8
10
  6
CONTINUOUS
 62
   134
  5
F2
 10
955757.468
 20
7260939.086
 30
0.0
 40
13.999
  1
 76
 50
358.070122
  7
ROMANS
 11
955757.939435
 21
7260953.07706
 31
0.0
210
0.0
220
0.0
230
1.0
 73
     3
  0
TEXT
  8
10
  6
CONTINUOUS
 62
   134
  5
F3
 10
955556.169
 20
7260945.869
 30
0.0
 40
13.999
  1
 77
 50
358.070122
  7
ROMANS
 11
955556.640435
 21
7260959.86006
 31
0.0
210
0.0
220
0.0
230
1.0
 73
     3
  0
TEXT
  8
10
  6
CONTINUOUS
 62
   134
  5
F4
 10
955392.953
 20
7260951.368
 30
0.0
 40
13.999
  1
 78
 50
358.070122
  7
ROMANS
 11
955393.424435
 21
7260965.35906
 31
0.0
210
0.0
220
0.0
230
1.0
 73
     3
  0
TEXT
  8
10
  6
CONTINUOUS
 62
   134
  5
F5
 10
955251.501
 20
7260956.135
 30
0.0
 40
13.999
  1
 79
 50
358.070122
  7
ROMANS
 11
955251.972435
 21
7260970.12606
 31
0.0
210
0.0
220
0.0
230
1.0
 73
     3
  0
TEXT
  8
10
  6
CONTINUOUS
 62
   134
  5
F6
 10
955101.886
 20
7260961.176
 30
0.0
 40
13.999
  1
 80
 50
358.070122
  7
ROMANS
 11
955102.357435
 21
7260975.16706
 31
0.0
210
0.0
220
0.0
230
1.0
 73
     3
  0
TEXT
  8
10
  6
CONTINUOUS
 62
   134
  5
F7
 10
955091.704
 20
7260659.001
 30
0.0
 40
13.999
  1
 81
 50
358.070122
  7
ROMANS
 11
955092.175435
 21
7260672.99206
 31
0.0
210
0.0
220
0.0
230
1.0
 73
     3
  0
TEXT
  8
10
  6
CONTINUOUS
 62
   134
  5
F8
 10
955241.318
 20
7260653.959
 30
0.0
 40
13.999
  1
 82
 50
358.070122
  7
ROMANS
 11
955241.789435
 21
7260667.95006
 31
0.0
210
0.0
220
0.0
230
1.0
 73
     3
  0
TEXT
  8
10
  6
CONTINUOUS
 62
   134
  5
F9
 10
955382.771
 20
7260649.193
 30
0.0
 40
13.999
  1
 83
 50
358.070122
  7
ROMANS
 11
955383.242435
 21
7260663.18406
 31
0.0
210
0.0
220
0.0
230
1.0
 73
     3
  0
TEXT
  8
10
  6
CONTINUOUS
 62
   134
  5
FA
 10
955545.986
 20
7260643.694
 30
0.0
 40
13.999
  1
 84
 50
358.070122
  7
ROMANS
 11
955546.457435
 21
7260657.68506
 31
0.0
210
0.0
220
0.0
230
1.0
 73
     3
  0
TEXT
  8
10
  6
CONTINUOUS
 62
   134
  5
FB
 10
955747.285
 20
7260636.91
 30
0.0
 40
13.999
  1
 85
 50
358.070122
  7
ROMANS
 11
955747.756435
 21
7260650.90106
 31
0.0
210
0.0
220
0.0
230
1.0
 73
     3
  0
TEXT
  8
10
  6
CONTINUOUS
 62
   134
  5
FC
 10
955896.899
 20
7260631.869
 30
0.0
 40
13.999
  1
 86
 50
358.070122
  7
ROMANS
 11
955897.370435
 21
7260645.86006
 31
0.0
210
0.0
220
0.0
230
1.0
 73
     3
  0
TEXT
  8
10
  6
CONTINUOUS
 62
   134
  5
FD
 10
956043.793
 20
7260626.919
 30
0.0
 40
13.999
  1
 87
 50
358.070122
  7
ROMANS
 11
956044.264435
 21
7260640.91006
 31
0.0
210
0.0
220
0.0
230
1.0
 73
     3
  0
TEXT
  8
10
  6
CONTINUOUS
 62
   134
  5
FE
 10
956193.405
 20
7260621.878
 30
0.0
 40
13.999
  1
 88
 50
358.070122
  7
ROMANS
 11
956193.876435
 21
7260635.86906
 31
0.0
210
0.0
220
0.0
230
1.0
 73
     3
  0
TEXT
  8
10
  6
CONTINUOUS
 62
   134
  5
FF
 10
956405.585
 20
7260614.728
 30
0.0
 40
13.999
  1
 89
 50
358.070122
  7
ROMANS
 11
956406.056435
 21
7260628.71906
 31
0.0
210
0.0
220
0.0
230
1.0
 73
     3
  0
TEXT
  8
10
  6
CONTINUOUS
 62
   134
  5
100
 10
956552.479
 20
7260609.78
 30
0.0
 40
13.999
  1
 90
 50
358.070122
  7
ROMANS
 11
956552.950435
 21
7260623.77106
 31
0.0
210
0.0
220
0.0
230
1.0
 73
     3
  0
TEXT
  8
10
  6
CONTINUOUS
 62
   134
  5
101
 10
956545.354
 20
7260236.641
 30
0.0
 40
13.999
  1
 91
 50
358.070122
  7
ROMANS
 11
956545.825435
 21
7260250.63206
 31
0.0
210
0.0
220
0.0
230
1.0
 73
     3
  0
TEXT
  8
10
  6
CONTINUOUS
 62
   134
  5
102
 10
956395.739
 20
7260241.682
 30
0.0
 40
13.999
  1
 92
 50
358.070122
  7
ROMANS
 11
956396.210435
 21
7260255.67306
 31
0.0
210
0.0
220
0.0
230
1.0
 73
     3
  0
TEXT
  8
10
  6
CONTINUOUS
 62
   134
  5
103
 10
956183.56
 20
7260248.832
 30
0.0
 40
13.999
  1
 93
 50
358.070122
  7
ROMANS
 11
956184.031435
 21
7260262.82306
 31
0.0
210
0.0
220
0.0
230
1.0
 73
     3
  0
TEXT
  8
10
  6
CONTINUOUS
 62
   134
  5
104
 10
956036.666
 20
7260253.781
 30
0.0
 40
13.999
  1
 94
 50
358.070122
  7
ROMANS
 11
956037.137435
 21
7260267.77206
 31
0.0
210
0.0
220
0.0
230
1.0
 73
     3
  0
TEXT
  8
10
  6
CONTINUOUS
 62
   134
  5
105
 10
955884.333
 20
7260258.915
 30
0.0
 40
13.999
  1
 95
 50
358.070122
  7
ROMANS
 11
955884.804435
 21
7260272.90606
 31
0.0
210
0.0
220
0.0
230
1.0
 73
     3
  0
TEXT
  8
10
  6
CONTINUOUS
 62
   134
  5
106
 10
955737.439
 20
7260263.864
 30
0.0
 40
13.999
  1
 96
 50
358.070122
  7
ROMANS
 11
955737.910435
 21
7260277.85506
 31
0.0
210
0.0
220
0.0
230
1.0
 73
     3
  0
TEXT
  8
10
  6
CONTINUOUS
 62
   134
  5
107
 10
955533.42
 20
7260270.739
 30
0.0
 40
13.999
  1
 97
 50
358.070122
  7
ROMANS
 11
955533.891435
 21
7260284.73006
 31
0.0
210
0.0
220
0.0
230
1.0
 73
     3
  0
TEXT
  8
10
  6
CONTINUOUS
 62
   134
  5
108
 10
955375.645
 20
7260276.055
 30
0.0
 40
13.999
  1
 98
 50
358.070122
  7
ROMANS
 11
955376.116435
 21
7260290.04606
 31
0.0
210
0.0
220
0.0
230
1.0
 73
     3
  0
TEXT
  8
10
  6
CONTINUOUS
 62
   134
  5
109
 10
955228.752
 20
7260281.005
 30
0.0
 40
13.999
  1
 99
 50
358.070122
  7
ROMANS
 11
955229.223435
 21
7260294.99606
 31
0.0
210
0.0
220
0.0
230
1.0
 73
     3
  0
TEXT
  8
10
  6
CONTINUOUS
 62
   134
  5
10A
 10
955081.858
 20
7260285.955
 30
0.0
 40
13.999
  1
100
 50
358.070122
  7
ROMANS
 11
955082.329435
 21
7260299.94606
 31
0.0
210
0.0
220
0.0
230
1.0
 73
     3
  0
TEXT
  8
10
  6
CONTINUOUS
 62
   134
  5
10B
 10
955072.41
 20
7260005.559
 30
0.0
 40
13.999
  1
101
 50
358.070122
  7
ROMANS
 11
955072.881435
 21
7260019.55006
 31
0.0
210
0.0
220
0.0
230
1.0
 73
     3
  0
TEXT
  8
10
  6
CONTINUOUS
 62
   134
  5
10C
 10
955222.024
 20
7260000.517
 30
0.0
 40
13.999
  1
102
 50
358.070122
  7
ROMANS
 11
955222.495435
 21
7260014.50806
 31
0.0
210
0.0
220
0.0
230
1.0
 73
     3
  0
TEXT
  8
10
  6
CONTINUOUS
 62
   134
  5
10D
 10
955371.638
 20
7259995.476
 30
0.0
 40
13.999
  1
103
 50
358.070122
  7
ROMANS
 11
955372.109435
 21
7260009.46706
 31
0.0
210
0.0
220
0.0
230
1.0
 73
     3
  0
TEXT
  8
10
  6
CONTINUOUS
 62
   134
  5
10E
 10
955523.971
 20
7259990.343
 30
0.0
 40
13.999
  1
104
 50
358.070122
  7
ROMANS
 11
955524.442435
 21
7260004.33406
 31
0.0
210
0.0
220
0.0
230
1.0
 73
     3
  0
TEXT
  8
10
  6
CONTINUOUS
 62
   134
  5
10F
 10
955727.991
 20
7259983.468
 30
0.0
 40
13.999
  1
105
 50
358.070122
  7
ROMANS
 11
955728.462435
 21
7259997.45906
 31
0.0
210
0.0
220
0.0
230
1.0
 73
     3
  0
TEXT
  8
10
  6
CONTINUOUS
 62
   134
  5
110
 10
955872.164
 20
7259978.611
 30
0.0
 40
13.999
  1
106
 50
358.070122
  7
ROMANS
 11
955872.635435
 21
7259992.60206
 31
0.0
210
0.0
220
0.0
230
1.0
 73
     3
  0
TEXT
  8
10
  6
CONTINUOUS
 62
   134
  5
111
 10
956032.659
 20
7259973.203
 30
0.0
 40
13.999
  1
107
 50
358.070122
  7
ROMANS
 11
956033.130435
 21
7259987.19406
 31
0.0
210
0.0
220
0.0
230
1.0
 73
     3
  0
TEXT
  8
10
  6
CONTINUOUS
 62
   134
  5
112
 10
956174.111
 20
7259968.437
 30
0.0
 40
13.999
  1
108
 50
358.070122
  7
ROMANS
 11
956174.582435
 21
7259982.42806
 31
0.0
210
0.0
220
0.0
230
1.0
 73
     3
  0
TEXT
  8
10
  6
CONTINUOUS
 62
   134
  5
113
 10
956383.571
 20
7259961.378
 30
0.0
 40
13.999
  1
109
 50
358.070122
  7
ROMANS
 11
956384.042435
 21
7259975.36906
 31
0.0
210
0.0
220
0.0
230
1.0
 73
     3
  0
TEXT
  8
10
  6
CONTINUOUS
 62
   134
  5
114
 10
956535.905
 20
7259956.245
 30
0.0
 40
13.999
  1
110
 50
358.070122
  7
ROMANS
 11
956536.376435
 21
7259970.23606
 31
0.0
210
0.0
220
0.0
230
1.0
 73
     3
  0
ARC
  8
6
  6
CONTINUOUS
 62
     7
  5
115
 10
955002.778521
 20
7262401.624085
 30
0.0
 40
15.0
 50
358.0579
 51
88.089394
210
0.0
220
0.0
230
1.0
  0
LINE
  8
6
  6
CONTINUOUS
 62
     7
  5
116
 10
953700.877
 20
7260591.523
 30
0.0
 11
953763.658
 21
7262442.966
 31
0.0
  0
ARC
  8
6
  6
CONTINUOUS
 62
     7
  5
117
 10
953715.86857
 20
7260591.01486
 30
0.0
 40
15.0
 50
178.0579
 51
268.0579
210
0.0
220
0.0
230
1.0
  0
LINE
  8
6
  6
CONTINUOUS
 62
     7
  5
118
 10
954939.467
 20
7260534.515
 30
0.0
 11
953715.361
 21
7260576.023
 31
0.0
  0
LINE
  8
6
  6
CONTINUOUS
 62
     7
  5
119
 10
955017.822
 20
7262402.629
 30
0.0
 11
954954.966
 21
7260548.999
 31
0.0
  0
ARC
  8
6
  6
CONTINUOUS
 62
     7
  5
11A
 10
954939.97502
 20
7260549.506602
 30
0.0
 40
15.0
 50
268.0579
 51
358.0579
210
0.0
220
0.0
230
1.0
  0
POLYLINE
  8
7
  6
CONTINUOUS
 62
     7
  5
11B
 66
     1
 10
0.0
 20
0.0
 30
0.0
  0
VERTEX
  8
7
  6
CONTINUOUS
 62
     7
  5
11C
 10
954063.986
 20
7262447.792
 30
0.0
  0
VERTEX
  8
7
  6
CONTINUOUS
 62
     7
  5
11D
 10
954038.908
 20
7261708.217
 30
0.0
  0
VERTEX
  8
7
  6
CONTINUOUS
 62
     7
  5
11E
 10
953739.08
 20
7261718.384
 30
0.0
  0
SEQEND
  8
7
  6
CONTINUOUS
 62
     7
  5
11F
  0
POLYLINE
  8
7
  6
CONTINUOUS
 62
     7
  5
120
 66
     1
 10
0.0
 20
0.0
 30
0.0
  0
VERTEX
  8
7
  6
CONTINUOUS
 62
     7
  5
121
 10
953680.817
 20
7260015.873
 30
0.0
  0
VERTEX
  8
7
  6
CONTINUOUS
 62
     7
  5
122
 10
954060.598
 20
7260002.994
 30
0.0
  0
VERTEX
  8
7
  6
CONTINUOUS
 62
     7
  5
123
 10
954065.721
 20
7260154.057
 30
0.0
  0
VERTEX
  8
7
  6
CONTINUOUS
 62
     7
  5
124
 10
953685.939
 20
7260166.936
 30
0.0
  0
SEQEND
  8
7
  6
CONTINUOUS
 62
     7
  5
125
  0
POLYLINE
  8
7
  6
CONTINUOUS
 62
     7
  5
126
 66
     1
 10
0.0
 20
0.0
 30
0.0
  0
VERTEX
  8
7
  6
CONTINUOUS
 62
     7
  5
127
 10
952973.414
 20
7262482.481
 30
0.0
  0
VERTEX
  8
7
  6
CONTINUOUS
 62
     7
  5
128
 10
952954.848
 20
7261920.097
 30
0.0
  0
VERTEX
  8
7
  6
CONTINUOUS
 62
     7
  5
129
 10
952746.261
 20
7261926.983
 30
0.0
  0
SEQEND
  8
7
  6
CONTINUOUS
 62
     7
  5
12A
  0
LINE
  8
6
  6
CONTINUOUS
 62
     7
  5
12B
 10
953600.049
 20
7260579.269
 30
0.0
 11
952717.74
 21
7260608.396
 31
0.0
  0
ARC
  8
6
  6
CONTINUOUS
 62
     7
  5
12C
 10
952718.234526
 20
7260623.388109
 30
0.0
 40
15.0
 50
178.1092
 51
268.1092
210
0.0
220
0.0
230
1.0
  0
ARC
  8
6
  6
CONTINUOUS
 62
     7
  5
12D
 10
953600.54387
 20
7260594.260721
 30
0.0
 40
15.0
 50
268.1092
 51
358.1092
210
0.0
220
0.0
230
1.0
  0
LINE
  8
6
  6
CONTINUOUS
 62
     7
  5
12E
 10
953615.536
 20
7260593.766
 30
0.0
 11
953676.63
 21
7262444.387
 31
0.0
  0
LINE
  8
6
  6
CONTINUOUS
 62
     7
  5
12F
 10
953662.132
 20
7262459.875
 30
0.0
 11
952970.82
 21
7262482.697
 31
0.0
  0
ARC
  8
6
  6
CONTINUOUS
 62
     7
  5
130
 10
953661.637839
 20
7262444.882558
 30
0.0
 40
15.0
 50
358.1092
 51
88.1092
210
0.0
220
0.0
230
1.0
  0
ARC
  8
6
  6
CONTINUOUS
 62
     7
  5
131
 10
952393.483473
 20
7261950.745882
 30
0.0
 40
11.98
 50
178.578567
 51
268.1092
210
0.0
220
0.0
230
1.0
  0
LINE
  8
6
  6
CONTINUOUS
 62
     7
  5
132
 10
952973.414
 20
7262482.481
 30
0.0
 11
952487.234
 21
7262481.718
 31
0.0
  0
ARC
  8
6
  6
CONTINUOUS
 62
     7
  5
133
 10
952487.25926
 20
7262465.478738
 30
0.0
 40
16.24
 50
90.089808
 51
167.848367
210
0.0
220
0.0
230
1.0
  0
ARC
  8
6
  6
CONTINUOUS
 62
     7
  5
134
 10
952591.482201
 20
7259966.212449
 30
0.0
 40
15.0
 50
268.1092
 51
358.1092
210
0.0
220
0.0
230
1.0
  0
LINE
  8
6
  6
CONTINUOUS
 62
     7
  5
135
 10
952668.338
 20
7261839.637
 30
0.0
 11
952606.474
 21
7259965.718
 31
0.0
  0
POLYLINE
  8
6
  6
CONTINUOUS
 62
     7
  5
136
 66
     1
 10
0.0
 20
0.0
 30
0.0
  0
VERTEX
  8
6
  6
CONTINUOUS
 62
     7
  5
137
 10
952590.987
 20
7259951.22
 30
0.0
  0
VERTEX
  8
6
  6
CONTINUOUS
 62
     7
  5
138
 10
952306.142
 20
7259960.624
 30
0.0
  0
VERTEX
  8
6
  6
CONTINUOUS
 62
     7
  5
139
 10
952362.396
 20
7261664.636
 30
0.0
  0
VERTEX
  8
6
  6
CONTINUOUS
 62
     7
  5
13A
 10
952368.996
 20
7261864.527
 30
0.0
  0
VERTEX
  8
6
  6
CONTINUOUS
 62
     7
  5
13B
 10
952653.84
 20
7261855.123
 30
0.0
  0
SEQEND
  8
6
  6
CONTINUOUS
 62
     7
  5
13C
  0
ARC
  8
6
  6
CONTINUOUS
 62
     7
  5
13D
 10
952653.345276
 20
7261840.131594
 30
0.0
 40
15.0
 50
358.1092
 51
88.1092
210
0.0
220
0.0
230
1.0
  0
LINE
  8
7
  6
CONTINUOUS
 62
     7
  5
13E
 10
952362.396
 20
7261664.636
 30
0.0
 11
952662.234
 21
7261654.737
 31
0.0
  0
ARC
  8
6
  6
CONTINUOUS
 62
     7
  5
13F
 10
949544.555183
 20
7262710.136872
 30
0.0
 40
2936.752875
 50
345.020075
 51
355.280986
210
0.0
220
0.0
230
1.0
  0
LINE
  8
6
  6
CONTINUOUS
 62
     7
  5
140
 10
953676.718
 20
7259878.432
 30
0.0
 11
957559.148
 21
7259746.783
 31
0.0
  0
POLYLINE
  8
6
  6
CONTINUOUS
 62
     7
  5
141
 66
     1
 10
0.0
 20
0.0
 30
0.0
  0
VERTEX
  8
6
  6
CONTINUOUS
 62
     7
  5
142
 10
957628.267
 20
7261035.181
 30
0.0
  0
VERTEX
  8
6
  6
CONTINUOUS
 62
     7
  5
143
 10
957618.164
 20
7260735.351
 30
0.0
  0
VERTEX
  8
6
  6
CONTINUOUS
 62
     7
  5
144
 10
957483.24
 20
7260739.897
 30
0.0
  0
VERTEX
  8
6
  6
CONTINUOUS
 62
     7
  5
145
 10
957483.239
 20
7260739.852
 30
0.0
  0
SEQEND
  8
6
  6
CONTINUOUS
 62
     7
  5
146
  0
POLYLINE
  8
7
  6
CONTINUOUS
 62
     7
  5
147
 66
     1
 10
0.0
 20
0.0
 30
0.0
  0
VERTEX
  8
7
  6
CONTINUOUS
 62
     7
  5
148
 10
957482.903
 20
7260729.903
 30
0.0
  0
VERTEX
  8
7
  6
CONTINUOUS
 62
     7
  5
149
 10
957480.546
 20
7260659.943
 30
0.0
  0
VERTEX
  8
7
  6
CONTINUOUS
 62
     7
  5
14A
 10
957613.391
 20
7260655.466
 30
0.0
  0
SEQEND
  8
7
  6
CONTINUOUS
 62
     7
  5
14B
  0
POLYLINE
  8
7
  6
CONTINUOUS
 62
     7
  5
14C
 66
     1
 10
0.0
 20
0.0
 30
0.0
  0
VERTEX
  8
7
  6
CONTINUOUS
 62
     7
  5
14D
 10
957605.048
 20
7260515.668
 30
0.0
  0
VERTEX
  8
7
  6
CONTINUOUS
 62
     7
  5
14E
 10
957320.919
 20
7260525.242
 30
0.0
  0
VERTEX
  8
7
  6
CONTINUOUS
 62
     7
  5
14F
 10
957320.356
 20
7260508.551
 30
0.0
  0
SEQEND
  8
7
  6
CONTINUOUS
 62
     7
  5
150
  0
LINE
  8
7
  6
CONTINUOUS
 62
     7
  5
151
 10
957591.931
 20
7260295.985
 30
0.0
 11
957373.777
 21
7260303.335
 31
0.0
  0
TEXT
  8
10
  6
CONTINUOUS
 62
   134
  5
152
 10
957454.916
 20
7260447.289
 30
0.0
 40
13.999
  1
111
 50
358.070122
  7
ROMANS
 11
957455.387435
 21
7260461.28006
 31
0.0
210
0.0
220
0.0
230
1.0
 73
     3
  0
TEXT
  8
10
  6
CONTINUOUS
 62
   134
  5
153
 10
957538.068
 20
7260689.677
 30
0.0
 40
13.999
  1
1
 50
358.070122
  7
ROMANS
 11
957538.539435
 21
7260703.66806
 31
0.0
210
0.0
220
0.0
230
1.0
 73
     3
  0
TEXT
  8
10
  6
CONTINUOUS
 62
   134
  5
154
 10
955232.095
 20
7257389.28
 30
0.0
 40
13.999
  1
1
 50
358.0579
  7
ROMANS
 11
955232.56942
 21
7257403.270959
 31
0.0
210
0.0
220
0.0
230
1.0
 73
     3
  0
TEXT
  8
10
  6
CONTINUOUS
 62
   134
  5
155
 10
955692.165
 20
7257373.68
 30
0.0
 40
13.999
  1
2
 50
358.0579
  7
ROMANS
 11
955692.63942
 21
7257387.670959
 31
0.0
210
0.0
220
0.0
230
1.0
 73
     3
  0
TEXT
  8
10
  6
CONTINUOUS
 62
   134
  5
156
 10
953831.735
 20
7257436.764
 30
0.0
 40
13.999
  1
1
 50
358.0579
  7
ROMANS
 11
953832.20942
 21
7257450.754959
 31
0.0
210
0.0
220
0.0
230
1.0
 73
     3
  0
TEXT
  8
10
  6
CONTINUOUS
 62
   134
  5
157
 10
954473.147
 20
7257415.015
 30
0.0
 40
13.999
  1
2
 50
358.0579
  7
ROMANS
 11
954473.62142
 21
7257429.005959
 31
0.0
210
0.0
220
0.0
230
1.0
 73
     3
  0
TEXT
  8
10
  6
CONTINUOUS
 62
   134
  5
158
 10
953720.643
 20
7257729.933
 30
0.0
 40
13.999
  1
3
 50
358.0579
  7
ROMANS
 11
953721.11742
 21
7257743.923959
 31
0.0
210
0.0
220
0.0
230
1.0
 73
     3
  0
TEXT
  8
10
  6
CONTINUOUS
 62
   134
  5
159
 10
953860.326
 20
7260075.178
 30
0.0
 40
13.999
  1
6
 50
358.0579
  7
ROMANS
 11
953860.80042
 21
7260089.168959
 31
0.0
210
0.0
220
0.0
230
1.0
 73
     3
  0
TEXT
  8
10
  6
CONTINUOUS
 62
   134
  5
15A
 10
953472.735
 20
7260349.154
 30
0.0
 40
13.999
  1
7
 50
358.1092
  7
ROMANS
 11
953473.196893
 21
7260363.145378
 31
0.0
210
0.0
220
0.0
230
1.0
 73
     3
  0
TEXT
  8
10
  6
CONTINUOUS
 62
   134
  5
15B
 10
953327.142
 20
7260866.887
 30
0.0
 40
13.999
  1
5
 50
358.1092
  7
ROMANS
 11
953327.603893
 21
7260880.878378
 31
0.0
210
0.0
220
0.0
230
1.0
 73
     3
  0
TEXT
  8
10
  6
CONTINUOUS
 62
   134
  5
15C
 10
952503.155
 20
7261748.658
 30
0.0
 40
13.999
  1
1
 50
358.1092
  7
ROMANS
 11
952503.616893
 21
7261762.649378
 31
0.0
210
0.0
220
0.0
230
1.0
 73
     3
  0
TEXT
  8
10
  6
CONTINUOUS
 62
   134
  5
15D
 10
952700.348
 20
7262205.485
 30
0.0
 40
13.999
  1
4
 50
358.1092
  7
ROMANS
 11
952700.809893
 21
7262219.476378
 31
0.0
210
0.0
220
0.0
230
1.0
 73
     3
  0
TEXT
  8
10
  6
CONTINUOUS
 62
   134
  5
15E
 10
953348.622
 20
7261825.016
 30
0.0
 40
13.999
  1
2A
 50
358.1092
  7
ROMANS
 11
953349.083893
 21
7261839.007378
 31
0.0
210
0.0
220
0.0
230
1.0
 73
     3
  0
TEXT
  8
10
  6
CONTINUOUS
 62
   134
  5
15F
 10
953906.255
 20
7262062.169
 30
0.0
 40
13.999
  1
3
 50
358.0579
  7
ROMANS
 11
953906.72942
 21
7262076.159959
 31
0.0
210
0.0
220
0.0
230
1.0
 73
     3
  0
TEXT
  8
10
  6
CONTINUOUS
 62
   134
  5
160
 10
954085.809
 20
7262386.81
 30
0.0
 40
13.999
  1
4
 50
358.0579
  7
ROMANS
 11
954086.28342
 21
7262400.800959
 31
0.0
210
0.0
220
0.0
230
1.0
 73
     3
  0
TEXT
  8
10
  6
CONTINUOUS
 62
   134
  5
161
 10
954072.908
 20
7262269.858
 30
0.0
 40
13.999
  1
13
 50
358.0579
  7
ROMANS
 11
954073.38242
 21
7262283.848959
 31
0.0
210
0.0
220
0.0
230
1.0
 73
     3
  0
LINE
  8
7
  6
CONTINUOUS
 62
     7
  5
162
 10
957320.919
 20
7260525.242
 30
0.0
 11
956651.299
 21
7260547.805
 31
0.0
  0
LINE
  8
7
  6
CONTINUOUS
 62
     7
  5
163
 10
956643.891
 20
7260327.929
 30
0.0
 11
957373.777
 21
7260303.335
 31
0.0
  0
LINE
  8
7
  6
CONTINUOUS
 62
     7
  5
164
 10
957320.919
 20
7260525.242
 30
0.0
 11
957328.328
 21
7260745.116
 31
0.0
  0
LINE
  8
7
  6
CONTINUOUS
 62
     7
  5
165
 10
957300.93
 20
7260525.915
 30
0.0
 11
957308.339
 21
7260745.791
 31
0.0
  0
LINE
  8
7
  6
CONTINUOUS
 62
     7
  5
166
 10
957300.93
 20
7260525.915
 30
0.0
 11
957299.371
 21
7260479.641
 31
0.0
  0
ARC
  8
7
  6
CONTINUOUS
 62
     7
  5
167
 10
957693.205259
 20
7260495.98789
 30
0.0
 40
373.06
 50
178.070122
 51
210.998378
210
0.0
220
0.0
230
1.0
  0
ARC
  8
7
  6
CONTINUOUS
 62
     7
  5
168
 10
956926.522989
 20
7260492.204806
 30
0.0
 40
373.06
 50
330.571036
 51
358.070122
210
0.0
220
0.0
230
1.0
  0
LINE
  8
7
  6
CONTINUOUS
 62
     7
  5
169
 10
953065.614
 20
7261132.594
 30
0.0
 11
953047.95
 21
7260597.495
 31
0.0
  0
TEXT
  8
10
  6
CONTINUOUS
 62
   134
  5
16A
 10
954285.158
 20
7261347.904
 30
0.0
 40
13.999
  1
UNSUBDIVIDED
 50
358.0579
  7
ROMANS
 11
954285.63242
 21
7261361.894959
 31
0.0
210
0.0
220
0.0
230
1.0
 73
     3
  0
TEXT
  8
10
  6
CONTINUOUS
 62
   134
  5
16B
 10
952978.743
 20
7260175.529
 30
0.0
 40
13.999
  1
UNSUBDIVIDED
 50
358.1092
  7
ROMANS
 11
952979.204893
 21
7260189.520378
 31
0.0
210
0.0
220
0.0
230
1.0
 73
     3
  0
TEXT
  8
10
  6
CONTINUOUS
 62
   134
  5
16C
 10
954377.434
 20
7260157.251
 30
0.0
 40
13.999
  1
UNSUBDIVIDED
 50
358.0579
  7
ROMANS
 11
954377.90842
 21
7260171.241959
 31
0.0
210
0.0
220
0.0
230
1.0
 73
     3
  0
TEXT
  8
10
  6
CONTINUOUS
 62
   134
  5
16D
 10
955565.344
 20
7258746.916
 30
0.0
 40
13.999
  1
UNSUBDIVIDED
 50
358.0579
  7
ROMANS
 11
955565.81842
 21
7258760.906959
 31
0.0
210
0.0
220
0.0
230
1.0
 73
     3
  0
TEXT
  8
10
  6
CONTINUOUS
 62
   134
  5
16E
 10
952839.435
 20
7257777.435
 30
0.0
 40
13.999
  1
UNSUBDIVIDED
 50
358.1092
  7
ROMANS
 11
952839.896893
 21
7257791.426378
 31
0.0
210
0.0
220
0.0
230
1.0
 73
     3
  0
TEXT
  8
10
  6
CONTINUOUS
 62
   134
  5
16F
 10
956909.009
 20
7260476.414
 30
0.0
 40
13.999
  1
UNSUBDIVIDED
 50
358.070122
  7
ROMANS
 11
956909.480435
 21
7260490.40506
 31
0.0
210
0.0
220
0.0
230
1.0
 73
     3
  0
TEXT
  8
10
  6
CONTINUOUS
 62
   134
  5
170
 10
952494.416
 20
7260729.416
 30
0.0
 40
13.999
  1
UNSUBDIVIDED
 50
88.1092
  7
ROMANS
 11
952480.424622
 21
7260729.877893
 31
0.0
210
0.0
220
0.0
230
1.0
 73
     3
  0
TEXT
  8
10
  6
CONTINUOUS
 62
   134
  5
171
 10
952898.997
 20
7261142.158
 30
0.0
 40
13.999
  1
UNSUBDIVIDED
 50
88.1092
  7
ROMANS
 11
952885.005622
 21
7261142.619893
 31
0.0
210
0.0
220
0.0
230
1.0
 73
     3
  0
LINE
  8
7
  6
CONTINUOUS
 62
     7
  5
172
 10
954109.2
 20
7262346.876
 30
0.0
 11
954060.619
 21
7262348.523
 31
0.0
  0
LINE
  8
7
  6
CONTINUOUS
 62
     7
  5
173
 10
954108.691
 20
7262331.884
 30
0.0
 11
954060.111
 21
7262333.532
 31
0.0
  0
LINE
  8
7
  6
CONTINUOUS
 62
     7
  5
174
 10
954104.286
 20
7262201.959
 30
0.0
 11
954055.705
 21
7262203.606
 31
0.0
  0
TEXT
  8
10
  6
CONTINUOUS
 62
   134
  5
175
 10
952832.588
 20
7259003.188
 30
0.0
 40
13.999
  1
TRACT A
 50
358.1092
  7
ROMANS
 11
952833.049893
 21
7259017.179378
 31
0.0
210
0.0
220
0.0
230
1.0
 73
     3
  0
LINE
  8
6
  6
CONTINUOUS
 62
     7
  5
176
 10
952703.242
 20
7260623.883
 30
0.0
 11
952745.771
 21
7261912.121
 31
0.0
  0
LINE
  8
6
  6
CONTINUOUS
 62
     7
  5
177
 10
952745.771
 20
7261912.121
 30
0.0
 11
952746.266
 21
7261927.113
 31
0.0
  0
LINE
  8
6
  6
CONTINUOUS
 62
     7
  5
178
 10
952746.266
 20
7261927.113
 30
0.0
 11
952393.088
 21
7261938.772
 31
0.0
  0
LINE
  8
7
  6
CONTINUOUS
 62
     7
  5
179
 10
952743.787
 20
7261852.024
 30
0.0
 11
953088.989
 21
7261840.628
 31
0.0
  0
LINE
  8
7
  6
CONTINUOUS
 62
     7
  5
17A
 10
953088.989
 20
7261840.628
 30
0.0
 11
953065.614
 21
7261132.594
 31
0.0
  0
LINE
  8
7
  6
CONTINUOUS
 62
     7
  5
17B
 10
953065.614
 20
7261132.594
 30
0.0
 11
953632.706
 21
7261113.873
 31
0.0
  0
TEXT
  8
11
  6
CONTINUOUS
 62
     7
  5
17D
 10
954051.504
 20
7262170.947
 30
0.0
 40
8.0
  1
50'
 50
88.0579
  7
ROMANS
210
0.0
220
0.0
230
1.0
  0
TEXT
  8
11
  6
CONTINUOUS
 62
     7
  5
17E
 10
954054.441
 20
7262332.435
 30
0.0
 40
8.0
  1
15'
 50
88.0579
  7
ROMANS
210
0.0
220
0.0
230
1.0
  0
TEXT
  8
11
  6
CONTINUOUS
 62
     7
  5
17F
 10
957281.879
 20
7262346.455
 30
0.0
 40
8.0
  1
150'
 50
358.070122
  7
ROMANS
210
0.0
220
0.0
230
1.0
  0
TEXT
  8
11
  6
CONTINUOUS
 62
     7
  5
180
 10
957126.884
 20
7262352.36
 30
0.0
 40
8.0
  1
150'
 50
358.070122
  7
ROMANS
210
0.0
220
0.0
230
1.0
  0
TEXT
  8
11
  6
CONTINUOUS
 62
     7
  5
181
 10
956919.46
 20
7262359.008
 30
0.0
 40
8.0
  1
150'
 50
358.070122
  7
ROMANS
210
0.0
220
0.0
230
1.0
  0
TEXT
  8
11
  6
CONTINUOUS
 62
     7
  5
182
 10
956776.151
 20
7262363.495
 30
0.0
 40
8.0
  1
150'
 50
358.070122
  7
ROMANS
210
0.0
220
0.0
230
1.0
  0
TEXT
  8
11
  6
CONTINUOUS
 62
     7
  5
183
 10
956622.83
 20
7262368.32
 30
0.0
 40
8.0
  1
150'
 50
358.070122
  7
ROMANS
210
0.0
220
0.0
230
1.0
  0
TEXT
  8
11
  6
CONTINUOUS
 62
     7
  5
184
 10
956472.4
 20
7262374.072
 30
0.0
 40
8.0
  1
150'
 50
358.070122
  7
ROMANS
210
0.0
220
0.0
230
1.0
  0
TEXT
  8
11
  6
CONTINUOUS
 62
     7
  5
185
 10
956452.288
 20
7261797.423
 30
0.0
 40
8.0
  1
150'
 50
358.070122
  7
ROMANS
210
0.0
220
0.0
230
1.0
  0
TEXT
  8
11
  6
CONTINUOUS
 62
     7
  5
186
 10
956604.621
 20
7261791.606
 30
0.0
 40
8.0
  1
150'
 50
358.070122
  7
ROMANS
210
0.0
220
0.0
230
1.0
  0
TEXT
  8
11
  6
CONTINUOUS
 62
     7
  5
187
 10
956753.301
 20
7261786.597
 30
0.0
 40
8.0
  1
150'
 50
358.070122
  7
ROMANS
210
0.0
220
0.0
230
1.0
  0
TEXT
  8
11
  6
CONTINUOUS
 62
     7
  5
188
 10
956907.044
 20
7261782.098
 30
0.0
 40
8.0
  1
150'
 50
358.070122
  7
ROMANS
210
0.0
220
0.0
230
1.0
  0
TEXT
  8
11
  6
CONTINUOUS
 62
     7
  5
189
 10
957113.847
 20
7261777.178
 30
0.0
 40
8.0
  1
150'
 50
358.070122
  7
ROMANS
210
0.0
220
0.0
230
1.0
  0
TEXT
  8
11
  6
CONTINUOUS
 62
     7
  5
18A
 10
957263.706
 20
7261770.762
 30
0.0
 40
8.0
  1
150'
 50
358.070122
  7
ROMANS
210
0.0
220
0.0
230
1.0
  0
TEXT
  8
11
  6
CONTINUOUS
 62
     7
  5
18B
 10
957414.429
 20
7261765.684
 30
0.0
 40
8.0
  1
150'
 50
358.070122
  7
ROMANS
210
0.0
220
0.0
230
1.0
  0
TEXT
  8
11
  6
CONTINUOUS
 62
     7
  5
18C
 10
957407.129
 20
7261690.715
 30
0.0
 40
8.0
  1
150'
 50
358.070122
  7
ROMANS
210
0.0
220
0.0
230
1.0
  0
TEXT
  8
11
  6
CONTINUOUS
 62
     7
  5
18D
 10
957258.019
 20
7261695.057
 30
0.0
 40
8.0
  1
150'
 50
358.070122
  7
ROMANS
210
0.0
220
0.0
230
1.0
  0
TEXT
  8
11
  6
CONTINUOUS
 62
     7
  5
18E
 10
957112.202
 20
7261699.971
 30
0.0
 40
8.0
  1
150'
 50
358.070122
  7
ROMANS
210
0.0
220
0.0
230
1.0
  0
TEXT
  8
11
  6
CONTINUOUS
 62
     7
  5
18F
 10
956908.169
 20
7261702.07
 30
0.0
 40
8.0
  1
150'
 50
358.070122
  7
ROMANS
210
0.0
220
0.0
230
1.0
  0
TEXT
  8
11
  6
CONTINUOUS
 62
     7
  5
190
 10
956748.996
 20
7261707.433
 30
0.0
 40
8.0
  1
150'
 50
358.070122
  7
ROMANS
210
0.0
220
0.0
230
1.0
  0
TEXT
  8
11
  6
CONTINUOUS
 62
     7
  5
191
 10
956602.907
 20
7261712.355
 30
0.0
 40
8.0
  1
150'
 50
358.070122
  7
ROMANS
210
0.0
220
0.0
230
1.0
  0
TEXT
  8
11
  6
CONTINUOUS
 62
     7
  5
192
 10
956454.637
 20
7261717.351
 30
0.0
 40
8.0
  1
150'
 50
358.070122
  7
ROMANS
210
0.0
220
0.0
230
1.0
  0
TEXT
  8
11
  6
CONTINUOUS
 62
     7
  5
193
 10
956434.475
 20
7261139.269
 30
0.0
 40
8.0
  1
150'
 50
358.070122
  7
ROMANS
210
0.0
220
0.0
230
1.0
  0
TEXT
  8
11
  6
CONTINUOUS
 62
     7
  5
194
 10
956583.698
 20
7261134.241
 30
0.0
 40
8.0
  1
150'
 50
358.070122
  7
ROMANS
210
0.0
220
0.0
230
1.0
  0
TEXT
  8
11
  6
CONTINUOUS
 62
     7
  5
195
 10
956735.537
 20
7261129.806
 30
0.0
 40
8.0
  1
150'
 50
358.070122
  7
ROMANS
210
0.0
220
0.0
230
1.0
  0
TEXT
  8
11
  6
CONTINUOUS
 62
     7
  5
196
 10
956883.646
 20
7261124.133
 30
0.0
 40
8.0
  1
150'
 50
358.070122
  7
ROMANS
210
0.0
220
0.0
230
1.0
  0
TEXT
  8
11
  6
CONTINUOUS
 62
     7
  5
197
 10
957089.427
 20
7261117.2
 30
0.0
 40
8.0
  1
150'
 50
358.070122
  7
ROMANS
210
0.0
220
0.0
230
1.0
  0
TEXT
  8
11
  6
CONTINUOUS
 62
     7
  5
198
 10
957245.575
 20
7261111.256
 30
0.0
 40
8.0
  1
150'
 50
358.070122
  7
ROMANS
210
0.0
220
0.0
230
1.0
  0
TEXT
  8
11
  6
CONTINUOUS
 62
     7
  5
199
 10
957396.752
 20
7261107.527
 30
0.0
 40
8.0
  1
150'
 50
358.070122
  7
ROMANS
210
0.0
220
0.0
230
1.0
  0
TEXT
  8
11
  6
CONTINUOUS
 62
     7
  5
19A
 10
957538.984
 20
7261101.37
 30
0.0
 40
8.0
  1
150'
 50
358.070122
  7
ROMANS
210
0.0
220
0.0
230
1.0
  0
TEXT
  8
11
  6
CONTINUOUS
 62
     7
  5
19B
 10
957541.165
 20
7261024.444
 30
0.0
 40
8.0
  1
150'
 50
358.070122
  7
ROMANS
210
0.0
220
0.0
230
1.0
  0
TEXT
  8
11
  6
CONTINUOUS
 62
     7
  5
19C
 10
957392.236
 20
7261030.144
 30
0.0
 40
8.0
  1
150'
 50
358.070122
  7
ROMANS
210
0.0
220
0.0
230
1.0
  0
TEXT
  8
11
  6
CONTINUOUS
 62
     7
  5
19D
 10
957238.265
 20
7261036.014
 30
0.0
 40
8.0
  1
150'
 50
358.070122
  7
ROMANS
210
0.0
220
0.0
230
1.0
  0
TEXT
  8
11
  6
CONTINUOUS
 62
     7
  5
19E
 10
957090.314
 20
7261042.364
 30
0.0
 40
8.0
  1
150'
 50
358.070122
  7
ROMANS
210
0.0
220
0.0
230
1.0
  0
TEXT
  8
11
  6
CONTINUOUS
 62
     7
  5
19F
 10
956883.904
 20
7261046.726
 30
0.0
 40
8.0
  1
150'
 50
358.070122
  7
ROMANS
210
0.0
220
0.0
230
1.0
  0
TEXT
  8
11
  6
CONTINUOUS
 62
     7
  5
1A0
 10
956731.319
 20
7261053.234
 30
0.0
 40
8.0
  1
150'
 50
358.070122
  7
ROMANS
210
0.0
220
0.0
230
1.0
  0
TEXT
  8
11
  6
CONTINUOUS
 62
     7
  5
1A1
 10
956577.87
 20
7261058.403
 30
0.0
 40
8.0
  1
150'
 50
358.070122
  7
ROMANS
210
0.0
220
0.0
230
1.0
  0
TEXT
  8
11
  6
CONTINUOUS
 62
     7
  5
1A2
 10
956433.258
 20
7261062.593
 30
0.0
 40
8.0
  1
150'
 50
358.070122
  7
ROMANS
210
0.0
220
0.0
230
1.0
  0
TEXT
  8
11
  6
CONTINUOUS
 62
     7
  5
1A3
 10
957547.238
 20
7261761.171
 30
0.0
 40
8.0
  1
122.48
 50
358.070122
  7
ROMANS
210
0.0
220
0.0
230
1.0
  0
TEXT
  8
11
  6
CONTINUOUS
 62
     7
  5
1A4
 10
957605.638
 20
7262289.592
 30
0.0
 40
8.0
  1
30'R
 50
28.070122
  7
ROMANS
210
0.0
220
0.0
230
1.0
  0
TEXT
  8
11
  6
CONTINUOUS
 62
     7
  5
1A5
 10
957634.806
 20
7261886.549
 30
0.0
 40
8.0
  1
259.65'
 50
88.070122
  7
ROMANS
210
0.0
220
0.0
230
1.0
  0
TEXT
  8
11
  6
CONTINUOUS
 62
     7
  5
1A6
 10
957633.384
 20
7262131.799
 30
0.0
 40
8.0
  1
264.36
 50
88.070122
  7
ROMANS
210
0.0
220
0.0
230
1.0
  0
TEXT
  8
11
  6
CONTINUOUS
 62
     7
  5
1A7
 10
957072.739
 20
7261908.397
 30
0.0
 40
8.0
  1
300'
 50
88.070122
  7
ROMANS
210
0.0
220
0.0
230
1.0
  0
TEXT
  8
11
  6
CONTINUOUS
 62
     7
  5
1A8
 10
957080.935
 20
7262206.035
 30
0.0
 40
8.0
  1
290'
 50
88.070122
  7
ROMANS
210
0.0
220
0.0
230
1.0
  0
TEXT
  8
11
  6
CONTINUOUS
 62
     7
  5
1A9
 10
957001.839
 20
7262208.7
 30
0.0
 40
8.0
  1
290'
 50
88.070122
  7
ROMANS
210
0.0
220
0.0
230
1.0
  0
TEXT
  8
11
  6
CONTINUOUS
 62
     7
  5
1AA
 10
956991.129
 20
7261914.566
 30
0.0
 40
8.0
  1
300'
 50
88.070122
  7
ROMANS
210
0.0
220
0.0
230
1.0
  0
TEXT
  8
11
  6
CONTINUOUS
 62
     7
  5
1AB
 10
956420.461
 20
7262220.266
 30
0.0
 40
8.0
  1
290'
 50
88.070122
  7
ROMANS
210
0.0
220
0.0
230
1.0
  0
TEXT
  8
11
  6
CONTINUOUS
 62
     7
  5
1AC
 10
956414.155
 20
7261930.008
 30
0.0
 40
8.0
  1
300'
 50
88.070122
  7
ROMANS
210
0.0
220
0.0
230
1.0
  0
TEXT
  8
11
  6
CONTINUOUS
 62
     7
  5
1AD
 10
956344.216
 20
7262225.518
 30
0.0
 40
8.0
  1
290'
 50
88.070122
  7
ROMANS
210
0.0
220
0.0
230
1.0
  0
TEXT
  8
11
  6
CONTINUOUS
 62
     7
  5
1AE
 10
955761.339
 20
7262249.789
 30
0.0
 40
8.0
  1
290'
 50
88.070122
  7
ROMANS
210
0.0
220
0.0
230
1.0
  0
TEXT
  8
11
  6
CONTINUOUS
 62
     7
  5
1AF
 10
956330.544
 20
7261934.731
 30
0.0
 40
8.0
  1
300'
 50
88.070122
  7
ROMANS
210
0.0
220
0.0
230
1.0
  0
TEXT
  8
11
  6
CONTINUOUS
 62
     7
  5
1B0
 10
955751.371
 20
7261954.247
 30
0.0
 40
8.0
  1
300'
 50
88.070122
  7
ROMANS
210
0.0
220
0.0
230
1.0
  0
TEXT
  8
11
  6
CONTINUOUS
 62
     7
  5
1B1
 10
956264.528
 20
7262381.498
 30
0.0
 40
8.0
  1
150'
 50
358.070122
  7
ROMANS
210
0.0
220
0.0
230
1.0
  0
TEXT
  8
11
  6
CONTINUOUS
 62
     7
  5
1B2
 10
956116.036
 20
7262386.926
 30
0.0
 40
8.0
  1
150'
 50
358.070122
  7
ROMANS
210
0.0
220
0.0
230
1.0
  0
TEXT
  8
11
  6
CONTINUOUS
 62
     7
  5
1B3
 10
955967.672
 20
7262390.984
 30
0.0
 40
8.0
  1
150'
 50
358.070122
  7
ROMANS
210
0.0
220
0.0
230
1.0
  0
TEXT
  8
11
  6
CONTINUOUS
 62
     7
  5
1B4
 10
955812.197
 20
7262396.564
 30
0.0
 40
8.0
  1
150'
 50
358.070122
  7
ROMANS
210
0.0
220
0.0
230
1.0
  0
TEXT
  8
11
  6
CONTINUOUS
 62
     7
  5
1B5
 10
955792.985
 20
7261821.394
 30
0.0
 40
8.0
  1
150'
 50
358.070122
  7
ROMANS
210
0.0
220
0.0
230
1.0
  0
TEXT
  8
11
  6
CONTINUOUS
 62
     7
  5
1B6
 10
955946.094
 20
7261816.494
 30
0.0
 40
8.0
  1
150'
 50
358.070122
  7
ROMANS
210
0.0
220
0.0
230
1.0
  0
TEXT
  8
11
  6
CONTINUOUS
 62
     7
  5
1B7
 10
956093.406
 20
7261811.361
 30
0.0
 40
8.0
  1
150'
 50
358.070122
  7
ROMANS
210
0.0
220
0.0
230
1.0
  0
TEXT
  8
11
  6
CONTINUOUS
 62
     7
  5
1B8
 10
956248.33
 20
7261804.519
 30
0.0
 40
8.0
  1
150'
 50
358.070122
  7
ROMANS
210
0.0
220
0.0
230
1.0
  0
TEXT
  8
11
  6
CONTINUOUS
 62
     7
  5
1B9
 10
955787.54
 20
7261742.153
 30
0.0
 40
8.0
  1
150'
 50
358.070122
  7
ROMANS
210
0.0
220
0.0
230
1.0
  0
TEXT
  8
11
  6
CONTINUOUS
 62
     7
  5
1BA
 10
955941.259
 20
7261736.974
 30
0.0
 40
8.0
  1
150'
 50
358.070122
  7
ROMANS
210
0.0
220
0.0
230
1.0
  0
TEXT
  8
11
  6
CONTINUOUS
 62
     7
  5
1BB
 10
956096.388
 20
7261731.746
 30
0.0
 40
8.0
  1
150'
 50
358.070122
  7
ROMANS
210
0.0
220
0.0
230
1.0
  0
TEXT
  8
11
  6
CONTINUOUS
 62
     7
  5
1BC
 10
956247.286
 20
7261726.663
 30
0.0
 40
8.0
  1
150'
 50
358.070122
  7
ROMANS
210
0.0
220
0.0
230
1.0
  0
TEXT
  8
11
  6
CONTINUOUS
 62
     7
  5
1BD
 10
956227.888
 20
7261150.984
 30
0.0
 40
8.0
  1
150'
 50
358.070122
  7
ROMANS
210
0.0
220
0.0
230
1.0
  0
TEXT
  8
11
  6
CONTINUOUS
 62
     7
  5
1BE
 10
956081.22
 20
7261155.925
 30
0.0
 40
8.0
  1
150'
 50
358.070122
  7
ROMANS
210
0.0
220
0.0
230
1.0
  0
TEXT
  8
11
  6
CONTINUOUS
 62
     7
  5
1BF
 10
955931.731
 20
7261160.962
 30
0.0
 40
8.0
  1
150'
 50
358.070122
  7
ROMANS
210
0.0
220
0.0
230
1.0
  0
TEXT
  8
11
  6
CONTINUOUS
 62
     7
  5
1C0
 10
955782.244
 20
7261166.0
 30
0.0
 40
8.0
  1
150'
 50
358.070122
  7
ROMANS
210
0.0
220
0.0
230
1.0
  0
TEXT
  8
11
  6
CONTINUOUS
 62
     7
  5
1C1
 10
955570.703
 20
7261173.127
 30
0.0
 40
8.0
  1
150'
 50
358.070122
  7
ROMANS
210
0.0
220
0.0
230
1.0
  0
TEXT
  8
11
  6
CONTINUOUS
 62
     7
  5
1C2
 10
955590.102
 20
7261748.805
 30
0.0
 40
8.0
  1
150'
 50
358.070122
  7
ROMANS
210
0.0
220
0.0
230
1.0
  0
TEXT
  8
11
  6
CONTINUOUS
 62
     7
  5
1C3
 10
955436.384
 20
7261753.986
 30
0.0
 40
8.0
  1
150'
 50
358.070122
  7
ROMANS
210
0.0
220
0.0
230
1.0
  0
TEXT
  8
11
  6
CONTINUOUS
 62
     7
  5
1C4
 10
955417.08
 20
7261181.131
 30
0.0
 40
8.0
  1
150'
 50
358.070122
  7
ROMANS
210
0.0
220
0.0
230
1.0
  0
TEXT
  8
11
  6
CONTINUOUS
 62
     7
  5
1C5
 10
955657.534
 20
7261585.03
 30
0.0
 40
8.0
  1
300'
 50
88.070122
  7
ROMANS
210
0.0
220
0.0
230
1.0
  0
TEXT
  8
11
  6
CONTINUOUS
 62
     7
  5
1C6
 10
955657.534
 20
7261585.03
 30
0.0
 40
8.0
  1
300'
 50
88.070122
  7
ROMANS
210
0.0
220
0.0
230
1.0
  0
TEXT
  8
11
  6
CONTINUOUS
 62
     7
  5
1C7
 10
955647.93
 20
7261300.012
 30
0.0
 40
8.0
  1
300'
 50
88.070122
  7
ROMANS
210
0.0
220
0.0
230
1.0
  0
TEXT
  8
11
  6
CONTINUOUS
 62
     7
  5
1C8
 10
955733.956
 20
7261297.113
 30
0.0
 40
8.0
  1
300'
 50
88.070122
  7
ROMANS
210
0.0
220
0.0
230
1.0
  0
TEXT
  8
11
  6
CONTINUOUS
 62
     7
  5
1C9
 10
956310.756
 20
7261277.678
 30
0.0
 40
8.0
  1
300'
 50
88.070122
  7
ROMANS
210
0.0
220
0.0
230
1.0
  0
TEXT
  8
11
  6
CONTINUOUS
 62
     7
  5
1CA
 10
956320.312
 20
7261561.284
 30
0.0
 40
8.0
  1
300'
 50
88.070122
  7
ROMANS
210
0.0
220
0.0
230
1.0
  0
TEXT
  8
11
  6
CONTINUOUS
 62
     7
  5
1CB
 10
955742.102
 20
7261580.767
 30
0.0
 40
8.0
  1
300'
 50
88.070122
  7
ROMANS
210
0.0
220
0.0
230
1.0
  0
TEXT
  8
11
  6
CONTINUOUS
 62
     7
  5
1CC
 10
956399.286
 20
7261558.623
 30
0.0
 40
8.0
  1
300'
 50
88.070122
  7
ROMANS
210
0.0
220
0.0
230
1.0
  0
TEXT
  8
11
  6
CONTINUOUS
 62
     7
  5
1CD
 10
956389.634
 20
7261272.196
 30
0.0
 40
8.0
  1
300'
 50
88.070122
  7
ROMANS
210
0.0
220
0.0
230
1.0
  0
TEXT
  8
11
  6
CONTINUOUS
 62
     7
  5
1CE
 10
955682.535
 20
7262251.157
 30
0.0
 40
8.0
  1
290'
 50
88.070122
  7
ROMANS
210
0.0
220
0.0
230
1.0
  0
TEXT
  8
11
  6
CONTINUOUS
 62
     7
  5
1CF
 10
955677.117
 20
7262057.736
 30
0.0
 40
8.0
  1
100'
 50
88.070122
  7
ROMANS
210
0.0
220
0.0
230
1.0
  0
TEXT
  8
11
  6
CONTINUOUS
 62
     7
  5
1D0
 10
955673.674
 20
7261955.548
 30
0.0
 40
8.0
  1
100'
 50
88.070122
  7
ROMANS
210
0.0
220
0.0
230
1.0
  0
TEXT
  8
11
  6
CONTINUOUS
 62
     7
  5
1D1
 10
955670.452
 20
7261859.955
 30
0.0
 40
8.0
  1
100'
 50
88.070122
  7
ROMANS
210
0.0
220
0.0
230
1.0
  0
TEXT
  8
11
  6
CONTINUOUS
 62
     7
  5
1D2
 10
955533.287
 20
7262259.487
 30
0.0
 40
8.0
  1
290'
 50
88.070122
  7
ROMANS
210
0.0
220
0.0
230
1.0
  0
TEXT
  8
11
  6
CONTINUOUS
 62
     7
  5
1D3
 10
955524.759
 20
7261973.766
 30
0.0
 40
8.0
  1
300'
 50
88.070122
  7
ROMANS
210
0.0
220
0.0
230
1.0
  0
TEXT
  8
11
  6
CONTINUOUS
 62
     7
  5
1D4
 10
955430.782
 20
7261836.926
 30
0.0
 40
8.0
  1
150'
 50
358.070122
  7
ROMANS
210
0.0
220
0.0
230
1.0
  0
TEXT
  8
11
  6
CONTINUOUS
 62
     7
  5
1D5
 10
955580.142
 20
7261831.893
 30
0.0
 40
8.0
  1
142.5'
 50
358.070122
  7
ROMANS
210
0.0
220
0.0
230
1.0
  0
TEXT
  8
11
  6
CONTINUOUS
 62
     7
  5
1D6
 10
955601.553
 20
7262402.086
 30
0.0
 40
8.0
  1
142.5'
 50
358.070122
  7
ROMANS
210
0.0
220
0.0
230
1.0
  0
TEXT
  8
11
  6
CONTINUOUS
 62
     7
  5
1D7
 10
955591.272
 20
7262129.625
 30
0.0
 40
8.0
  1
142.5'
 50
358.070122
  7
ROMANS
210
0.0
220
0.0
230
1.0
  0
TEXT
  8
11
  6
CONTINUOUS
 62
     7
  5
1D8
 10
955587.275
 20
7262010.958
 30
0.0
 40
8.0
  1
142.5'
 50
358.070122
  7
ROMANS
210
0.0
220
0.0
230
1.0
  0
TEXT
  8
11
  6
CONTINUOUS
 62
     7
  5
1D9
 10
955595.248
 20
7262111.891
 30
0.0
 40
8.0
  1
140'
 50
358.070122
  7
ROMANS
210
0.0
220
0.0
230
1.0
  0
TEXT
  8
11
  6
CONTINUOUS
 62
     7
  5
1DA
 10
955589.003
 20
7262029.6
 30
0.0
 40
8.0
  1
140'
 50
358.070122
  7
ROMANS
210
0.0
220
0.0
230
1.0
  0
TEXT
  8
11
  6
CONTINUOUS
 62
     7
  5
1DB
 10
955550.809
 20
7262394.135
 30
0.0
 40
8.0
  1
7.5'
 50
88.070122
  7
ROMANS
210
0.0
220
0.0
230
1.0
  0
TEXT
  8
11
  6
CONTINUOUS
 62
     7
  5
1DC
 10
955517.974
 20
7261814.187
 30
0.0
 40
8.0
  1
7.5'
 50
358.070122
  7
ROMANS
210
0.0
220
0.0
230
1.0
  0
TEXT
  8
11
  6
CONTINUOUS
 62
     7
  5
1DD
 10
955539.924
 20
7261930.424
 30
0.0
 40
8.0
  1
10'
 50
358.070122
  7
ROMANS
210
0.0
220
0.0
230
1.0
  0
TEXT
  8
11
  6
CONTINUOUS
 62
     7
  5
1DE
 10
955542.739
 20
7262014.008
 30
0.0
 40
8.0
  1
10'
 50
358.070122
  7
ROMANS
210
0.0
220
0.0
230
1.0
  0
TEXT
  8
11
  6
CONTINUOUS
 62
     7
  5
1DF
 10
955280.86
 20
7261758.753
 30
0.0
 40
8.0
  1
150'
 50
358.070122
  7
ROMANS
210
0.0
220
0.0
230
1.0
  0
TEXT
  8
11
  6
CONTINUOUS
 62
     7
  5
1E0
 10
955133.49
 20
7261763.718
 30
0.0
 40
8.0
  1
150'
 50
358.070122
  7
ROMANS
210
0.0
220
0.0
230
1.0
  0
TEXT
  8
11
  6
CONTINUOUS
 62
     7
  5
1E1
 10
955110.29
 20
7261186.556
 30
0.0
 40
8.0
  1
150'
 50
358.070122
  7
ROMANS
210
0.0
220
0.0
230
1.0
  0
TEXT
  8
11
  6
CONTINUOUS
 62
     7
  5
1E2
 10
955261.451
 20
7261182.715
 30
0.0
 40
8.0
  1
150'
 50
358.070122
  7
ROMANS
210
0.0
220
0.0
230
1.0
  0
TEXT
  8
11
  6
CONTINUOUS
 62
     7
  5
1E3
 10
955109.967
 20
7261102.754
 30
0.0
 40
8.0
  1
150'
 50
358.070122
  7
ROMANS
210
0.0
220
0.0
230
1.0
  0
TEXT
  8
11
  6
CONTINUOUS
 62
     7
  5
1E4
 10
955109.967
 20
7261102.754
 30
0.0
 40
8.0
  1
150'
 50
358.070122
  7
ROMANS
210
0.0
220
0.0
230
1.0
  0
TEXT
  8
11
  6
CONTINUOUS
 62
     7
  5
1E5
 10
955262.335
 20
7261097.62
 30
0.0
 40
8.0
  1
150'
 50
358.070122
  7
ROMANS
210
0.0
220
0.0
230
1.0
  0
TEXT
  8
11
  6
CONTINUOUS
 62
     7
  5
1E6
 10
955413.453
 20
7261092.528
 30
0.0
 40
8.0
  1
150'
 50
358.070122
  7
ROMANS
210
0.0
220
0.0
230
1.0
  0
TEXT
  8
11
  6
CONTINUOUS
 62
     7
  5
1E7
 10
955572.065
 20
7261087.183
 30
0.0
 40
8.0
  1
150'
 50
358.070122
  7
ROMANS
210
0.0
220
0.0
230
1.0
  0
TEXT
  8
11
  6
CONTINUOUS
 62
     7
  5
1E8
 10
955779.385
 20
7261080.199
 30
0.0
 40
8.0
  1
150'
 50
358.070122
  7
ROMANS
210
0.0
220
0.0
230
1.0
  0
TEXT
  8
11
  6
CONTINUOUS
 62
     7
  5
1E9
 10
955935.541
 20
7261076.187
 30
0.0
 40
8.0
  1
150'
 50
358.070122
  7
ROMANS
210
0.0
220
0.0
230
1.0
  0
TEXT
  8
11
  6
CONTINUOUS
 62
     7
  5
1EA
 10
956086.659
 20
7261071.094
 30
0.0
 40
8.0
  1
150'
 50
358.070122
  7
ROMANS
210
0.0
220
0.0
230
1.0
  0
TEXT
  8
11
  6
CONTINUOUS
 62
     7
  5
1EB
 10
955072.767
 20
7261319.671
 30
0.0
 40
8.0
  1
300'
 50
88.070122
  7
ROMANS
210
0.0
220
0.0
230
1.0
  0
TEXT
  8
11
  6
CONTINUOUS
 62
     7
  5
1EC
 10
955082.366
 20
7261604.567
 30
0.0
 40
8.0
  1
300'
 50
88.070122
  7
ROMANS
210
0.0
220
0.0
230
1.0
  0
TEXT
  8
11
  6
CONTINUOUS
 62
     7
  5
1ED
 10
955057.184
 20
7260952.468
 30
0.0
 40
8.0
  1
300'
 50
88.070122
  7
ROMANS
210
0.0
220
0.0
230
1.0
  0
TEXT
  8
11
  6
CONTINUOUS
 62
     7
  5
1EE
 10
955047.442
 20
7260663.341
 30
0.0
 40
8.0
  1
300'
 50
88.070122
  7
ROMANS
210
0.0
220
0.0
230
1.0
  0
TEXT
  8
11
  6
CONTINUOUS
 62
     7
  5
1EF
 10
955032.548
 20
7260305.025
 30
0.0
 40
8.0
  1
300'
 50
88.070122
  7
ROMANS
210
0.0
220
0.0
230
1.0
  0
TEXT
  8
11
  6
CONTINUOUS
 62
     7
  5
1F0
 10
955025.246
 20
7260004.656
 30
0.0
 40
8.0
  1
300'
 50
88.070122
  7
ROMANS
210
0.0
220
0.0
230
1.0
  0
TEXT
  8
11
  6
CONTINUOUS
 62
     7
  5
1F1
 10
955606.829
 20
7259985.059
 30
0.0
 40
8.0
  1
300'
 50
88.070122
  7
ROMANS
210
0.0
220
0.0
230
1.0
  0
TEXT
  8
11
  6
CONTINUOUS
 62
     7
  5
1F2
 10
955617.042
 20
7260288.136
 30
0.0
 40
8.0
  1
300'
 50
88.070122
  7
ROMANS
210
0.0
220
0.0
230
1.0
  0
TEXT
  8
11
  6
CONTINUOUS
 62
     7
  5
1F3
 10
955628.8
 20
7260637.119
 30
0.0
 40
8.0
  1
300'
 50
88.070122
  7
ROMANS
210
0.0
220
0.0
230
1.0
  0
TEXT
  8
11
  6
CONTINUOUS
 62
     7
  5
1F4
 10
955638.956
 20
7260938.507
 30
0.0
 40
8.0
  1
300'
 50
88.070122
  7
ROMANS
210
0.0
220
0.0
230
1.0
  0
TEXT
  8
11
  6
CONTINUOUS
 62
     7
  5
1F5
 10
955718.527
 20
7260935.826
 30
0.0
 40
8.0
  1
300'
 50
88.070122
  7
ROMANS
210
0.0
220
0.0
230
1.0
  0
TEXT
  8
11
  6
CONTINUOUS
 62
     7
  5
1F6
 10
955708.436
 20
7260636.334
 30
0.0
 40
8.0
  1
300'
 50
88.070122
  7
ROMANS
210
0.0
220
0.0
230
1.0
  0
TEXT
  8
11
  6
CONTINUOUS
 62
     7
  5
1F7
 10
955694.671
 20
7260283.621
 30
0.0
 40
8.0
  1
300'
 50
88.070122
  7
ROMANS
210
0.0
220
0.0
230
1.0
  0
TEXT
  8
11
  6
CONTINUOUS
 62
     7
  5
1F8
 10
955686.337
 20
7259980.481
 30
0.0
 40
8.0
  1
300'
 50
88.070122
  7
ROMANS
210
0.0
220
0.0
230
1.0
  0
TEXT
  8
11
  6
CONTINUOUS
 62
     7
  5
1F9
 10
956266.076
 20
7259960.947
 30
0.0
 40
8.0
  1
300'
 50
88.070122
  7
ROMANS
210
0.0
220
0.0
230
1.0
  0
TEXT
  8
11
  6
CONTINUOUS
 62
     7
  5
1FA
 10
956275.409
 20
7260265.865
 30
0.0
 40
8.0
  1
300'
 50
88.070122
  7
ROMANS
210
0.0
220
0.0
230
1.0
  0
TEXT
  8
11
  6
CONTINUOUS
 62
     7
  5
1FB
 10
956286.152
 20
7260613.072
 30
0.0
 40
8.0
  1
300'
 50
88.070122
  7
ROMANS
210
0.0
220
0.0
230
1.0
  0
TEXT
  8
11
  6
CONTINUOUS
 62
     7
  5
1FC
 10
956286.152
 20
7260613.072
 30
0.0
 40
8.0
  1
300'
 50
88.070122
  7
ROMANS
210
0.0
220
0.0
230
1.0
  0
TEXT
  8
11
  6
CONTINUOUS
 62
     7
  5
1FD
 10
956296.436
 20
7260918.25
 30
0.0
 40
8.0
  1
300'
 50
88.070122
  7
ROMANS
210
0.0
220
0.0
230
1.0
  0
TEXT
  8
11
  6
CONTINUOUS
 62
     7
  5
1FE
 10
956381.691
 20
7260915.378
 30
0.0
 40
8.0
  1
300'
 50
88.070122
  7
ROMANS
210
0.0
220
0.0
230
1.0
  0
TEXT
  8
11
  6
CONTINUOUS
 62
     7
  5
1FF
 10
956371.408
 20
7260610.199
 30
0.0
 40
8.0
  1
300'
 50
88.070122
  7
ROMANS
210
0.0
220
0.0
230
1.0
  0
TEXT
  8
11
  6
CONTINUOUS
 62
     7
  5
200
 10
956353.108
 20
7260262.325
 30
0.0
 40
8.0
  1
300'
 50
88.070122
  7
ROMANS
210
0.0
220
0.0
230
1.0
  0
TEXT
  8
11
  6
CONTINUOUS
 62
     7
  5
201
 10
956345.713
 20
7259959.203
 30
0.0
 40
8.0
  1
300'
 50
88.070122
  7
ROMANS
210
0.0
220
0.0
230
1.0
  0
TEXT
  8
11
  6
CONTINUOUS
 62
     7
  5
202
 10
955086.978
 20
7260524.996
 30
0.0
 40
8.0
  1
150'
 50
358.070122
  7
ROMANS
210
0.0
220
0.0
230
1.0
  0
TEXT
  8
11
  6
CONTINUOUS
 62
     7
  5
203
 10
955239.399
 20
7260518.921
 30
0.0
 40
8.0
  1
150'
 50
358.070122
  7
ROMANS
210
0.0
220
0.0
230
1.0
  0
TEXT
  8
11
  6
CONTINUOUS
 62
     7
  5
204
 10
955389.162
 20
7260517.634
 30
0.0
 40
8.0
  1
150'
 50
358.070122
  7
ROMANS
210
0.0
220
0.0
230
1.0
  0
TEXT
  8
11
  6
CONTINUOUS
 62
     7
  5
205
 10
955550.2
 20
7260512.209
 30
0.0
 40
8.0
  1
150'
 50
358.070122
  7
ROMANS
210
0.0
220
0.0
230
1.0
  0
TEXT
  8
11
  6
CONTINUOUS
 62
     7
  5
206
 10
955751.025
 20
7260505.443
 30
0.0
 40
8.0
  1
150'
 50
358.070122
  7
ROMANS
210
0.0
220
0.0
230
1.0
  0
TEXT
  8
11
  6
CONTINUOUS
 62
     7
  5
207
 10
955906.38
 20
7260500.207
 30
0.0
 40
8.0
  1
150'
 50
358.070122
  7
ROMANS
210
0.0
220
0.0
230
1.0
  0
TEXT
  8
11
  6
CONTINUOUS
 62
     7
  5
208
 10
956057.945
 20
7260495.1
 30
0.0
 40
8.0
  1
150'
 50
358.070122
  7
ROMANS
210
0.0
220
0.0
230
1.0
  0
TEXT
  8
11
  6
CONTINUOUS
 62
     7
  5
209
 10
956203.828
 20
7260490.184
 30
0.0
 40
8.0
  1
150'
 50
358.070122
  7
ROMANS
210
0.0
220
0.0
230
1.0
  0
TEXT
  8
11
  6
CONTINUOUS
 62
     7
  5
20A
 10
956412.23
 20
7260483.163
 30
0.0
 40
8.0
  1
150'
 50
358.070122
  7
ROMANS
210
0.0
220
0.0
230
1.0
  0
TEXT
  8
11
  6
CONTINUOUS
 62
     7
  5
20B
 10
956558.113
 20
7260478.247
 30
0.0
 40
8.0
  1
150'
 50
358.070122
  7
ROMANS
210
0.0
220
0.0
230
1.0
  0
TEXT
  8
11
  6
CONTINUOUS
 62
     7
  5
20C
 10
955082.464
 20
7260447.302
 30
0.0
 40
8.0
  1
150'
 50
358.070122
  7
ROMANS
210
0.0
220
0.0
230
1.0
  0
TEXT
  8
11
  6
CONTINUOUS
 62
     7
  5
20D
 10
955236.713
 20
7260440.223
 30
0.0
 40
8.0
  1
150'
 50
358.070122
  7
ROMANS
210
0.0
220
0.0
230
1.0
  0
TEXT
  8
11
  6
CONTINUOUS
 62
     7
  5
20E
 10
955388.277
 20
7260435.116
 30
0.0
 40
8.0
  1
150'
 50
358.070122
  7
ROMANS
210
0.0
220
0.0
230
1.0
  0
TEXT
  8
11
  6
CONTINUOUS
 62
     7
  5
20F
 10
955539.844
 20
7260430.009
 30
0.0
 40
8.0
  1
150'
 50
358.070122
  7
ROMANS
210
0.0
220
0.0
230
1.0
  0
TEXT
  8
11
  6
CONTINUOUS
 62
     7
  5
210
 10
955518.423
 20
7259850.093
 30
0.0
 40
8.0
  1
150'
 50
358.070122
  7
ROMANS
210
0.0
220
0.0
230
1.0
  0
TEXT
  8
11
  6
CONTINUOUS
 62
     7
  5
211
 10
955367.849
 20
7259855.167
 30
0.0
 40
8.0
  1
150'
 50
358.070122
  7
ROMANS
210
0.0
220
0.0
230
1.0
  0
TEXT
  8
11
  6
CONTINUOUS
 62
     7
  5
212
 10
955223.789
 20
7259860.962
 30
0.0
 40
8.0
  1
150'
 50
358.070122
  7
ROMANS
210
0.0
220
0.0
230
1.0
  0
TEXT
  8
11
  6
CONTINUOUS
 62
     7
  5
213
 10
955072.157
 20
7259865.131
 30
0.0
 40
8.0
  1
150'
 50
358.070122
  7
ROMANS
210
0.0
220
0.0
230
1.0
  0
TEXT
  8
11
  6
CONTINUOUS
 62
     7
  5
214
 10
955727.782
 20
7259843.038
 30
0.0
 40
8.0
  1
150'
 50
358.070122
  7
ROMANS
210
0.0
220
0.0
230
1.0
  0
TEXT
  8
11
  6
CONTINUOUS
 62
     7
  5
215
 10
955877.388
 20
7259837.057
 30
0.0
 40
8.0
  1
150'
 50
358.070122
  7
ROMANS
210
0.0
220
0.0
230
1.0
  0
TEXT
  8
11
  6
CONTINUOUS
 62
     7
  5
216
 10
956030.883
 20
7259831.885
 30
0.0
 40
8.0
  1
150'
 50
358.070122
  7
ROMANS
210
0.0
220
0.0
230
1.0
  0
TEXT
  8
11
  6
CONTINUOUS
 62
     7
  5
217
 10
956180.603
 20
7259827.781
 30
0.0
 40
8.0
  1
150'
 50
358.070122
  7
ROMANS
210
0.0
220
0.0
230
1.0
  0
TEXT
  8
11
  6
CONTINUOUS
 62
     7
  5
218
 10
956195.514
 20
7260409.778
 30
0.0
 40
8.0
  1
150'
 50
358.070122
  7
ROMANS
210
0.0
220
0.0
230
1.0
  0
TEXT
  8
11
  6
CONTINUOUS
 62
     7
  5
219
 10
956050.521
 20
7260414.664
 30
0.0
 40
8.0
  1
150'
 50
358.070122
  7
ROMANS
210
0.0
220
0.0
230
1.0
  0
TEXT
  8
11
  6
CONTINUOUS
 62
     7
  5
21A
 10
955900.88
 20
7260420.646
 30
0.0
 40
8.0
  1
150'
 50
358.070122
  7
ROMANS
210
0.0
220
0.0
230
1.0
  0
TEXT
  8
11
  6
CONTINUOUS
 62
     7
  5
21B
 10
955743.682
 20
7260425.944
 30
0.0
 40
8.0
  1
150'
 50
358.070122
  7
ROMANS
210
0.0
220
0.0
230
1.0
  0
TEXT
  8
11
  6
CONTINUOUS
 62
     7
  5
21C
 10
956407.587
 20
7260402.631
 30
0.0
 40
8.0
  1
150'
 50
358.070122
  7
ROMANS
210
0.0
220
0.0
230
1.0
  0
TEXT
  8
11
  6
CONTINUOUS
 62
     7
  5
21D
 10
956559.217
 20
7260398.464
 30
0.0
 40
8.0
  1
150'
 50
358.070122
  7
ROMANS
210
0.0
220
0.0
230
1.0
  0
TEXT
  8
11
  6
CONTINUOUS
 62
     7
  5
21E
 10
956543.303
 20
7259814.603
 30
0.0
 40
8.0
  1
150'
 50
358.070122
  7
ROMANS
210
0.0
220
0.0
230
1.0
  0
TEXT
  8
11
  6
CONTINUOUS
 62
     7
  5
21F
 10
956389.879
 20
7259818.831
 30
0.0
 40
8.0
  1
150'
 50
358.070122
  7
ROMANS
210
0.0
220
0.0
230
1.0
  0
TEXT
  8
11
  6
CONTINUOUS
 62
     7
  5
220
 10
955648.387
 20
7260390.019
 30
0.0
 40
8.0
  1
60'
 50
358.070122
  7
ROMANS
210
0.0
220
0.0
230
1.0
  0
TEXT
  8
11
  6
CONTINUOUS
 62
     7
  5
221
 10
955650.879
 20
7260545.34
 30
0.0
 40
8.0
  1
60'
 50
358.070122
  7
ROMANS
210
0.0
220
0.0
230
1.0
  0
TEXT
  8
11
  6
CONTINUOUS
 62
     7
  5
222
 10
956310.329
 20
7260526.725
 30
0.0
 40
8.0
  1
60'
 50
358.070122
  7
ROMANS
210
0.0
220
0.0
230
1.0
  0
TEXT
  8
11
  6
CONTINUOUS
 62
     7
  5
223
 10
956306.112
 20
7260371.367
 30
0.0
 40
8.0
  1
60'
 50
358.070122
  7
ROMANS
210
0.0
220
0.0
230
1.0
  0
TEXT
  8
11
  6
CONTINUOUS
 62
     7
  5
224
 10
955626.601
 20
7259874.95
 30
0.0
 40
8.0
  1
60'
 50
358.070122
  7
ROMANS
210
0.0
220
0.0
230
1.0
  0
TEXT
  8
11
  6
CONTINUOUS
 62
     7
  5
225
 10
956285.964
 20
7259859.942
 30
0.0
 40
8.0
  1
60'
 50
358.070122
  7
ROMANS
210
0.0
220
0.0
230
1.0
  0
TEXT
  8
11
  6
CONTINUOUS
 62
     7
  5
226
 10
955614.264
 20
7260460.833
 30
0.0
 40
8.0
  1
60'
 50
88.070122
  7
ROMANS
210
0.0
220
0.0
230
1.0
  0
TEXT
  8
11
  6
CONTINUOUS
 62
     7
  5
227
 10
955712.189
 20
7260457.549
 30
0.0
 40
8.0
  1
60'
 50
88.070122
  7
ROMANS
210
0.0
220
0.0
230
1.0
  0
TEXT
  8
11
  6
CONTINUOUS
 62
     7
  5
228
 10
956264.379
 20
7260438.93
 30
0.0
 40
8.0
  1
60'
 50
88.070122
  7
ROMANS
210
0.0
220
0.0
230
1.0
  0
TEXT
  8
11
  6
CONTINUOUS
 62
     7
  5
229
 10
956380.975
 20
7260440.418
 30
0.0
 40
8.0
  1
60'
 50
88.070122
  7
ROMANS
210
0.0
220
0.0
230
1.0
  0
TEXT
  8
11
  6
CONTINUOUS
 62
     7
  5
22A
 10
955063.741
 20
7260481.199
 30
0.0
 40
8.0
  1
60'
 50
88.070122
  7
ROMANS
210
0.0
220
0.0
230
1.0
  0
TEXT
  8
11
  6
CONTINUOUS
 62
     7
  5
22B
 10
955075.462
 20
7261141.961
 30
0.0
 40
8.0
  1
60'
 50
88.070122
  7
ROMANS
210
0.0
220
0.0
230
1.0
  0
TEXT
  8
11
  6
CONTINUOUS
 62
     7
  5
22C
 10
955632.736
 20
7261123.167
 30
0.0
 40
8.0
  1
60'
 50
88.070122
  7
ROMANS
210
0.0
220
0.0
230
1.0
  0
TEXT
  8
11
  6
CONTINUOUS
 62
     7
  5
22D
 10
955735.489
 20
7261119.719
 30
0.0
 40
8.0
  1
60'
 50
88.070122
  7
ROMANS
210
0.0
220
0.0
230
1.0
  0
TEXT
  8
11
  6
CONTINUOUS
 62
     7
  5
22E
 10
956285.022
 20
7261099.384
 30
0.0
 40
8.0
  1
60'
 50
88.070122
  7
ROMANS
210
0.0
220
0.0
230
1.0
  0
TEXT
  8
11
  6
CONTINUOUS
 62
     7
  5
22F
 10
956387.666
 20
7261097.738
 30
0.0
 40
8.0
  1
60'
 50
88.070122
  7
ROMANS
210
0.0
220
0.0
230
1.0
  0
TEXT
  8
11
  6
CONTINUOUS
 62
     7
  5
230
 10
956946.329
 20
7261077.292
 30
0.0
 40
8.0
  1
60'
 50
88.070122
  7
ROMANS
210
0.0
220
0.0
230
1.0
  0
TEXT
  8
11
  6
CONTINUOUS
 62
     7
  5
231
 10
957060.132
 20
7261075.276
 30
0.0
 40
8.0
  1
60'
 50
88.070122
  7
ROMANS
210
0.0
220
0.0
230
1.0
  0
TEXT
  8
11
  6
CONTINUOUS
 62
     7
  5
232
 10
957595.002
 20
7261057.15
 30
0.0
 40
8.0
  1
60'
 50
88.070122
  7
ROMANS
210
0.0
220
0.0
230
1.0
  0
TEXT
  8
11
  6
CONTINUOUS
 62
     7
  5
233
 10
955673.797
 20
7261177.413
 30
0.0
 40
8.0
  1
60'
 50
358.070122
  7
ROMANS
210
0.0
220
0.0
230
1.0
  0
TEXT
  8
11
  6
CONTINUOUS
 62
     7
  5
234
 10
955670.596
 20
7261081.863
 30
0.0
 40
8.0
  1
60'
 50
358.070122
  7
ROMANS
210
0.0
220
0.0
230
1.0
  0
TEXT
  8
11
  6
CONTINUOUS
 62
     7
  5
235
 10
956330.273
 20
7261059.336
 30
0.0
 40
8.0
  1
60'
 50
358.070122
  7
ROMANS
210
0.0
220
0.0
230
1.0
  0
TEXT
  8
11
  6
CONTINUOUS
 62
     7
  5
236
 10
956989.135
 20
7261029.4
 30
0.0
 40
8.0
  1
60'
 50
358.070122
  7
ROMANS
210
0.0
220
0.0
230
1.0
  0
TEXT
  8
11
  6
CONTINUOUS
 62
     7
  5
237
 10
956989.103
 20
7261135.758
 30
0.0
 40
8.0
  1
60'
 50
358.070122
  7
ROMANS
210
0.0
220
0.0
230
1.0
  0
TEXT
  8
11
  6
CONTINUOUS
 62
     7
  5
238
 10
956334.165
 20
7261151.836
 30
0.0
 40
8.0
  1
60'
 50
358.070122
  7
ROMANS
210
0.0
220
0.0
230
1.0
  0
TEXT
  8
11
  6
CONTINUOUS
 62
     7
  5
239
 10
956625.049
 20
7259948.386
 30
0.0
 40
8.0
  1
300'
 50
88.070122
  7
ROMANS
210
0.0
220
0.0
230
1.0
  0
TEXT
  8
11
  6
CONTINUOUS
 62
     7
  5
23A
 10
956637.328
 20
7260257.068
 30
0.0
 40
8.0
  1
300'
 50
88.070122
  7
ROMANS
210
0.0
220
0.0
230
1.0
  0
TEXT
  8
11
  6
CONTINUOUS
 62
     7
  5
23B
 10
956643.296
 20
7260601.512
 30
0.0
 40
8.0
  1
300'
 50
88.070122
  7
ROMANS
210
0.0
220
0.0
230
1.0
  0
TEXT
  8
11
  6
CONTINUOUS
 62
     7
  5
23C
 10
956958.909
 20
7260898.657
 30
0.0
 40
8.0
  1
300'
 50
88.070122
  7
ROMANS
210
0.0
220
0.0
230
1.0
  0
TEXT
  8
11
  6
CONTINUOUS
 62
     7
  5
23D
 10
957037.975
 20
7260893.264
 30
0.0
 40
8.0
  1
300'
 50
88.070122
  7
ROMANS
210
0.0
220
0.0
230
1.0
  0
TEXT
  8
11
  6
CONTINUOUS
 62
     7
  5
23E
 10
957049.285
 20
7261249.13
 30
0.0
 40
8.0
  1
300'
 50
88.070122
  7
ROMANS
210
0.0
220
0.0
230
1.0
  0
TEXT
  8
11
  6
CONTINUOUS
 62
     7
  5
23F
 10
957058.874
 20
7261553.964
 30
0.0
 40
8.0
  1
300'
 50
88.070122
  7
ROMANS
210
0.0
220
0.0
230
1.0
  0
TEXT
  8
11
  6
CONTINUOUS
 62
     7
  5
240
 10
957620.197
 20
7260881.152
 30
0.0
 40
8.0
  1
300'
 50
88.070122
  7
ROMANS
210
0.0
220
0.0
230
1.0
  0
TEXT
  8
11
  6
CONTINUOUS
 62
     7
  5
241
 10
957630.542
 20
7261228.641
 30
0.0
 40
8.0
  1
300'
 50
88.070122
  7
ROMANS
210
0.0
220
0.0
230
1.0
  0
TEXT
  8
11
  6
CONTINUOUS
 62
     7
  5
242
 10
956353.541
 20
7261809.368
 30
0.0
 40
8.0
  1
60'
 50
358.070122
  7
ROMANS
210
0.0
220
0.0
230
1.0
  0
TEXT
  8
11
  6
CONTINUOUS
 62
     7
  5
243
 10
956350.433
 20
7261716.783
 30
0.0
 40
8.0
  1
60'
 50
358.070122
  7
ROMANS
210
0.0
220
0.0
230
1.0
  0
TEXT
  8
11
  6
CONTINUOUS
 62
     7
  5
244
 10
956320.739
 20
7261759.58
 30
0.0
 40
8.0
  1
60'
 50
88.070122
  7
ROMANS
210
0.0
220
0.0
230
1.0
  0
TEXT
  8
11
  6
CONTINUOUS
 62
     7
  5
245
 10
956424.318
 20
7261757.906
 30
0.0
 40
8.0
  1
60'
 50
88.070122
  7
ROMANS
210
0.0
220
0.0
230
1.0
  0
TEXT
  8
11
  6
CONTINUOUS
 62
     7
  5
246
 10
955696.134
 20
7261843.911
 30
0.0
 40
8.0
  1
60'
 50
358.070122
  7
ROMANS
210
0.0
220
0.0
230
1.0
  0
TEXT
  8
11
  6
CONTINUOUS
 62
     7
  5
247
 10
955686.887
 20
7261729.603
 30
0.0
 40
8.0
  1
60'
 50
358.070122
  7
ROMANS
210
0.0
220
0.0
230
1.0
  0
TEXT
  8
11
  6
CONTINUOUS
 62
     7
  5
248
 10
955646.941
 20
7261782.287
 30
0.0
 40
8.0
  1
60'
 50
88.070122
  7
ROMANS
210
0.0
220
0.0
230
1.0
  0
TEXT
  8
11
  6
CONTINUOUS
 62
     7
  5
249
 10
955761.537
 20
7261774.83
 30
0.0
 40
8.0
  1
60'
 50
88.070122
  7
ROMANS
210
0.0
220
0.0
230
1.0
  0
TEXT
  8
11
  6
CONTINUOUS
 62
     7
  5
24A
 10
957013.062
 20
7261783.811
 30
0.0
 40
8.0
  1
60'
 50
358.070122
  7
ROMANS
210
0.0
220
0.0
230
1.0
  0
TEXT
  8
11
  6
CONTINUOUS
 62
     7
  5
24B
 10
957010.169
 20
7261697.986
 30
0.0
 40
8.0
  1
60'
 50
358.070122
  7
ROMANS
210
0.0
220
0.0
230
1.0
  0
TEXT
  8
11
  6
CONTINUOUS
 62
     7
  5
24C
 10
956981.328
 20
7261735.526
 30
0.0
 40
8.0
  1
60'
 50
88.070122
  7
ROMANS
210
0.0
220
0.0
230
1.0
  0
TEXT
  8
11
  6
CONTINUOUS
 62
     7
  5
24D
 10
957072.838
 20
7261736.048
 30
0.0
 40
8.0
  1
60'
 50
88.070122
  7
ROMANS
210
0.0
220
0.0
230
1.0
  0
TEXT
  8
11
  6
CONTINUOUS
 62
     7
  5
24E
 10
957636.145
 20
7261577.795
 30
0.0
 40
8.0
  1
285.66'
 50
88.070122
  7
ROMANS
210
0.0
220
0.0
230
1.0
  0
TEXT
  8
11
  6
CONTINUOUS
 62
     7
  5
24F
 10
957033.825
 20
7262357.782
 30
0.0
 40
8.0
  1
60'
 50
358.070122
  7
ROMANS
210
0.0
220
0.0
230
1.0
  0
TEXT
  8
11
  6
CONTINUOUS
 62
     7
  5
250
 10
956373.743
 20
7262374.293
 30
0.0
 40
8.0
  1
60'
 50
358.070122
  7
ROMANS
210
0.0
220
0.0
230
1.0
  0
TEXT
  8
11
  6
CONTINUOUS
 62
     7
  5
251
 10
955715.191
 20
7262389.949
 30
0.0
 40
8.0
  1
60'
 50
358.070122
  7
ROMANS
210
0.0
220
0.0
230
1.0
  0
TEXT
  8
11
  6
CONTINUOUS
 62
     7
  5
252
 10
955141.67
 20
7261797.513
 30
0.0
 40
8.0
  1
60'
 50
88.070122
  7
ROMANS
210
0.0
220
0.0
230
1.0
  0
TEXT
  8
11
  6
CONTINUOUS
 62
     7
  5
253
 10
957530.856
 20
7260717.324
 30
0.0
 40
8.0
  1
120'
 50
358.070122
  7
ROMANS
210
0.0
220
0.0
230
1.0
  0
TEXT
  8
11
  6
CONTINUOUS
 62
     7
  5
254
 10
957528.953
 20
7260660.841
 30
0.0
 40
8.0
  1
120'
 50
358.070122
  7
ROMANS
210
0.0
220
0.0
230
1.0
  0
TEXT
  8
11
  6
CONTINUOUS
 62
     7
  5
255
 10
957529.046
 20
7260647.705
 30
0.0
 40
8.0
  1
135'
 50
358.070122
  7
ROMANS
210
0.0
220
0.0
230
1.0
  0
TEXT
  8
11
  6
CONTINUOUS
 62
     7
  5
256
 10
957614.305
 20
7260714.839
 30
0.0
 40
8.0
  1
10'
 50
88.070122
  7
ROMANS
210
0.0
220
0.0
230
1.0
  0
TEXT
  8
11
  6
CONTINUOUS
 62
     7
  5
257
 10
957492.411
 20
7260690.177
 30
0.0
 40
8.0
  1
70'
 50
88.070122
  7
ROMANS
210
0.0
220
0.0
230
1.0
  0
TEXT
  8
11
  6
CONTINUOUS
 62
     7
  5
258
 10
957479.058
 20
7260691.43
 30
0.0
 40
8.0
  1
80'
 50
88.070122
  7
ROMANS
210
0.0
220
0.0
230
1.0
  0
TEXT
  8
11
  6
CONTINUOUS
 62
     7
  5
259
 10
956954.383
 20
7260709.402
 30
0.0
 40
8.0
  1
53.47'
 50
88.070122
  7
ROMANS
210
0.0
220
0.0
230
1.0
  0
TEXT
  8
11
  6
CONTINUOUS
 62
     7
  5
25A
 10
957005.365
 20
7260705.496
 30
0.0
 40
8.0
  1
52'R
 50
328.070122
  7
ROMANS
210
0.0
220
0.0
230
1.0
  0
TEXT
  8
11
  6
CONTINUOUS
 62
     7
  5
25B
 10
957019.365
 20
7260756.698
 30
0.0
 40
8.0
  1
14.82'
 50
332.070122
  7
ROMANS
210
0.0
220
0.0
230
1.0
  0
TEXT
  8
11
  6
CONTINUOUS
 62
     7
  5
25C
 10
954267.248
 20
7259907.12
 30
0.0
 40
8.0
  1
1225.35
 50
358.0579
  7
ROMANS
210
0.0
220
0.0
230
1.0
  0
TEXT
  8
11
  6
CONTINUOUS
 62
     7
  5
25D
 10
954274.868
 20
7260450.599
 30
0.0
 40
8.0
  1
1224.87'
 50
358.0579
  7
ROMANS
210
0.0
220
0.0
230
1.0
  0
TEXT
  8
11
  6
CONTINUOUS
 62
     7
  5
25E
 10
954303.945
 20
7260564.266
 30
0.0
 40
8.0
  1
1224.81'
 50
358.0579
  7
ROMANS
210
0.0
220
0.0
230
1.0
  0
TEXT
  8
11
  6
CONTINUOUS
 62
     7
  5
25F
 10
953862.777
 20
7260148.351
 30
0.0
 40
8.0
  1
380'
 50
358.0579
  7
ROMANS
210
0.0
220
0.0
230
1.0
  0
TEXT
  8
11
  6
CONTINUOUS
 62
     7
  5
260
 10
953865.449
 20
7260015.202
 30
0.0
 40
8.0
  1
380'
 50
358.0579
  7
ROMANS
210
0.0
220
0.0
230
1.0
  0
TEXT
  8
11
  6
CONTINUOUS
 62
     7
  5
261
 10
953476.586
 20
7260497.053
 30
0.0
 40
8.0
  1
235'
 50
358.1092
  7
ROMANS
210
0.0
220
0.0
230
1.0
  0
TEXT
  8
11
  6
CONTINUOUS
 62
     7
  5
262
 10
953480.084
 20
7260223.877
 30
0.0
 40
8.0
  1
189.9'
 50
358.1092
  7
ROMANS
210
0.0
220
0.0
230
1.0
  0
TEXT
  8
11
  6
CONTINUOUS
 62
     7
  5
263
 10
955080.767
 20
7259818.193
 30
0.0
 40
8.0
  1
2950.34'
 50
358.070122
  7
ROMANS
210
0.0
220
0.0
230
1.0
  0
TEXT
  8
11
  6
CONTINUOUS
 62
     7
  5
264
 10
954937.438
 20
7260145.617
 30
0.0
 40
8.0
  1
555'
 50
88.0579
  7
ROMANS
210
0.0
220
0.0
230
1.0
  0
TEXT
  8
11
  6
CONTINUOUS
 62
     7
  5
265
 10
953744.983
 20
7259878.042
 30
0.0
 40
8.0
  1
37.5'
 50
88.0579
  7
ROMANS
210
0.0
220
0.0
230
1.0
  0
TEXT
  8
11
  6
CONTINUOUS
 62
     7
  5
266
 10
954057.915
 20
7260049.046
 30
0.0
 40
8.0
  1
151.15'
 50
88.0579
  7
ROMANS
210
0.0
220
0.0
230
1.0
  0
TEXT
  8
11
  6
CONTINUOUS
 62
     7
  5
267
 10
953695.301
 20
7260061.342
 30
0.0
 40
8.0
  1
151.15'
 50
88.0579
  7
ROMANS
210
0.0
220
0.0
230
1.0
  0
TEXT
  8
11
  6
CONTINUOUS
 62
     7
  5
268
 10
953604.741
 20
7260320.519
 30
0.0
 40
8.0
  1
271.21'
 50
88.1092
  7
ROMANS
210
0.0
220
0.0
230
1.0
  0
TEXT
  8
11
  6
CONTINUOUS
 62
     7
  5
269
 10
953544.079
 20
7260522.452
 30
0.0
 40
8.0
  1
75'
 50
88.1092
  7
ROMANS
210
0.0
220
0.0
230
1.0
  0
TEXT
  8
11
  6
CONTINUOUS
 62
     7
  5
26A
 10
953788.31
 20
7260518.488
 30
0.0
 40
8.0
  1
75'
 50
88.0579
  7
ROMANS
210
0.0
220
0.0
230
1.0
  0
TEXT
  8
11
  6
CONTINUOUS
 62
     7
  5
26B
 10
954928.518
 20
7260481.627
 30
0.0
 40
8.0
  1
75'
 50
88.0579
  7
ROMANS
210
0.0
220
0.0
230
1.0
  0
TEXT
  8
11
  6
CONTINUOUS
 62
     7
  5
26C
 10
953663.822
 20
7260607.171
 30
0.0
 40
8.0
  1
75'
 50
358.2564
  7
ROMANS
210
0.0
220
0.0
230
1.0
  0
TEXT
  8
11
  6
CONTINUOUS
 62
     7
  5
26D
 10
953654.801
 20
7260429.204
 30
0.0
 40
8.0
  1
75'
 50
358.2564
  7
ROMANS
210
0.0
220
0.0
230
1.0
  0
TEXT
  8
11
  6
CONTINUOUS
 62
     7
  5
26E
 10
957548.202
 20
7261685.698
 30
0.0
 40
8.0
  1
125.48'
 50
358.070122
  7
ROMANS
210
0.0
220
0.0
230
1.0
  0
TEXT
  8
11
  6
CONTINUOUS
 62
     7
  5
26F
 10
957302.797
 20
7260534.378
 30
0.0
 40
8.0
  1
20'
 50
358.070122
  7
ROMANS
210
0.0
220
0.0
230
1.0
  0
TEXT
  8
11
  6
CONTINUOUS
 62
     7
  5
270
 10
957438.407
 20
7260509.081
 30
0.0
 40
8.0
  1
275'
 50
358.070122
  7
ROMANS
210
0.0
220
0.0
230
1.0
  0
TEXT
  8
11
  6
CONTINUOUS
 62
     7
  5
271
 10
957471.841
 20
7260525.025
 30
0.0
 40
8.0
  1
320'
 50
358.070122
  7
ROMANS
210
0.0
220
0.0
230
1.0
  0
TEXT
  8
11
  6
CONTINUOUS
 62
     7
  5
272
 10
957449.85
 20
7260306.295
 30
0.0
 40
8.0
  1
214.7
 50
358.070122
  7
ROMANS
210
0.0
220
0.0
230
1.0
  0
TEXT
  8
11
  6
CONTINUOUS
 62
     7
  5
273
 10
957332.38
 20
7260487.738
 30
0.0
 40
8.0
  1
16.7'
 50
88.070122
  7
ROMANS
210
0.0
220
0.0
230
1.0
  0
TEXT
  8
11
  6
CONTINUOUS
 62
     7
  5
274
 10
957292.095
 20
7260485.437
 30
0.0
 40
8.0
  1
46.3'
 50
88.070122
  7
ROMANS
210
0.0
220
0.0
230
1.0
  0
TEXT
  8
11
  6
CONTINUOUS
 62
     7
  5
275
 10
956668.743
 20
7260644.221
 30
0.0
 40
8.0
  1
220'
 50
88.070122
  7
ROMANS
210
0.0
220
0.0
230
1.0
  0
TEXT
  8
11
  6
CONTINUOUS
 62
     7
  5
276
 10
956661.438
 20
7260427.434
 30
0.0
 40
8.0
  1
220'
 50
88.070122
  7
ROMANS
210
0.0
220
0.0
230
1.0
  0
TEXT
  8
11
  6
CONTINUOUS
 62
     7
  5
277
 10
957589.572
 20
7260395.478
 30
0.0
 40
8.0
  1
220'
 50
88.070122
  7
ROMANS
210
0.0
220
0.0
230
1.0
  0
TEXT
  8
11
  6
CONTINUOUS
 62
     7
  5
278
 10
957587.987
 20
7260267.506
 30
0.0
 40
8.0
  1
220'
 50
88.070122
  7
ROMANS
210
0.0
220
0.0
230
1.0
  0
TEXT
  8
11
  6
CONTINUOUS
 62
     7
  5
279
 10
957366.174
 20
7260345.197
 30
0.0
 40
8.0
  1
214.4'
 50
106.070122
  7
ROMANS
210
0.0
220
0.0
230
1.0
  0
TEXT
  8
11
  6
CONTINUOUS
 62
     7
  5
27A
 10
957266.631
 20
7260352.54
 30
0.0
 40
8.0
  1
179.05
 50
73.070122
  7
ROMANS
210
0.0
220
0.0
230
1.0
  0
TEXT
  8
11
  6
CONTINUOUS
 62
     7
  5
27B
 10
957330.883
 20
7260463.934
 30
0.0
 40
8.0
  1
R=373.06
 50
358.070122
  7
ROMANS
210
0.0
220
0.0
230
1.0
  0
TEXT
  8
11
  6
CONTINUOUS
 62
     7
  5
27C
 10
956939.883
 20
7260324.318
 30
0.0
 40
8.0
  1
607.5'
 50
358.070122
  7
ROMANS
210
0.0
220
0.0
230
1.0
  0
TEXT
  8
11
  6
CONTINUOUS
 62
     7
  5
27D
 10
956921.455
 20
7260543.977
 30
0.0
 40
8.0
  1
650'
 50
358.070122
  7
ROMANS
210
0.0
220
0.0
230
1.0
  0
TEXT
  8
11
  6
CONTINUOUS
 62
     7
  5
27E
 10
957291.644
 20
7260313.825
 30
0.0
 40
8.0
  1
122.8'
 50
358.070122
  7
ROMANS
210
0.0
220
0.0
230
1.0
  0
TEXT
  8
11
  6
CONTINUOUS
 62
     7
  5
27F
 10
957549.029
 20
7259751.785
 30
0.0
 40
8.0
  1
25.7'
 50
358.003456
  7
ROMANS
210
0.0
220
0.0
230
1.0
  0
TEXT
  8
11
  6
CONTINUOUS
 62
     7
  5
280
 10
957559.411
 20
7259796.82
 30
0.0
 40
8.0
  1
136.46'
 50
85.070122
  7
ROMANS
210
0.0
220
0.0
230
1.0
  0
TEXT
  8
11
  6
CONTINUOUS
 62
     7
  5
281
 10
957569.94
 20
7259961.817
 30
0.0
 40
8.0
  1
224'
 50
88.070122
  7
ROMANS
210
0.0
220
0.0
230
1.0
  0
TEXT
  8
11
  6
CONTINUOUS
 62
     7
  5
282
 10
957581.697
 20
7260157.846
 30
0.0
 40
8.0
  1
190.06'
 50
88.070122
  7
ROMANS
210
0.0
220
0.0
230
1.0
  0
TEXT
  8
11
  6
CONTINUOUS
 62
     7
  5
283
 10
957510.628
 20
7258424.527
 30
0.0
 40
8.0
  1
2432.49'
 50
87.991233
  7
ROMANS
210
0.0
220
0.0
230
1.0
  0
TEXT
  8
11
  6
CONTINUOUS
 62
     7
  5
284
 10
954976.028
 20
7261354.062
 30
0.0
 40
8.0
  1
1852.5'
 50
88.0579
  7
ROMANS
210
0.0
220
0.0
230
1.0
  0
TEXT
  8
11
  6
CONTINUOUS
 62
     7
  5
285
 10
953734.957
 20
7261112.894
 30
0.0
 40
8.0
  1
1127.5'
 50
88.0579
  7
ROMANS
210
0.0
220
0.0
230
1.0
  0
TEXT
  8
11
  6
CONTINUOUS
 62
     7
  5
286
 10
953885.936
 20
7261717.255
 30
0.0
 40
8.0
  1
300'
 50
358.0579
  7
ROMANS
210
0.0
220
0.0
230
1.0
  0
TEXT
  8
11
  6
CONTINUOUS
 62
     7
  5
287
 10
954056.714
 20
7261905.983
 30
0.0
 40
8.0
  1
740.10'
 50
88.0579
  7
ROMANS
210
0.0
220
0.0
230
1.0
  0
TEXT
  8
11
  6
CONTINUOUS
 62
     7
  5
288
 10
953763.026
 20
7262057.112
 30
0.0
 40
8.0
  1
725'
 50
88.0579
  7
ROMANS
210
0.0
220
0.0
230
1.0
  0
TEXT
  8
11
  6
CONTINUOUS
 62
     7
  5
289
 10
953884.013
 20
7262441.635
 30
0.0
 40
8.0
  1
285'
 50
358.0579
  7
ROMANS
210
0.0
220
0.0
230
1.0
  0
TEXT
  8
11
  6
CONTINUOUS
 62
     7
  5
28A
 10
953334.194
 20
7261128.435
 30
0.0
 40
8.0
  1
570'
 50
358.1092
  7
ROMANS
210
0.0
220
0.0
230
1.0
  0
TEXT
  8
11
  6
CONTINUOUS
 62
     7
  5
28B
 10
953295.746
 20
7262461.737
 30
0.0
 40
8.0
  1
691.69'
 50
358.1092
  7
ROMANS
210
0.0
220
0.0
230
1.0
  0
TEXT
  8
11
  6
CONTINUOUS
 62
     7
  5
28C
 10
952890.384
 20
7261833.519
 30
0.0
 40
8.0
  1
342.79'
 50
358.1092
  7
ROMANS
210
0.0
220
0.0
230
1.0
  0
TEXT
  8
11
  6
CONTINUOUS
 62
     7
  5
28D
 10
952789.385
 20
7261912.54
 30
0.0
 40
8.0
  1
206.10'
 50
358.1092
  7
ROMANS
210
0.0
220
0.0
230
1.0
  0
TEXT
  8
11
  6
CONTINUOUS
 62
     7
  5
28E
 10
952694.702
 20
7261933.766
 30
0.0
 40
8.0
  1
559.47'
 50
358.1092
  7
ROMANS
210
0.0
220
0.0
230
1.0
  0
TEXT
  8
11
  6
CONTINUOUS
 62
     7
  5
28F
 10
952496.548
 20
7261848.252
 30
0.0
 40
8.0
  1
285'
 50
358.1092
  7
ROMANS
210
0.0
220
0.0
230
1.0
  0
TEXT
  8
11
  6
CONTINUOUS
 62
     7
  5
290
 10
952499.481
 20
7261663.248
 30
0.0
 40
8.0
  1
300'
 50
358.1092
  7
ROMANS
210
0.0
220
0.0
230
1.0
  0
TEXT
  8
11
  6
CONTINUOUS
 62
     7
  5
291
 10
952377.971
 20
7261761.362
 30
0.0
 40
8.0
  1
200'
 50
88.1092
  7
ROMANS
210
0.0
220
0.0
230
1.0
  0
TEXT
  8
11
  6
CONTINUOUS
 62
     7
  5
292
 10
952662.114
 20
7261750.337
 30
0.0
 40
8.0
  1
185'
 50
88.1092
  7
ROMANS
210
0.0
220
0.0
230
1.0
  0
TEXT
  8
11
  6
CONTINUOUS
 62
     7
  5
293
 10
952606.323
 20
7262486.246
 30
0.0
 40
8.0
  1
S 88 02' 14" W
 50
0.1092
  7
ROMANS
210
0.0
220
0.0
230
1.0
  0
TEXT
  8
11
  6
CONTINUOUS
 62
     7
  5
294
 10
952699.473
 20
7262468.363
 30
0.0
 40
8.0
  1
486.18'
 50
0.1092
  7
ROMANS
210
0.0
220
0.0
230
1.0
  0
TEXT
  8
11
  6
CONTINUOUS
 62
     7
  5
295
 10
952960.933
 20
7262168.27
 30
0.0
 40
8.0
  1
562.69'
 50
88.1092
  7
ROMANS
210
0.0
220
0.0
230
1.0
  0
TEXT
  8
11
  6
CONTINUOUS
 62
     7
  5
296
 10
952482.989
 20
7262466.704
 30
0.0
 40
8.0
  1
R=16.24'
 50
328.1092
  7
ROMANS
210
0.0
220
0.0
230
1.0
  0
TEXT
  8
11
  6
CONTINUOUS
 62
     7
  5
297
 10
952396.575
 20
7261947.971
 30
0.0
 40
8.0
  1
R=11.98'
 50
28.1092
  7
ROMANS
210
0.0
220
0.0
230
1.0
  0
TEXT
  8
11
  6
CONTINUOUS
 62
     7
  5
298
 10
952415.406
 20
7262106.875
 30
0.0
 40
8.0
  1
CH=520.58
 50
78.1092
  7
ROMANS
210
0.0
220
0.0
230
1.0
  0
TEXT
  8
11
  6
CONTINUOUS
 62
     7
  5
299
 10
952393.213
 20
7262003.205
 30
0.0
 40
8.0
  1
R=2924.97'
 50
78.1092
  7
ROMANS
210
0.0
220
0.0
230
1.0
  0
TEXT
  8
11
  6
CONTINUOUS
 62
     7
  5
29A
 10
952631.247
 20
7260850.165
 30
0.0
 40
8.0
  1
1686.69'
 50
88.1092
  7
ROMANS
210
0.0
220
0.0
230
1.0
  0
TEXT
  8
11
  6
CONTINUOUS
 62
     7
  5
29B
 10
952663.186
 20
7261886.348
 30
0.0
 40
8.0
  1
75'
 50
88.1092
  7
ROMANS
210
0.0
220
0.0
230
1.0
  0
TEXT
  8
11
  6
CONTINUOUS
 62
     7
  5
29C
 10
952737.571
 20
7261225.473
 30
0.0
 40
8.0
  1
1303.94'
 50
88.1092
  7
ROMANS
210
0.0
220
0.0
230
1.0
  0
TEXT
  8
11
  6
CONTINUOUS
 62
     7
  5
29D
 10
952700.193
 20
7261831.421
 30
0.0
 40
8.0
  1
75'
 50
358.1092
  7
ROMANS
210
0.0
220
0.0
230
1.0
  0
TEXT
  8
11
  6
CONTINUOUS
 62
     7
  5
29E
 10
953550.628
 20
7259801.255
 30
0.0
 40
8.0
  1
25' R
 50
43.1092
  7
ROMANS
210
0.0
220
0.0
230
1.0
  0
TEXT
  8
11
  6
CONTINUOUS
 62
     7
  5
29F
 10
952340.039
 20
7259872.495
 30
0.0
 40
8.0
  1
25' R
 50
313.1092
  7
ROMANS
210
0.0
220
0.0
230
1.0
  0
TEXT
  8
11
  6
CONTINUOUS
 62
     7
  5
2A0
 10
953104.231
 20
7259938.905
 30
0.0
 40
8.0
  1
883.05'
 50
358.1092
  7
ROMANS
210
0.0
220
0.0
230
1.0
  0
TEXT
  8
11
  6
CONTINUOUS
 62
     7
  5
2A1
 10
953024.895
 20
7260510.792
 30
0.0
 40
8.0
  1
648.05'
 50
358.1092
  7
ROMANS
210
0.0
220
0.0
230
1.0
  0
TEXT
  8
11
  6
CONTINUOUS
 62
     7
  5
2A2
 10
952700.815
 20
7260231.591
 30
0.0
 40
8.0
  1
552.82'
 50
88.1092
  7
ROMANS
210
0.0
220
0.0
230
1.0
  0
TEXT
  8
11
  6
CONTINUOUS
 62
     7
  5
2A3
 10
953704.079
 20
7259958.765
 30
0.0
 40
8.0
  1
85'
 50
88.0579
  7
ROMANS
210
0.0
220
0.0
230
1.0
  0
TEXT
  8
11
  6
CONTINUOUS
 62
     7
  5
2A4
 10
953703.907
 20
7260287.28
 30
0.0
 40
8.0
  1
317.63'
 50
88.0579
  7
ROMANS
210
0.0
220
0.0
230
1.0
  0
TEXT
  8
11
  6
CONTINUOUS
 62
     7
  5
2A5
 10
953594.084
 20
7260040.104
 30
0.0
 40
8.0
  1
282.50'
 50
88.1092
  7
ROMANS
210
0.0
220
0.0
230
1.0
  0
TEXT
  8
11
  6
CONTINUOUS
 62
     7
  5
2A6
 10
953319.16
 20
7260595.167
 30
0.0
 40
8.0
  1
555'
 50
358.1092
  7
ROMANS
210
0.0
220
0.0
230
1.0
  0
TEXT
  8
11
  6
CONTINUOUS
 62
     7
  5
2A7
 10
952847.323
 20
7260610.743
 30
0.0
 40
8.0
  1
327.79'
 50
358.1092
  7
ROMANS
210
0.0
220
0.0
230
1.0
  0
TEXT
  8
11
  6
CONTINUOUS
 62
     7
  5
2A8
 10
952879.228
 20
7259850.62
 30
0.0
 40
8.0
  1
1210.55'
 50
358.1092
  7
ROMANS
210
0.0
220
0.0
230
1.0
  0
TEXT
  8
11
  6
CONTINUOUS
 62
     7
  5
2A9
 10
953633.767
 20
7259780.91
 30
0.0
 40
8.0
  1
75'
 50
358.2564
  7
ROMANS
210
0.0
220
0.0
230
1.0
  0
TEXT
  8
11
  6
CONTINUOUS
 62
     7
  5
2AA
 10
953635.181
 20
7259966.86
 30
0.0
 40
8.0
  1
75'
 50
358.0579
  7
ROMANS
210
0.0
220
0.0
230
1.0
  0
TEXT
  8
11
  6
CONTINUOUS
 62
     7
  5
2AB
 10
953544.684
 20
7259873.766
 30
0.0
 40
8.0
  1
75'
 50
88.1092
  7
ROMANS
210
0.0
220
0.0
230
1.0
  0
TEXT
  8
11
  6
CONTINUOUS
 62
     7
  5
2AC
 10
952318.642
 20
7259077.35
 30
0.0
 40
8.0
  1
1556'
 50
88.1092
  7
ROMANS
210
0.0
220
0.0
230
1.0
  0
TEXT
  8
11
  6
CONTINUOUS
 62
     7
  5
2AD
 10
954963.791
 20
7259895.994
 30
0.0
 40
8.0
  1
75'
 50
358.070122
  7
ROMANS
210
0.0
220
0.0
230
1.0
  0
TEXT
  8
11
  6
CONTINUOUS
 62
     7
  5
2AE
 10
953561.224
 20
7259065.286
 30
0.0
 40
8.0
  1
1556'
 50
88.1092
  7
ROMANS
210
0.0
220
0.0
230
1.0
  0
TEXT
  8
11
  6
CONTINUOUS
 62
     7
  5
2AF
 10
952277.633
 20
7257866.096
 30
0.0
 40
8.0
  1
691.84'
 50
88.1092
  7
ROMANS
210
0.0
220
0.0
230
1.0
  0
TEXT
  8
11
  6
CONTINUOUS
 62
     7
  5
2B0
 10
952864.123
 20
7258232.268
 30
0.0
 40
8.0
  1
1260.55'
 50
358.1092
  7
ROMANS
210
0.0
220
0.0
230
1.0
  0
TEXT
  8
11
  6
CONTINUOUS
 62
     7
  5
2B1
 10
953698.458
 20
7257850.472
 30
0.0
 40
8.0
  1
216.0'
 50
358.0579
  7
ROMANS
210
0.0
220
0.0
230
1.0
  0
TEXT
  8
11
  6
CONTINUOUS
 62
     7
  5
2B2
 10
953724.625
 20
7257632.896
 30
0.0
 40
8.0
  1
231.0'
 50
358.0579
  7
ROMANS
210
0.0
220
0.0
230
1.0
  0
TEXT
  8
11
  6
CONTINUOUS
 62
     7
  5
2B3
 10
953813.425
 20
7257277.026
 30
0.0
 40
8.0
  1
485'
 50
358.0579
  7
ROMANS
210
0.0
220
0.0
230
1.0
  0
TEXT
  8
11
  6
CONTINUOUS
 62
     7
  5
2B4
 10
954423.776
 20
7257254.602
 30
0.0
 40
8.0
  1
740.35'
 50
358.0579
  7
ROMANS
210
0.0
220
0.0
230
1.0
  0
TEXT
  8
11
  6
CONTINUOUS
 62
     7
  5
2B5
 10
954408.885
 20
7257593.362
 30
0.0
 40
8.0
  1
755.35'
 50
358.0579
  7
ROMANS
210
0.0
220
0.0
230
1.0
  0
TEXT
  8
11
  6
CONTINUOUS
 62
     7
  5
2B6
 10
953939.542
 20
7257624.495
 30
0.0
 40
8.0
  1
500'
 50
358.0579
  7
ROMANS
210
0.0
220
0.0
230
1.0
  0
TEXT
  8
11
  6
CONTINUOUS
 62
     7
  5
2B7
 10
953607.378
 20
7257441.94
 30
0.0
 40
8.0
  1
337.5
 50
88.0579
  7
ROMANS
210
0.0
220
0.0
230
1.0
  0
TEXT
  8
11
  6
CONTINUOUS
 62
     7
  5
2B8
 10
954843.283
 20
7257400.032
 30
0.0
 40
8.0
  1
337.5
 50
88.0579
  7
ROMANS
210
0.0
220
0.0
230
1.0
  0
TEXT
  8
11
  6
CONTINUOUS
 62
     7
  5
2B9
 10
954100.861
 20
7257424.692
 30
0.0
 40
8.0
  1
352.5'
 50
88.0579
  7
ROMANS
210
0.0
220
0.0
230
1.0
  0
TEXT
  8
11
  6
CONTINUOUS
 62
     7
  5
2BA
 10
953597.778
 20
7257635.512
 30
0.0
 40
8.0
  1
17'
 50
88.0579
  7
ROMANS
210
0.0
220
0.0
230
1.0
  0
TEXT
  8
11
  6
CONTINUOUS
 62
     7
  5
2BB
 10
953629.167
 20
7257894.053
 30
0.0
 40
8.0
  1
75'
 50
88.0579
  7
ROMANS
210
0.0
220
0.0
230
1.0
  0
TEXT
  8
11
  6
CONTINUOUS
 62
     7
  5
2BC
 10
954932.359
 20
7257398.124
 30
0.0
 40
8.0
  1
337.5'
 50
88.0579
  7
ROMANS
210
0.0
220
0.0
230
1.0
  0
TEXT
  8
11
  6
CONTINUOUS
 62
     7
  5
2BD
 10
956158.79
 20
7257355.424
 30
0.0
 40
8.0
  1
337.5'
 50
88.0579
  7
ROMANS
210
0.0
220
0.0
230
1.0
  0
TEXT
  8
11
  6
CONTINUOUS
 62
     7
  5
2BE
 10
955553.038
 20
7257375.536
 30
0.0
 40
8.0
  1
352.5'
 50
88.0579
  7
ROMANS
210
0.0
220
0.0
230
1.0
  0
TEXT
  8
11
  6
CONTINUOUS
 62
     7
  5
2BF
 10
956248.575
 20
7257350.282
 30
0.0
 40
8.0
  1
352.5'
 50
88.0579
  7
ROMANS
210
0.0
220
0.0
230
1.0
  0
TEXT
  8
11
  6
CONTINUOUS
 62
     7
  5
2C0
 10
955350.239
 20
7257562.241
 30
0.0
 40
8.0
  1
621.5'
 50
358.0579
  7
ROMANS
210
0.0
220
0.0
230
1.0
  0
TEXT
  8
11
  6
CONTINUOUS
 62
     7
  5
2C1
 10
955816.84
 20
7257538.072
 30
0.0
 40
8.0
  1
621.5
 50
358.0579
  7
ROMANS
210
0.0
220
0.0
230
1.0
  0
TEXT
  8
11
  6
CONTINUOUS
 62
     7
  5
2C2
 10
955808.459
 20
7257205.113
 30
0.0
 40
8.0
  1
606.55'
 50
358.0579
  7
ROMANS
210
0.0
220
0.0
230
1.0
  0
TEXT
  8
11
  6
CONTINUOUS
 62
     7
  5
2C3
 10
955212.723
 20
7257226.3
 30
0.0
 40
8.0
  1
606.55'
 50
358.0579
  7
ROMANS
210
0.0
220
0.0
230
1.0
  0
TEXT
  8
11
  6
CONTINUOUS
 62
     7
  5
2C4
 10
956204.203
 20
7257526.609
 30
0.0
 40
8.0
  1
75'
 50
358.0579
  7
ROMANS
210
0.0
220
0.0
230
1.0
  0
TEXT
  8
11
  6
CONTINUOUS
 62
     7
  5
2C5
 10
952444.724
 20
7259958.082
 30
0.0
 40
8.0
  1
300'
 50
358.1092
  7
ROMANS
210
0.0
220
0.0
230
1.0
  0
TEXT
  8
19
  6
CONTINUOUS
 62
     1
  5
2C8
 10
954894.984
 20
7257277.304
 30
0.0
 40
24.0
  1
IVORY AVE
 50
88.0579
  7
ROMANC
 72
     4
 11
954886.910084
 21
7257393.290246
 31
0.0
210
0.0
220
0.0
230
1.0
  0
TEXT
  8
11
  6
CONTINUOUS
 62
     7
  5
2C9
 10
954882.13
 20
7257556.115
 30
0.0
 40
8.0
  1
75'
 50
358.0579
  7
ROMANS
210
0.0
220
0.0
230
1.0
  0
TEXT
  8
11
  6
CONTINUOUS
 62
     7
  5
2CA
 10
953068.488
 20
7260835.705
 30
0.0
 40
8.0
  1
535.52'
 50
88.1092
  7
ROMANS
210
0.0
220
0.0
230
1.0
  0
TEXT
  8
11
  6
CONTINUOUS
 62
     7
  5
2CB
 10
953617.171
 20
7260823.487
 30
0.0
 40
8.0
  1
520.52'
 50
88.1092
  7
ROMANS
210
0.0
220
0.0
230
1.0
  0
TEXT
  8
11
  6
CONTINUOUS
 62
     7
  5
2CC
 10
952539.061
 20
7257437.352
 30
0.0
 40
8.0
  1
S70 12' 20"
 50
338.1092
  7
ROMANS
210
0.0
220
0.0
230
1.0
  0
TEXT
  8
11
  6
CONTINUOUS
 62
     7
  5
2CD
 10
952570.252
 20
7257447.695
 30
0.0
 40
8.0
  1
694.76'
 50
338.1092
  7
ROMANS
210
0.0
220
0.0
230
1.0
  0
TEXT
  8
11
  6
CONTINUOUS
 62
     7
  5
2CE
 10
952918.545
 20
7257307.744
 30
0.0
 40
8.0
  1
24.02'
 50
43.1092
  7
ROMANS
210
0.0
220
0.0
230
1.0
  0
TEXT
  8
11
  6
CONTINUOUS
 62
     7
  5
2CF
 10
953518.847
 20
7257821.953
 30
0.0
 40
8.0
  1
916'
 50
88.1092
  7
ROMANS
210
0.0
220
0.0
230
1.0
  0
TEXT
  8
11
  6
CONTINUOUS
 62
     7
  5
2D0
 10
953467.424
 20
7257317.583
 30
0.0
 40
8.0
  1
R=25'
 50
313.1092
  7
ROMANS
210
0.0
220
0.0
230
1.0
  0
TEXT
  8
15
  6
CONTINUOUS
 62
    30
  5
2D2
 10
956614.93
 20
7260358.653
 30
0.0
 40
50.0
  1

 50
28.070122
  7
ROMANC
 72
     4
 11
956614.93
 21
7260358.653
 31
0.0
210
0.0
220
0.0
230
1.0
  0
TEXT
  8
15
  6
CONTINUOUS
 62
    30
  5
2D3
 10
955350.497
 20
7258737.716
 30
0.0
 40
50.0
  1

 50
28.0579
  7
ROMANC
 72
     4
 11
955350.497
 21
7258737.716
 31
0.0
210
0.0
220
0.0
230
1.0
  0
TEXT
  8
19
  6
CONTINUOUS
 62
     1
  5
2D4
 10
952258.623
 20
7257469.59
 30
0.0
 40
19.999
  1
U.S. HIGHWAY 84 (SLATON HWY.)
 50
338.1092
 41
0.80004
  7
ROMANC
 72
     4
 11
952480.065513
 21
7257391.389049
 31
0.0
210
0.0
220
0.0
230
1.0
  0
TEXT
  8
19
  6
CONTINUOUS
 62
     1
  5
2D5
 10
953011.667
 20
7262498.295
 30
0.0
 40
24.0
  1
FARM ROAD 835 (E. 50TH ST.)
 50
358.1092
  7
ROMANC
 72
     4
 11
953332.378438
 21
7262499.713996
 31
0.0
210
0.0
220
0.0
230
1.0
  0
TEXT
  8
19
  6
CONTINUOUS
 62
     1
  5
2D6
 10
956589.058
 20
7262396.891
 30
0.0
 40
24.0
  1
FARM ROAD 835 (E. 50TH ST.)
 50
358.070122
 41
0.833292
  7
ROMANC
 72
     4
 11
956856.372636
 21
7262399.890519
 31
0.0
210
0.0
220
0.0
230
1.0
  0
TEXT
  8
19
  6
CONTINUOUS
 62
     1
  5
2D7
 10
952404.155
 20
7262073.414
 30
0.0
 40
24.0
  1
A
 50
77.2176
 41
0.833333
  7
ROMANC
 72
     4
 11
952394.333893
 21
7262084.362236
 31
0.0
210
0.0
220
0.0
230
1.0
  0
TEXT
  8
19
  6
CONTINUOUS
 62
     1
  5
2D8
 10
952407.673
 20
7262093.21
 30
0.0
 40
24.0
  1
V
 50
78.682617
 41
0.833333
  7
ROMANC
 72
     4
 11
952397.575194
 21
7262103.903565
 31
0.0
210
0.0
220
0.0
230
1.0
  0
TEXT
  8
19
  6
CONTINUOUS
 62
     1
  5
2D9
 10
952412.309
 20
7262116.373
 30
0.0
 40
24.0
  1
E
 50
78.682617
 41
0.833333
  7
ROMANC
 72
     4
 11
952402.025548
 21
7262126.13896
 31
0.0
210
0.0
220
0.0
230
1.0
  0
TEXT
  8
19
  6
CONTINUOUS
 62
     1
  5
2DA
 10
952416.573
 20
7262137.683
 30
0.0
 40
24.0
  1
N
 50
78.682617
 41
0.833333
  7
ROMANC
 72
     4
 11
952406.567821
 21
7262148.839387
 31
0.0
210
0.0
220
0.0
230
1.0
  0
TEXT
  8
19
  6
CONTINUOUS
 62
     1
  5
2DB
 10
952421.394
 20
7262161.773
 30
0.0
 40
24.0
  1
U
 50
78.682617
 41
0.833333
  7
ROMANC
 72
     4
 11
952411.481448
 21
7262173.392209
 31
0.0
210
0.0
220
0.0
230
1.0
  0
TEXT
  8
19
  6
CONTINUOUS
 62
     1
  5
2DC
 10
952425.991
 20
7262186.657
 30
0.0
 40
24.0
  1
E
 50
80.147633
 41
0.833333
  7
ROMANC
 72
     4
 11
952415.461227
 21
7262196.156855
 31
0.0
210
0.0
220
0.0
230
1.0
  0
TEXT
  8
19
  6
CONTINUOUS
 62
     1
  5
2DD
 10
952429.709
 20
7262208.068
 30
0.0
 40
24.0
  1
 
 50
80.147633
 41
0.833333
  7
ROMANC
 72
     4
 11
952419.026597
 21
7262216.68901
 31
0.0
210
0.0
220
0.0
230
1.0
  0
TEXT
  8
19
  6
CONTINUOUS
 62
     1
  5
2DE
 10
952433.428
 20
7262229.48
 30
0.0
 40
24.0
  1
A
 50
80.147633
 41
0.833333
  7
ROMANC
 72
     4
 11
952423.060097
 21
7262239.911903
 31
0.0
210
0.0
220
0.0
230
1.0
  0
TEXT
  8
19
  6
CONTINUOUS
 62
     1
  5
2DF
 10
952437.266
 20
7262252.579
 30
0.0
 40
24.0
  1
 
 50
81.61265
 41
0.833333
  7
ROMANC
 72
     4
 11
952426.366679
 21
7262260.92408
 31
0.0
210
0.0
220
0.0
230
1.0
  0
TEXT
  8
19
  6
CONTINUOUS
 62
     1
  5
2E0
 10
952440.711
 20
7262275.949
 30
0.0
 40
24.0
  1
(
 50
81.61265
 41
0.833333
  7
ROMANC
 72
     4
 11
952429.149453
 21
7262279.802637
 31
0.0
210
0.0
220
0.0
230
1.0
  0
TEXT
  8
19
  6
CONTINUOUS
 62
     1
  5
2E1
 10
952442.274
 20
7262286.542
 30
0.0
 40
24.0
  1
A
 50
81.61265
 41
0.833333
  7
ROMANC
 72
     4
 11
952431.642778
 21
7262296.705421
 31
0.0
210
0.0
220
0.0
230
1.0
  0
TEXT
  8
19
  6
CONTINUOUS
 62
     1
  5
2E2
 10
952445.719
 20
7262309.911
 30
0.0
 40
24.0
  1
S
 50
81.61265
 41
0.833333
  7
ROMANC
 72
     4
 11
952434.812094
 21
7262318.204636
 31
0.0
210
0.0
220
0.0
230
1.0
  0
TEXT
  8
19
  6
CONTINUOUS
 62
     1
  5
2E3
 10
952448.344
 20
7262329.372
 30
0.0
 40
24.0
  1
H
 50
83.077667
 41
0.833333
  7
ROMANC
 72
     4
 11
952437.570184
 21
7262340.197414
 31
0.0
210
0.0
220
0.0
230
1.0
  0
TEXT
  8
19
  6
CONTINUOUS
 62
     1
  5
2E4
 10
952451.419
 20
7262354.698
 30
0.0
 40
24.0
  1
 
 50
83.077667
 41
0.833333
  7
ROMANC
 72
     4
 11
952440.309886
 21
7262362.761693
 31
0.0
210
0.0
220
0.0
230
1.0
  0
TEXT
  8
19
  6
CONTINUOUS
 62
     1
  5
2E5
 10
952454.493
 20
7262380.025
 30
0.0
 40
24.0
  1
A
 50
83.077667
 41
0.833333
  7
ROMANC
 72
     4
 11
952443.605409
 21
7262389.913295
 31
0.0
210
0.0
220
0.0
230
1.0
  0
TEXT
  8
19
  6
CONTINUOUS
 62
     1
  5
2E6
 10
952457.088
 20
7262403.295
 30
0.0
 40
24.0
  1
V
 50
84.542683
 41
0.833333
  7
ROMANC
 72
     4
 11
952445.951158
 21
7262412.901704
 31
0.0
210
0.0
220
0.0
230
1.0
  0
TEXT
  8
19
  6
CONTINUOUS
 62
     1
  5
2E7
 10
952459.335
 20
7262426.812
 30
0.0
 40
24.0
  1
E
 50
84.542683
 41
0.833333
  7
ROMANC
 72
     4
 11
952448.10819
 21
7262435.476992
 31
0.0
210
0.0
220
0.0
230
1.0
  0
TEXT
  8
19
  6
CONTINUOUS
 62
     1
  5
2E8
 10
952461.402
 20
7262448.445
 30
0.0
 40
24.0
  1
.
 50
84.542683
 41
0.833333
  7
ROMANC
 72
     4
 11
952449.583737
 21
7262450.919181
 31
0.0
210
0.0
220
0.0
230
1.0
  0
TEXT
  8
19
  6
CONTINUOUS
 62
     1
  5
2E9
 10
952462.361
 20
7262458.479
 30
0.0
 40
24.0
  1
)
 50
84.542683
 41
0.833333
  7
ROMANC
 72
     4
 11
952450.617584
 21
7262461.736614
 31
0.0
210
0.0
220
0.0
230
1.0
  0
TEXT
  8
11
  6
CONTINUOUS
 62
     7
  5
2EA
 10
953693.2
 20
7262379.339
 30
0.0
 40
8.0
  1
75'
 50
358.2564
  7
ROMANS
210
0.0
220
0.0
230
1.0
  0
TEXT
  8
11
  6
CONTINUOUS
 62
     7
  5
2EB
 10
953540.429
 20
7257302.273
 30
0.0
 40
8.0
  1
75'
 50
358.0579
  7
ROMANS
210
0.0
220
0.0
230
1.0
  0
TEXT
  8
11
  6
CONTINUOUS
 62
     7
  5
2EC
 10
954982.546
 20
7260571.399
 30
0.0
 40
8.0
  1
75'
 50
358.0579
  7
ROMANS
210
0.0
220
0.0
230
1.0
  0
TEXT
  8
11
  6
CONTINUOUS
 62
     7
  5
2ED
 10
955043.496
 20
7262369.722
 30
0.0
 40
8.0
  1
75'
 50
358.0579
  7
ROMANS
210
0.0
220
0.0
230
1.0
  0
TEXT
  8
19
  6
CONTINUOUS
 62
     1
  5
2EE
 10
957484.348
 20
7257225.624
 30
0.0
 40
19.999
  1
MARTIN LUTHER KING, JR. BLVD.
 50
87.991233
  7
ROMANC
 72
     4
 11
957484.418919
 21
7257512.933073
 31
0.0
210
0.0
220
0.0
230
1.0
  0
TEXT
  8
19
  6
CONTINUOUS
 62
     1
  5
2EF
 10
957547.641
 20
7259062.659
 30
0.0
 40
19.999
  1
MARTIN LUTHER KING, JR. BLVD.
 50
87.991233
  7
ROMANC
 72
     4
 11
957547.711919
 21
7259349.968073
 31
0.0
210
0.0
220
0.0
230
1.0
  0
TEXT
  8
11
  6
CONTINUOUS
 62
     7
  5
2F0
 10
952941.272
 20
7257316.004
 30
0.0
 40
8.0
  1
15.97'
 50
358.1092
  7
ROMANS
 72
     4
 11
952962.725364
 21
7257319.297946
 31
0.0
210
0.0
220
0.0
230
1.0
  0
TEXT
  8
11
  6
CONTINUOUS
 62
     7
  5
2F1
 10
953346.905
 20
7260212.81
 30
0.0
 40
8.0
  1
R=360.06'
 50
358.1092
  7
ROMANS
 72
     4
 11
953380.35183
 21
7260215.70801
 31
0.0
210
0.0
220
0.0
230
1.0
  0
TEXT
  8
11
  6
CONTINUOUS
 62
     7
  5
2F2
 10
953358.25
 20
7260230.708
 30
0.0
 40
8.0
  1
60.24'
 50
358.1092
  7
ROMANS
 72
     4
 11
953379.703364
 21
7260234.001946
 31
0.0
210
0.0
220
0.0
230
1.0
  0
TEXT
  8
15
  6
CONTINUOUS
 62
    30
  5
2F3
 10
952916.181
 20
7262011.937
 30
0.0
 40
50.0
  1
BURLINGTON 
 50
28.1092
  7
ROMANC
 72
     4
 11
953165.180606
 21
7262173.284818
 31
0.0
210
0.0
220
0.0
230
1.0
  0
TEXT
  8
15
  6
CONTINUOUS
 62
    30
  5
2F4
 10
953197.613
 20
7262077.237
 30
0.0
 40
50.0
  1
 
 50
28.1092
  7
ROMANC
 72
     4
 11
953200.534428
 21
7262107.140525
 31
0.0
210
0.0
220
0.0
230
1.0
  0
TEXT
  8
15
  6
CONTINUOUS
 62
    30
  5
2F5
 10
952872.43
 20
7261818.509
 30
0.0
 40
50.0
  1
       INDUSTRIAL
 50
28.1092
  7
ROMANC
 72
     4
 11
953235.856348
 21
7262040.978622
 31
0.0
210
0.0
220
0.0
230
1.0
  0
TEXT
  8
15
  6
CONTINUOUS
 62
    30
  5
2F6
 10
953268.286
 20
7261944.929
 30
0.0
 40
50.0
  1
 
 50
28.1092
  7
ROMANC
 72
     4
 11
953271.207428
 21
7261974.832525
 31
0.0
210
0.0
220
0.0
230
1.0
  0
TEXT
  8
15
  6
CONTINUOUS
 62
    30
  5
2F7
 10
953303.622
 20
7261878.775
 30
0.0
 40
50.0
  1
 
 50
28.1092
  7
ROMANC
 72
     4
 11
953306.543428
 21
7261908.678525
 31
0.0
210
0.0
220
0.0
230
1.0
  0
TEXT
  8
15
  6
CONTINUOUS
 62
    30
  5
2F8
 10
953045.288
 20
7261655.755
 30
0.0
 40
50.0
  1
          NO. 3
 50
28.1092
  7
ROMANC
 72
     4
 11
953342.048916
 21
7261842.614839
 31
0.0
210
0.0
220
0.0
230
1.0
  0
TEXT
  8
15
  6
CONTINUOUS
 62
    30
  5
2F9
 10
952405.206
 20
7261715.127
 30
0.0
 40
20.0
  1
BURLINGTON 
 50
28.1092
  7
ROMANC
 72
     4
 11
952504.805843
 21
7261779.666127
 31
0.0
210
0.0
220
0.0
230
1.0
  0
TEXT
  8
15
  6
CONTINUOUS
 62
    30
  5
2FA
 10
952442.382
 20
7261683.969
 30
0.0
 40
20.0
  1
INDUSTRIAL
 50
28.1092
  7
ROMANC
 72
     4
 11
952526.008777
 21
7261739.976008
 31
0.0
210
0.0
220
0.0
230
1.0
  0
TEXT
  8
15
  6
CONTINUOUS
 62
    30
  5
2FB
 10
952546.048
 20
7261688.326
 30
0.0
 40
20.0
  1
 
 50
28.1092
  7
ROMANC
 72
     4
 11
952547.216218
 21
7261700.287222
 31
0.0
210
0.0
220
0.0
230
1.0
  0
TEXT
  8
15
  6
CONTINUOUS
 62
    30
  5
2FC
 10
953118.739
 20
7260814.886
 30
0.0
 40
35.0
  1
BURLINGTON
 50
28.1092
  7
ROMANC
 72
     4
 11
953275.2945
 21
7260918.351278
 31
0.0
210
0.0
220
0.0
230
1.0
  0
TEXT
  8
15
  6
CONTINUOUS
 62
    30
  5
2FD
 10
953270.658
 20
7260828.01
 30
0.0
 40
35.0
  1
   
 50
28.1092
  7
ROMANC
 72
     4
 11
953303.574616
 21
7260865.432747
 31
0.0
210
0.0
220
0.0
230
1.0
  0
TEXT
  8
15
  6
CONTINUOUS
 62
    30
  5
2FE
 10
953139.179
 20
7260689.757
 30
0.0
 40
35.0
  1
   INDUSTRIAL
 50
28.1092
  7
ROMANC
 72
     4
 11
953331.833328
 21
7260812.504706
 31
0.0
210
0.0
220
0.0
230
1.0
  0
TEXT
  8
15
  6
CONTINUOUS
 62
    30
  5
2FF
 10
953358.068
 20
7260738.655
 30
0.0
 40
35.0
  1
 
 50
28.1092
  7
ROMANC
 72
     4
 11
953360.112823
 21
7260759.587373
 31
0.0
210
0.0
220
0.0
230
1.0
  0
TEXT
  8
15
  6
CONTINUOUS
 62
    30
  5
300
 10
953242.513
 20
7260608.907
 30
0.0
 40
35.0
  1
      NO. 3
 50
28.1092
  7
ROMANC
 72
     4
 11
953388.501526
 21
7260706.727858
 31
0.0
210
0.0
220
0.0
230
1.0
  0
TEXT
  8
15
  6
CONTINUOUS
 62
    30
  5
301
 10
953326.382
 20
7260336.436
 30
0.0
 40
20.0
  1
  BURLINGTON
 50
28.1092
  7
ROMANC
 72
     4
 11
953433.483688
 21
7260404.982288
 31
0.0
210
0.0
220
0.0
230
1.0
  0
TEXT
  8
15
  6
CONTINUOUS
 62
    30
  5
302
 10
953435.881
 20
7260343.908
 30
0.0
 40
20.0
  1
   
 50
28.1092
  7
ROMANC
 72
     4
 11
953454.690243
 21
7260365.292292
 31
0.0
210
0.0
220
0.0
230
1.0
  0
TEXT
  8
15
  6
CONTINUOUS
 62
    30
  5
303
 10
953374.619
 20
7260260.168
 30
0.0
 40
20.0
  1
  INDUSTRIAL
 50
28.1092
  7
ROMANC
 72
     4
 11
953475.886801
 21
7260325.598079
 31
0.0
210
0.0
220
0.0
230
1.0
  0
TEXT
  8
15
  6
CONTINUOUS
 62
    30
  5
304
 10
953495.926
 20
7260273.948
 30
0.0
 40
20.0
  1
 
 50
28.1092
  7
ROMANC
 72
     4
 11
953497.094218
 21
7260285.909222
 31
0.0
210
0.0
220
0.0
230
1.0
  0
TEXT
  8
15
  6
CONTINUOUS
 62
    30
  5
305
 10
953452.583
 20
7260199.777
 30
0.0
 40
20.0
  1
    NO. 3
 50
28.1092
  7
ROMANC
 72
     4
 11
953518.364117
 21
7260246.25163
 31
0.0
210
0.0
220
0.0
230
1.0
  0
TEXT
  8
15
  6
CONTINUOUS
 62
    30
  5
306
 10
953768.916
 20
7260044.966
 30
0.0
 40
20.0
  1
BURLINGTON
 50
28.0579
  7
ROMANC
 72
     4
 11
953858.429564
 21
7260104.009095
 31
0.0
210
0.0
220
0.0
230
1.0
  0
TEXT
  8
15
  6
CONTINUOUS
 62
    30
  5
307
 10
953778.269
 20
7259998.958
 30
0.0
 40
20.0
  1
  INDUSTRIAL
 50
28.0579
  7
ROMANC
 72
     4
 11
953879.595344
 21
7260064.297382
 31
0.0
210
0.0
220
0.0
230
1.0
  0
TEXT
  8
15
  6
CONTINUOUS
 62
    30
  5
308
 10
953835.012
 20
7259978.209
 30
0.0
 40
20.0
  1
    NO. 3
 50
28.0579
  7
ROMANC
 72
     4
 11
953900.834701
 21
7260024.624714
 31
0.0
210
0.0
220
0.0
230
1.0
  0
TEXT
  8
15
  6
CONTINUOUS
 62
    30
  5
309
 10
952235.863
 20
7258707.53
 30
0.0
 40
50.0
  1
  SECOND INSTALLMENT
 50
28.1092
  7
ROMANC
 72
     4
 11
952692.345752
 21
7258979.706318
 31
0.0
210
0.0
220
0.0
230
1.0
  0
TEXT
  8
15
  6
CONTINUOUS
 62
    30
  5
30A
 10
952724.611
 20
7258883.569
 30
0.0
 40
50.0
  1
 
 50
28.1092
  7
ROMANC
 72
     4
 11
952727.532428
 21
7258913.472525
 31
0.0
210
0.0
220
0.0
230
1.0
  0
TEXT
  8
15
  6
CONTINUOUS
 62
    30
  5
30B
 10
952215.552
 20
7258526.623
 30
0.0
 40
50.0
  1
    CRAWFORD INDUSTRIAL 
 50
28.1092
  7
ROMANC
 72
     4
 11
952762.840161
 21
7258847.303631
 31
0.0
210
0.0
220
0.0
230
1.0
  0
TEXT
  8
15
  6
CONTINUOUS
 62
    30
  5
30C
 10
954532.187
 20
7258700.063
 30
0.0
 40
35.0
  1
CRAWFORD
 50
28.0579
  7
ROMANC
 72
     4
 11
954660.625952
 21
7258788.352421
 31
0.0
210
0.0
220
0.0
230
1.0
  0
TEXT
  8
15
  6
CONTINUOUS
 62
    30
  5
30D
 10
954686.793
 20
7258714.478
 30
0.0
 40
35.0
  1
 
 50
28.0579
  7
ROMANC
 72
     4
 11
954688.856564
 21
7258735.408534
 31
0.0
210
0.0
220
0.0
230
1.0
  0
TEXT
  8
15
  6
CONTINUOUS
 62
    30
  5
30E
 10
954715.015
 20
7258661.53
 30
0.0
 40
35.0
  1
 
 50
28.0579
  7
ROMANC
 72
     4
 11
954717.078564
 21
7258682.460534
 31
0.0
210
0.0
220
0.0
230
1.0
  0
TEXT
  8
15
  6
CONTINUOUS
 62
    30
  5
30F
 10
954567.969
 20
7258515.162
 30
0.0
 40
35.0
  1
  INDUSTRIAL
 50
28.0579
  7
ROMANC
 72
     4
 11
954745.289881
 21
7258629.505801
 31
0.0
210
0.0
220
0.0
230
1.0
  0
TEXT
  8
15
  6
CONTINUOUS
 62
    30
  5
310
 10
956920.822
 20
7262010.846
 30
0.0
 40
49.999
  1
JAMES
 50
28.070122
  7
ROMANC
 72
     4
 11
957021.777744
 21
7262093.016422
 31
0.0
210
0.0
220
0.0
230
1.0
  0
TEXT
  8
15
  6
CONTINUOUS
 62
    30
  5
311
 10
955391.859
 20
7257369.71
 30
0.0
 40
35.0
  1
CRAWFORD
 50
28.0579
  7
ROMANC
 72
     4
 11
955520.297952
 21
7257457.999421
 31
0.0
210
0.0
220
0.0
230
1.0
  0
TEXT
  8
15
  6
CONTINUOUS
 62
    30
  5
312
 10
955546.464
 20
7257384.126
 30
0.0
 40
35.0
  1
 
 50
28.0579
  7
ROMANC
 72
     4
 11
955548.527564
 21
7257405.056534
 31
0.0
210
0.0
220
0.0
230
1.0
  0
TEXT
  8
15
  6
CONTINUOUS
 62
    30
  5
313
 10
955574.687
 20
7257331.177
 30
0.0
 40
35.0
  1
 
 50
28.0579
  7
ROMANC
 72
     4
 11
955576.750564
 21
7257352.107534
 31
0.0
210
0.0
220
0.0
230
1.0
  0
TEXT
  8
15
  6
CONTINUOUS
 62
    30
  5
314
 10
955427.641
 20
7257184.811
 30
0.0
 40
35.0
  1
  INDUSTRIAL
 50
28.0579
  7
ROMANC
 72
     4
 11
955604.961881
 21
7257299.154801
 31
0.0
210
0.0
220
0.0
230
1.0
  0
TEXT
  8
19
  6
CONTINUOUS
 62
     1
  5
315
 10
953639.46
 20
7257891.181
 30
0.0
 40
24.0
  1
64TH ST
 50
358.0579
  7
ROMANC
 72
     4
 11
953728.441766
 21
7257900.170612
 31
0.0
210
0.0
220
0.0
230
1.0
  0
TEXT
  8
15
  6
CONTINUOUS
 62
    30
  5
316
 10
955239.025
 20
7262114.741
 30
0.0
 40
49.999
  1
JAMES
 50
28.070122
  7
ROMANC
 72
     4
 11
955339.980744
 21
7262196.911422
 31
0.0
210
0.0
220
0.0
230
1.0
  0
TEXT
  8
15
  6
CONTINUOUS
 62
    30
  5
317
 10
955911.795
 20
7261357.16
 30
0.0
 40
49.999
  1
JAMES
 50
28.070122
  7
ROMANC
 72
     4
 11
956012.750744
 21
7261439.330422
 31
0.0
210
0.0
220
0.0
230
1.0
  0
TEXT
  8
15
  6
CONTINUOUS
 62
    30
  5
318
 10
955875.773
 20
7260050.969
 30
0.0
 40
49.999
  1
JAMES
 50
28.070122
  7
ROMANC
 72
     4
 11
955976.728744
 21
7260133.139422
 31
0.0
210
0.0
220
0.0
230
1.0
  0
TEXT
  8
11
  6
CONTINUOUS
 62
     7
  5
319
 10
953662.563
 20
7262481.872
 30
0.0
 40
8.0
  1
60'
 50
88.1092
  7
ROMANS
 72
     4
 11
953658.873117
 21
7262491.331897
 31
0.0
210
0.0
220
0.0
230
1.0
  0
TEXT
  8
11
  6
CONTINUOUS
 62
     7
  5
31A
 10
954961.066
 20
7262441.392
 30
0.0
 40
8.0
  1
60'
 50
88.0579
  7
ROMANS
 72
     4
 11
954957.384589
 21
7262450.855197
 31
0.0
210
0.0
220
0.0
230
1.0
  0
TEXT
  8
11
  6
CONTINUOUS
 62
     7
  5
31B
 10
955798.881
 20
7262417.404
 30
0.0
 40
8.0
  1
40'
 50
88.070122
  7
ROMANS
 72
     4
 11
955795.197604
 21
7262426.867411
 31
0.0
210
0.0
220
0.0
230
1.0
  0
TEXT
  8
11
  6
CONTINUOUS
 62
     7
  5
31C
 10
957619.269
 20
7261717.627
 30
0.0
 40
8.0
  1
60'
 50
88.070122
  7
ROMANS
210
0.0
220
0.0
230
1.0
  0
TEXT
  8
15
  6
CONTINUOUS
 62
    30
  5
31D
 10
957493.464
 20
7260661.795
 30
0.0
 40
15.0
  1
MINNIE
 50
28.070122
 41
1.333267
  7
ROMANC
 72
     4
 11
957541.690412
 21
7260696.01301
 31
0.0
210
0.0
220
0.0
230
1.0
  0
TEXT
  8
11
  6
CONTINUOUS
 62
     7
  5
31E
 10
957464.679
 20
7257158.373
 30
0.0
 40
8.0
  1
30'
 50
357.991233
  7
ROMANS
 72
     4
 11
957474.146474
 21
7257162.043398
 31
0.0
210
0.0
220
0.0
230
1.0
  0
TEXT
  8
11
  6
CONTINUOUS
 62
     7
  5
31F
 10
957529.489
 20
7259028.501
 30
0.0
 40
8.0
  1
30'
 50
357.991233
  7
ROMANS
 72
     4
 11
957538.956474
 21
7259032.171398
 31
0.0
210
0.0
220
0.0
230
1.0
  0
TEXT
  8
11
  6
CONTINUOUS
 62
     7
  5
320
 10
957462.515
 20
7257116.583
 30
0.0
 40
8.0
  1
40'
 50
88.0579
  7
ROMANS
 72
     4
 11
957458.833589
 21
7257126.046197
 31
0.0
210
0.0
220
0.0
230
1.0
  0
TEXT
  8
11
  6
CONTINUOUS
 62
     7
  5
321
 10
956093.543
 20
7257164.334
 30
0.0
 40
8.0
  1
40'
 50
88.0579
  7
ROMANS
 72
     4
 11
956089.861589
 21
7257173.797197
 31
0.0
210
0.0
220
0.0
230
1.0
  0
TEXT
  8
11
  6
CONTINUOUS
 62
     7
  5
322
 10
954795.773
 20
7257207.014
 30
0.0
 40
8.0
  1
40'
 50
88.0579
  7
ROMANS
 72
     4
 11
954792.091589
 21
7257216.477197
 31
0.0
210
0.0
220
0.0
230
1.0
  0
TEXT
  8
11
  6
CONTINUOUS
 62
     7
  5
323
 10
953618.402
 20
7257254.99
 30
0.0
 40
8.0
  1
40'
 50
88.0579
  7
ROMANS
 72
     4
 11
953614.720589
 21
7257264.453197
 31
0.0
210
0.0
220
0.0
230
1.0
  0
TEXT
  8
11
  6
CONTINUOUS
 62
     7
  5
324
 10
954059.248
 20
7262392.567
 30
0.0
 40
8.0
  1
100'
 50
88.0579
  7
ROMANS
210
0.0
220
0.0
230
1.0
  0
TEXT
  8
11
  6
CONTINUOUS
 62
     7
  5
325
 10
957529.931
 20
7262180.686
 30
0.0
 40
8.0
  1
290'
 50
88.070122
  7
ROMANS
210
0.0
220
0.0
230
1.0
  0
TEXT
  8
11
  6
CONTINUOUS
 62
     7
  5
326
 10
957519.67
 20
7261904.911
 30
0.0
 40
8.0
  1
300'
 50
88.070122
  7
ROMANS
210
0.0
220
0.0
230
1.0
  0
TEXT
  8
11
  6
CONTINUOUS
 62
     7
  5
327
 10
956224.475
 20
7261069.897
 30
0.0
 40
8.0
  1
150'
 50
358.070122
  7
ROMANS
210
0.0
220
0.0
230
1.0
  0
TEXT
  8
11
  6
CONTINUOUS
 62
     7
  5
328
 10
952757.744
 20
7261868.143
 30
0.0
 40
8.0
  1
75.17'
 50
88.1092
  7
ROMANS
 72
     4
 11
952754.450054
 21
7261889.596364
 31
0.0
210
0.0
220
0.0
230
1.0
  0
TEXT
  8
11
  6
CONTINUOUS
 62
     7
  5
329
 10
953072.829
 20
7261446.444
 30
0.0
 40
8.0
  1
708.42'
 50
88.1092
  7
ROMANS
210
0.0
220
0.0
230
1.0
  0
TEXT
  8
11
  6
CONTINUOUS
 62
     7
  5
32A
 10
953652.347
 20
7261781.674
 30
0.0
 40
8.0
  1
1331.24'
 50
88.1092
  7
ROMANS
210
0.0
220
0.0
230
1.0
  0
TEXT
  8
11
  6
CONTINUOUS
 62
     7
  5
32B
 10
952347.279
 20
7260817.425
 30
0.0
 40
8.0
  1
1704.94'
 50
88.1092
  7
ROMANS
210
0.0
220
0.0
230
1.0
  0
TEXT
  8
11
  6
CONTINUOUS
 62
     7
  5
32C
 10
953366.042
 20
7260302.046
 30
0.0
 40
8.0
  1
281.17'
 50
88.1092
  7
ROMANS
210
0.0
220
0.0
230
1.0
  0
TEXT
  8
11
  6
CONTINUOUS
 62
     7
  5
32D
 10
953654.07
 20
7258908.872
 30
0.0
 40
8.0
  1
1945.5'
 50
88.0579
  7
ROMANS
210
0.0
220
0.0
230
1.0
  0
TEXT
  8
11
  6
CONTINUOUS
 62
     7
  5
32E
 10
953714.623
 20
7257938.783
 30
0.0
 40
8.0
  1
231'
 50
358.0579
  7
ROMANS
210
0.0
220
0.0
230
1.0
  0
TEXT
  8
11
  6
CONTINUOUS
 62
     7
  5
32F
 10
953830.174
 20
7257731.335
 30
0.0
 40
8.0
  1
304.5'
 50
88.0579
  7
ROMANS
210
0.0
220
0.0
230
1.0
  0
TEXT
  8
11
  6
CONTINUOUS
 62
     7
  5
330
 10
956779.195
 20
7257173.382
 30
0.0
 40
8.0
  1
1232.32'
 50
358.0579
  7
ROMANS
210
0.0
220
0.0
230
1.0
  0
TEXT
  8
11
  6
CONTINUOUS
 62
     7
  5
331
 10
957046.07
 20
7260670.762
 30
0.0
 40
8.0
  1
8
 50
51.098564
  7
ROMANS
 72
     1
 11
957047.535083
 21
7260672.577605
 31
0.0
210
0.0
220
0.0
230
1.0
  0
TEXT
  8
11
  6
CONTINUOUS
 62
     7
  5
332
 10
957050.526
 20
7260676.528
 30
0.0
 40
8.0
  1
7
 50
63.812986
  7
ROMANS
 72
     1
 11
957051.555559
 21
7260678.621537
 31
0.0
210
0.0
220
0.0
230
1.0
  0
TEXT
  8
11
  6
CONTINUOUS
 62
     7
  5
333
 10
957053.867
 20
7260683.359
 30
0.0
 40
8.0
  1
.
 50
70.170197
  7
ROMANS
 72
     1
 11
957054.315458
 21
7260684.602611
 31
0.0
210
0.0
220
0.0
230
1.0
  0
TEXT
  8
11
  6
CONTINUOUS
 62
     7
  5
334
 10
957056.202
 20
7260690.585
 30
0.0
 40
8.0
  1
4
 50
76.527408
  7
ROMANS
 72
     1
 11
957056.745776
 21
7260692.854772
 31
0.0
210
0.0
220
0.0
230
1.0
  0
TEXT
  8
11
  6
CONTINUOUS
 62
     7
  5
335
 10
957057.585
 20
7260697.728
 30
0.0
 40
8.0
  1
1
 50
89.241831
  7
ROMANS
 72
     1
 11
957057.602638
 21
7260699.060883
 31
0.0
210
0.0
220
0.0
230
1.0
  0
TEXT
  8
11
  6
CONTINUOUS
 62
     7
  5
336
 10
957057.588
 20
7260705.326
 30
0.0
 40
8.0
  1
'
 50
95.599042
  7
ROMANS
 72
     1
 11
957057.457944
 21
7260706.65264
 31
0.0
210
0.0
220
0.0
230
1.0
  0
LINE
  8
21
  6
DASHDOT
 62
     7
  5
338
 10
952746.88
 20
7261866.93
 30
0.0
 11
952952.868
 21
7261860.13
 31
0.0
  0
LINE
  8
21
  6
DASHDOT
 62
     7
  5
339
 10
952952.868
 20
7261860.13
 30
0.0
 11
952954.848
 21
7261920.097
 31
0.0
  0
TEXT
  8
22
  6
CONTINUOUS
 62
     3
  5
33B
 10
952936.712
 20
7262121.475
 30
0.0
 40
8.0
  1
60' DRAINAGE EASEMENT
 50
88.1092
  7
ROMANS
210
0.0
220
0.0
230
1.0
  0
TEXT
  8
22
  6
CONTINUOUS
 62
     3
  5
33C
 10
952764.074
 20
7261890.624
 30
0.0
 40
8.0
  1
60' DRAINAGE EASEMENT
 50
358.1092
  7
ROMANS
210
0.0
220
0.0
230
1.0
  0
TEXT
  8
22
  6
CONTINUOUS
 62
     3
  5
33D
 10
954172.458
 20
7257890.484
 30
0.0
 40
8.0
  1
10' SEWER LINE EASEMENT
 50
358.0579
  7
ROMANS
210
0.0
220
0.0
230
1.0
  0
TEXT
  8
22
  6
CONTINUOUS
 62
     3
  5
33E
 10
952767.967
 20
7258263.278
 30
0.0
 40
8.0
  1
RESERVE "A" 1.13 ACRES
 50
358.1092
  7
ROMANS
210
0.0
220
0.0
230
1.0
  0
POLYLINE
  8
21
  6
DASHDOT
 62
     7
  5
33F
 66
     1
 10
0.0
 20
0.0
 30
0.0
  0
VERTEX
  8
21
  6
DASHDOT
 62
     7
  5
340
 10
953569.156
 20
7259123.719
 30
0.0
  0
VERTEX
  8
21
  6
DASHDOT
 62
     7
  5
341
 10
953199.357
 20
7259135.927
 30
0.0
  0
VERTEX
  8
21
  6
DASHDOT
 62
     7
  5
342
 10
953200.017
 20
7259155.916
 30
0.0
  0
VERTEX
  8
21
  6
DASHDOT
 62
     7
  5
343
 10
953569.816
 20
7259143.708
 30
0.0
  0
SEQEND
  8
21
  6
DASHDOT
 62
     7
  5
344
  0
TEXT
  8
22
  6
CONTINUOUS
 62
     3
  5
345
 10
953210.145
 20
7259137.873
 30
0.0
 40
8.0
  1
20'
 50
88.1092
  7
ROMANS
210
0.0
220
0.0
230
1.0
  0
TEXT
  8
22
  6
CONTINUOUS
 62
     3
  5
346
 10
953261.572
 20
7259140.701
 30
0.0
 40
8.0
  1
20' ELECTRIC POWER LINE EASEMENT
 50
358.1092
  7
ROMANS
210
0.0
220
0.0
230
1.0
  0
TEXT
  8
22
  6
CONTINUOUS
 62
     3
  5
347
 10
953354.031
 20
7259154.536
 30
0.0
 40
8.0
  1
370'
 50
358.1092
  7
ROMANS
210
0.0
220
0.0
230
1.0
  0
TEXT
  8
22
  6
CONTINUOUS
 62
     3
  5
348
 10
953661.996
 20
7259566.926
 30
0.0
 40
8.0
  1
4093'
 50
88.0579
  7
ROMANS
210
0.0
220
0.0
230
1.0
  0
LINE
  8
21
  6
DASHDOT
 62
     7
  5
349
 10
952257.649
 20
7257600.977
 30
0.0
 11
952993.176
 21
7257308.494
 31
0.0
  0
TEXT
  8
22
  6
CONTINUOUS
 62
     3
  5
34A
 10
952529.006
 20
7257478.006
 30
0.0
 40
8.0
  1
35' RESERVATION
 50
338.314731
  7
ROMANS
 72
     1
 11
952586.340462
 21
7257463.81622
 31
0.0
210
0.0
220
0.0
230
1.0
 73
     3
  0
LINE
  8
21
  6
DASHDOT
 62
     7
  5
34B
 10
952368.996
 20
7261864.527
 30
0.0
 11
952361.599
 21
7261864.771
 31
0.0
  0
LINE
  8
21
  6
DASHDOT
 62
     7
  5
34C
 10
952364.294
 20
7261864.905
 30
0.0
 11
952213.098
 21
7257284.96
 31
0.0
  0
LINE
  8
21
  6
DASHDOT
 62
     7
  5
34D
 10
952213.098
 20
7257284.96
 30
0.0
 11
952223.092
 21
7257284.631
 31
0.0
  0
LINE
  8
21
  6
DASHDOT
 62
     7
  5
34E
 10
952223.092
 20
7257284.631
 30
0.0
 11
952374.289
 21
7261864.575
 31
0.0
  0
TEXT
  8
22
  6
CONTINUOUS
 62
     3
  5
34F
 10
952370.973
 20
7261504.22
 30
0.0
 40
8.0
  1
10' WLE & SLE
 50
88.1092
  7
ROMANS
 72
     4
 11
952368.64141
 21
7261554.824483
 31
0.0
210
0.0
220
0.0
230
1.0
  0
TEXT
  8
22
  6
CONTINUOUS
 62
     3
  5
350
 10
952224.48
 20
7257330.94
 30
0.0
 40
8.0
  1
10' WLE & SLE
 50
88.1092
  7
ROMANS
 72
     4
 11
952222.14841
 21
7257381.544483
 31
0.0
210
0.0
220
0.0
230
1.0
  0
LINE
  8
6
  6
CONTINUOUS
 62
     7
  5
351
 10
955074.481
 20
7261856.649
 30
0.0
 11
955084.079
 21
7262141.487
 31
0.0
  0
LINE
  8
6
  6
CONTINUOUS
 62
     7
  5
352
 10
955084.079
 20
7262141.487
 30
0.0
 11
955092.77
 21
7262399.404
 31
0.0
  0
LINE
  8
6
  6
CONTINUOUS
 62
     7
  5
353
 10
955088.968
 20
7261841.152
 30
0.0
 11
955308.843
 21
7261833.743
 31
0.0
  0
ARC
  8
6
  6
CONTINUOUS
 62
     7
  5
354
 10
955309.348695
 20
7261848.734775
 30
0.0
 40
15.0
 50
268.070122
 51
358.070122
210
0.0
220
0.0
230
1.0
  0
LINE
  8
6
  6
CONTINUOUS
 62
     7
  5
355
 10
955324.34
 20
7261848.23
 30
0.0
 11
955328.886
 21
7261983.153
 31
0.0
  0
LINE
  8
6
  6
CONTINUOUS
 62
     7
  5
356
 10
955332.254
 20
7262083.097
 30
0.0
 11
955328.886
 21
7261983.153
 31
0.0
  0
ARC
  8
6
  6
CONTINUOUS
 62
     7
  5
357
 10
955382.225769
 20
7262081.412518
 30
0.0
 40
50.0
 50
287.541342
 51
178.070122
210
0.0
220
0.0
230
1.0
  0
ARC
  8
6
  6
CONTINUOUS
 62
     7
  5
358
 10
955404.830311
 20
7262009.900038
 30
0.0
 40
25.0
 50
107.541342
 51
178.070122
210
0.0
220
0.0
230
1.0
  0
LINE
  8
7
  6
CONTINUOUS
 62
     7
  5
359
 10
955373.806
 20
7261831.554
 30
0.0
 11
955379.844
 21
7262010.742
 31
0.0
  0
LINE
  8
7
  6
CONTINUOUS
 62
     7
  5
35A
 10
955383.909
 20
7262131.384
 30
0.0
 11
955393.489
 21
7262415.687
 31
0.0
  0
LINE
  8
7
  6
CONTINUOUS
 62
     7
  5
35B
 10
955369.618
 20
7262131.867
 30
0.0
 11
955379.169
 21
7262415.312
 31
0.0
  0
POLYLINE
  8
7
  6
CONTINUOUS
 62
     7
  5
35C
 66
     1
 10
0.0
 20
0.0
 30
0.0
  0
VERTEX
  8
7
  6
CONTINUOUS
 62
     7
  5
35D
 10
955084.079
 20
7262141.487
 30
0.0
  0
VERTEX
  8
7
  6
CONTINUOUS
 62
     7
  5
35E
 10
955383.909
 20
7262131.384
 30
0.0
  0
VERTEX
  8
7
  6
CONTINUOUS
 62
     7
  5
35F
 10
955533.824
 20
7262126.333
 30
0.0
  0
SEQEND
  8
7
  6
CONTINUOUS
 62
     7
  5
360
  0
POLYLINE
  8
7
  6
CONTINUOUS
 62
     7
  5
361
 66
     1
 10
0.0
 20
0.0
 30
0.0
  0
VERTEX
  8
7
  6
CONTINUOUS
 62
     7
  5
362
 10
955328.886
 20
7261983.153
 30
0.0
  0
VERTEX
  8
7
  6
CONTINUOUS
 62
     7
  5
363
 10
955228.943
 20
7261986.521
 30
0.0
  0
VERTEX
  8
7
  6
CONTINUOUS
 62
     7
  5
364
 10
955233.995
 20
7262136.436
 30
0.0
  0
SEQEND
  8
7
  6
CONTINUOUS
 62
     7
  5
365
  0
LINE
  8
7
  6
CONTINUOUS
 62
     7
  5
366
 10
955332.254
 20
7262083.097
 30
0.0
 11
955333.938
 21
7262133.068
 31
0.0
  0
TEXT
  8
11
  6
CONTINUOUS
 62
     7
  5
367
 10
955143.634
 20
7262128.662
 30
0.0
 40
8.0
  1
150'
 50
358.070122
  7
ROMANS
 72
     4
 11
955157.095142
 21
7262132.210691
 31
0.0
210
0.0
220
0.0
230
1.0
  0
TEXT
  8
11
  6
CONTINUOUS
 62
     7
  5
368
 10
955187.741
 20
7261840.855
 30
0.0
 40
8.0
  1
220'
 50
358.070122
  7
ROMANS
 72
     4
 11
955201.202142
 21
7261844.403691
 31
0.0
210
0.0
220
0.0
230
1.0
  0
TEXT
  8
11
  6
CONTINUOUS
 62
     7
  5
369
 10
955263.144
 20
7261973.725
 30
0.0
 40
8.0
  1
100'
 50
358.070122
  7
ROMANS
 72
     4
 11
955276.605142
 21
7261977.273691
 31
0.0
210
0.0
220
0.0
230
1.0
  0
TEXT
  8
11
  6
CONTINUOUS
 62
     7
  5
36A
 10
955267.381
 20
7262123.677
 30
0.0
 40
8.0
  1
100'
 50
358.070122
  7
ROMANS
 72
     4
 11
955280.842142
 21
7262127.225691
 31
0.0
210
0.0
220
0.0
230
1.0
  0
TEXT
  8
11
  6
CONTINUOUS
 62
     7
  5
36B
 10
955339.782
 20
7261856.125
 30
0.0
 40
8.0
  1
50'
 50
358.070122
  7
ROMANS
 72
     4
 11
955349.245411
 21
7261859.808396
 31
0.0
210
0.0
220
0.0
230
1.0
  0
TEXT
  8
11
  6
CONTINUOUS
 62
     7
  5
36C
 10
955366.438
 20
7262084.446
 30
0.0
 40
8.0
  1
R=50'
 50
358.070122
  7
ROMANS
 72
     4
 11
955383.896873
 21
7262087.859985
 31
0.0
210
0.0
220
0.0
230
1.0
  0
TEXT
  8
11
  6
CONTINUOUS
 62
     7
  5
36D
 10
955207.616
 20
7262140.373
 30
0.0
 40
8.0
  1
250'
 50
358.070122
  7
ROMANS
 72
     4
 11
955221.077142
 21
7262143.921691
 31
0.0
210
0.0
220
0.0
230
1.0
  0
TEXT
  8
11
  6
CONTINUOUS
 62
     7
  5
36E
 10
955091.493
 20
7262005.011
 30
0.0
 40
8.0
  1
285'
 50
88.070122
  7
ROMANS
 72
     4
 11
955087.944309
 21
7262018.472142
 31
0.0
210
0.0
220
0.0
230
1.0
  0
TEXT
  8
11
  6
CONTINUOUS
 62
     7
  5
36F
 10
955243.142
 20
7262054.08
 30
0.0
 40
8.0
  1
150'
 50
88.070122
  7
ROMANS
 72
     4
 11
955239.593309
 21
7262067.541142
 31
0.0
210
0.0
220
0.0
230
1.0
  0
TEXT
  8
11
  6
CONTINUOUS
 62
     7
  5
370
 10
955326.01
 20
7262045.578
 30
0.0
 40
8.0
  1
150'
 50
88.070122
  7
ROMANS
 72
     4
 11
955322.461309
 21
7262059.039142
 31
0.0
210
0.0
220
0.0
230
1.0
  0
TEXT
  8
11
  6
CONTINUOUS
 62
     7
  5
371
 10
955322.185
 20
7261907.848
 30
0.0
 40
8.0
  1
135'
 50
88.070122
  7
ROMANS
 72
     4
 11
955318.636309
 21
7261921.309142
 31
0.0
210
0.0
220
0.0
230
1.0
  0
TEXT
  8
11
  6
CONTINUOUS
 62
     7
  5
372
 10
955344.681
 20
7262115.809
 30
0.0
 40
8.0
  1
50'
 50
88.070122
  7
ROMANS
 72
     4
 11
955340.997604
 21
7262125.272411
 31
0.0
210
0.0
220
0.0
230
1.0
  0
TEXT
  8
11
  6
CONTINUOUS
 62
     7
  5
373
 10
955369.291
 20
7262265.506
 30
0.0
 40
8.0
  1
283.57'
 50
88.070122
  7
ROMANS
 72
     4
 11
955366.146426
 21
7262290.960336
 31
0.0
210
0.0
220
0.0
230
1.0
  0
TEXT
  8
11
  6
CONTINUOUS
 62
     7
  5
374
 10
955387.258
 20
7261903.532
 30
0.0
 40
8.0
  1
179.29'
 50
88.070122
  7
ROMANS
 72
     4
 11
955384.113426
 21
7261928.986336
 31
0.0
210
0.0
220
0.0
230
1.0
  0
TEXT
  8
11
  6
CONTINUOUS
 62
     7
  5
375
 10
955448.651
 20
7262132.251
 30
0.0
 40
8.0
  1
150'
 50
358.070122
  7
ROMANS
 72
     4
 11
955462.112142
 21
7262135.799691
 31
0.0
210
0.0
220
0.0
230
1.0
  0
TEXT
  8
11
  6
CONTINUOUS
 62
     7
  5
376
 10
955100.02
 20
7262258.264
 30
0.0
 40
8.0
  1
257.97'
 50
88.070122
  7
ROMANS
 72
     4
 11
955096.875426
 21
7262283.718336
 31
0.0
210
0.0
220
0.0
230
1.0
  0
TEXT
  8
11
  6
CONTINUOUS
 62
     7
  5
377
 10
955216.3
 20
7262402.486
 30
0.0
 40
8.0
  1
271.50'
 50
0.184047
  7
ROMANS
 72
     1
 11
955241.608172
 21
7262410.567337
 31
0.0
210
0.0
220
0.0
230
1.0
 73
     3
  0
TEXT
  8
11
  6
CONTINUOUS
 62
     7
  5
378
 10
955378.785
 20
7262405.384
 30
0.0
 40
8.0
  1
14.31'
 50
313.070122
  7
ROMANS
 72
     4
 11
955396.275229
 21
7262392.531421
 31
0.0
210
0.0
220
0.0
230
1.0
  0
TEXT
  8
11
  6
CONTINUOUS
 62
     7
  5
379
 10
955376.371
 20
7262131.476
 30
0.0
 40
8.0
  1
14.30'
 50
43.070122
  7
ROMANS
 72
     4
 11
955389.223579
 21
7262148.966229
 31
0.0
210
0.0
220
0.0
230
1.0
  0
TEXT
  8
10
  6
CONTINUOUS
 62
   134
  5
37A
 10
955196.837
 20
7262265.807
 30
0.0
 40
13.999
  1
16-A
 50
358.070122
  7
ROMANS
 72
     4
 11
955222.722178
 21
7262271.93876
 31
0.0
210
0.0
220
0.0
230
1.0
  0
TEXT
  8
10
  6
CONTINUOUS
 62
   134
  5
37B
 10
955168.16
 20
7261940.48
 30
0.0
 40
13.999
  1
17-B
 50
358.070122
  7
ROMANS
 72
     4
 11
955193.791322
 21
7261946.620313
 31
0.0
210
0.0
220
0.0
230
1.0
  0
TEXT
  8
10
  6
CONTINUOUS
 62
   134
  5
37C
 10
955259.97
 20
7262049.958
 30
0.0
 40
13.999
  1
18'
 50
358.070122
  7
ROMANS
 72
     4
 11
955276.528471
 21
7262056.404027
 31
0.0
210
0.0
220
0.0
230
1.0
  0
TEXT
  8
19
  6
CONTINUOUS
 62
     1
  5
37D
 10
955358.226
 20
7261870.684
 30
0.0
 40
18.0
  1
JUNIPER AVE
 50
88.070122
  7
ROMANC
 72
     4
 11
955352.753382
 21
7261975.519762
 31
0.0
210
0.0
220
0.0
230
1.0
  0
TEXT
  8
11
  6
CONTINUOUS
 62
     7
  5
37E
 10
955419.128
 20
7262119.625
 30
0.0
 40
8.0
  1
9
 50
310.996328
  7
ROMANS
 72
     1
 11
955420.658473
 21
7262117.864164
 31
0.0
210
0.0
220
0.0
230
1.0
  0
TEXT
  8
11
  6
CONTINUOUS
 62
     7
  5
37F
 10
955424.5
 20
7262113.332
 30
0.0
 40
8.0
  1
8
 50
304.513186
  7
ROMANS
 72
     1
 11
955425.821868
 21
7262111.409618
 31
0.0
210
0.0
220
0.0
230
1.0
  0
TEXT
  8
11
  6
CONTINUOUS
 62
     7
  5
380
 10
955428.907
 20
7262106.339
 30
0.0
 40
8.0
  1
.
 50
298.030044
  7
ROMANS
 72
     1
 11
955429.528253
 21
7262105.172069
 31
0.0
210
0.0
220
0.0
230
1.0
  0
TEXT
  8
11
  6
CONTINUOUS
 62
     7
  5
381
 10
955432.433
 20
7262098.487
 30
0.0
 40
8.0
  1
5
 50
285.063761
  7
ROMANS
 72
     1
 11
955433.042191
 21
7262096.223546
 31
0.0
210
0.0
220
0.0
230
1.0
  0
TEXT
  8
11
  6
CONTINUOUS
 62
     7
  5
382
 10
955434.381
 20
7262090.454
 30
0.0
 40
8.0
  1
6
 50
278.580617
  7
ROMANS
 72
     1
 11
955434.756986
 21
7262087.962207
 31
0.0
210
0.0
220
0.0
230
1.0
  0
TEXT
  8
11
  6
CONTINUOUS
 62
     7
  5
383
 10
955435.152
 20
7262082.225
 30
0.0
 40
8.0
  1
'
 50
272.097475
  7
ROMANS
 72
     1
 11
955435.200824
 21
7262080.891894
 31
0.0
210
0.0
220
0.0
230
1.0
  0
TEXT
  8
11
  6
CONTINUOUS
 62
     7
  5
384
 10
955346.455
 20
7262097.132
 30
0.0
 40
8.0
  1
7
 50
61.209744
  7
ROMANS
 72
     1
 11
955340.567475
 21
7262103.029452
 31
0.0
210
0.0
220
0.0
230
1.0
 73
     3
  0
TEXT
  8
11
  6
CONTINUOUS
 62
     7
  5
385
 10
955349.777
 20
7262102.934
 30
0.0
 40
8.0
  1
0
 50
54.726603
  7
ROMANS
 72
     1
 11
955344.776649
 21
7262109.718121
 31
0.0
210
0.0
220
0.0
230
1.0
 73
     3
  0
TEXT
  8
11
  6
CONTINUOUS
 62
     7
  5
386
 10
955353.935
 20
7262108.163
 30
0.0
 40
8.0
  1
.
 50
48.243458
  7
ROMANS
 72
     1
 11
955348.847557
 21
7262114.476922
 31
0.0
210
0.0
220
0.0
230
1.0
 73
     3
  0
TEXT
  8
11
  6
CONTINUOUS
 62
     7
  5
387
 10
955357.904
 20
7262111.882
 30
0.0
 40
8.0
  1
7
 50
35.277175
  7
ROMANS
 72
     1
 11
955355.188326
 21
7262119.760325
 31
0.0
210
0.0
220
0.0
230
1.0
 73
     3
  0
TEXT
  8
11
  6
CONTINUOUS
 62
     7
  5
388
 10
955363.5
 20
7262115.531
 30
0.0
 40
8.0
  1
1
 50
28.794033
  7
ROMANS
 72
     1
 11
955360.815761
 21
7262123.184392
 31
0.0
210
0.0
220
0.0
230
1.0
 73
     3
  0
TEXT
  8
11
  6
CONTINUOUS
 62
     7
  5
389
 10
955368.388
 20
7262117.944
 30
0.0
 40
8.0
  1
'
 50
15.82775
  7
ROMANS
 72
     1
 11
955367.489453
 21
7262126.004532
 31
0.0
210
0.0
220
0.0
230
1.0
 73
     3
  0
TEXT
  8
11
  6
CONTINUOUS
 62
     7
  5
38A
 10
955394.879
 20
7262018.639
 30
0.0
 40
8.0
  1
R=25'
 50
358.070122
  7
ROMANS
 72
     4
 11
955412.337873
 21
7262022.052985
 31
0.0
210
0.0
220
0.0
230
1.0
  0
TEXT
  8
11
  6
CONTINUOUS
 62
     7
  5
38B
 10
955386.745
 20
7262006.677
 30
0.0
 40
8.0
  1
CH=28.87'
 50
358.070122
  7
ROMANS
 72
     4
 11
955420.194798
 21
7262009.552164
 31
0.0
210
0.0
220
0.0
230
1.0
  0
LINE
  8
21
  6
DASHDOT
 62
     7
  5
38C
 10
955083.744
 20
7262131.493
 30
0.0
 11
955233.658
 21
7262126.442
 31
0.0
  0
LINE
  8
21
  6
DASHDOT
 62
     7
  5
38D
 10
955333.602
 20
7262123.073
 30
0.0
 11
955353.591
 21
7262122.4
 31
0.0
  0
TEXT
  8
22
  6
CONTINUOUS
 62
     3
  5
38E
 10
955091.49
 20
7262118.401
 30
0.0
 40
8.0
  1
10' UTILITY ESM'T.
 50
358.070122
  7
ROMANS
 72
     4
 11
955160.907385
 21
7262120.064219
 31
0.0
210
0.0
220
0.0
230
1.0
  0
TEXT
  8
19
  6
CONTINUOUS
 62
     1
  5
38F
 10
952657.153
 20
7260030.316
 30
0.0
 40
24.0
  1
BIRCH  AVE
 50
88.1092
  7
ROMANC
 72
     4
 11
952649.480255
 21
7260161.592636
 31
0.0
210
0.0
220
0.0
230
1.0
  0
TEXT
  8
19
  6
CONTINUOUS
 62
     1
  5
390
 10
953665.589
 20
7259979.949
 30
0.0
 40
24.0
  1
ELM    AVE
 50
88.2564
  7
ROMANC
 72
     4
 11
953657.938478
 21
7260123.014021
 31
0.0
210
0.0
220
0.0
230
1.0
  0
TEXT
  8
19
  6
CONTINUOUS
 62
     1
  5
391
 10
957008.454
 20
7261211.799
 30
0.0
 40
24.0
  1
OAK AVE
 50
88.070122
  7
ROMANC
 72
     4
 11
956999.636285
 21
7261306.443632
 31
0.0
210
0.0
220
0.0
230
1.0
  0
TEXT
  8
19
  6
CONTINUOUS
 62
     1
  5
392
 10
956378.882
 20
7261899.267
 30
0.0
 40
24.0
  1
MAGNOLIA AVE
 50
88.070122
  7
ROMANC
 72
     4
 11
956372.218359
 21
7262057.839351
 31
0.0
210
0.0
220
0.0
230
1.0
  0
TEXT
  8
19
  6
CONTINUOUS
 62
     1
  5
393
 10
955692.068
 20
7261227.009
 30
0.0
 40
24.0
  1
KING AVE
 50
88.070122
  7
ROMANC
 72
     4
 11
955683.552563
 21
7261330.624541
 31
0.0
210
0.0
220
0.0
230
1.0
  0
TEXT
  8
19
  6
CONTINUOUS
 62
     1
  5
394
 10
952253.15
 20
7257637.62
 30
0.0
 40
20.0
  1
ASH AVE (AVE. A)
 50
88.1092
  7
ROMANC
 72
     4
 11
952248.319973
 21
7257794.390723
 31
0.0
210
0.0
220
0.0
230
1.0
  0
TEXT
  8
19
  6
CONTINUOUS
 62
     1
  5
395
 10
952309.937
 20
7259503.943
 30
0.0
 40
20.0
  1
ASH AVE (AVE. A)
 50
88.1092
  7
ROMANC
 72
     4
 11
952305.106973
 21
7259660.713723
 31
0.0
210
0.0
220
0.0
230
1.0
  0
TEXT
  8
19
  6
CONTINUOUS
 62
     1
  5
396
 10
952706.451
 20
7261366.354
 30
0.0
 40
24.0
  1
BIRCH  AVE
 50
88.1092
  7
ROMANC
 72
     4
 11
952698.778255
 21
7261497.630636
 31
0.0
210
0.0
220
0.0
230
1.0
  0
TEXT
  8
19
  6
CONTINUOUS
 62
     1
  5
397
 10
953704.76
 20
7261803.644
 30
0.0
 40
24.0
  1
ELM    AVE
 50
88.2564
  7
ROMANC
 72
     4
 11
953697.109478
 21
7261946.709021
 31
0.0
210
0.0
220
0.0
230
1.0
  0
TEXT
  8
19
  6
CONTINUOUS
 62
     1
  5
398
 10
955058.133
 20
7261924.922
 30
0.0
 40
24.0
  1
IVORY AVE
 50
88.070122
  7
ROMANC
 72
     4
 11
955050.034342
 21
7262040.906521
 31
0.0
210
0.0
220
0.0
230
1.0
  0
TEXT
  8
19
  6
CONTINUOUS
 62
     1
  5
399
 10
954986.072
 20
7259923.652
 30
0.0
 40
24.0
  1
IVORY AVE
 50
88.0579
  7
ROMANC
 72
     4
 11
954977.998084
 21
7260039.638246
 31
0.0
210
0.0
220
0.0
230
1.0
  0
TEXT
  8
19
  6
CONTINUOUS
 62
     1
  5
39A
 10
956330.51
 20
7260570.641
 30
0.0
 40
24.0
  1
MAGNOLIA AVE
 50
88.070122
  7
ROMANC
 72
     4
 11
956323.846359
 21
7260729.213351
 31
0.0
210
0.0
220
0.0
230
1.0
  0
TEXT
  8
19
  6
CONTINUOUS
 62
     1
  5
39B
 10
955649.259
 20
7259895.514
 30
0.0
 40
24.0
  1
KING AVE
 50
88.070122
  7
ROMANC
 72
     4
 11
955640.743563
 21
7259999.129541
 31
0.0
210
0.0
220
0.0
230
1.0
  0
LINE
  8
6
  6
CONTINUOUS
 62
     7
  5
39C
 10
953779.149
 20
7262457.45
 30
0.0
 11
955003.279
 21
7262416.616
 31
0.0
  0
TEXT
  8
11
  6
CONTINUOUS
 62
     7
  5
39D
 10
954081.457
 20
7262437.916
 30
0.0
 40
8.0
  1
46'
 50
358.0579
  7
ROMANS
210
0.0
220
0.0
230
1.0
  0
LINE
  8
6
  6
CONTINUOUS
 62
     7
  5
39E
 10
954562.297
 20
7262430.58
 30
0.0
 11
954544.254
 21
7261898.487
 31
0.0
  0
LINE
  8
6
  6
CONTINUOUS
 62
     7
  5
39F
 10
954544.254
 20
7261898.487
 30
0.0
 11
954094.508
 21
7261913.593
 31
0.0
  0
LINE
  8
6
  6
CONTINUOUS
 62
     7
  5
3A0
 10
954094.508
 20
7261913.593
 30
0.0
 11
954112.55
 21
7262445.687
 31
0.0
  0
LINE
  8
21
  6
DASHDOT
 62
     7
  5
3A1
 10
954542.308
 20
7262431.253
 30
0.0
 11
954524.265
 21
7261899.158
 31
0.0
  0
LINE
  8
21
  6
DASHDOT
 62
     7
  5
3A2
 10
954524.265
 20
7261899.158
 30
0.0
 11
954544.254
 21
7261898.487
 31
0.0
  0
LINE
  8
21
  6
DASHDOT
 62
     7
  5
3A3
 10
954544.254
 20
7261898.487
 30
0.0
 11
954562.297
 21
7262430.58
 31
0.0
  0
LINE
  8
21
  6
DASHDOT
 62
     7
  5
3A4
 10
954562.297
 20
7262430.58
 30
0.0
 11
954542.308
 21
7262431.253
 31
0.0
  0
TEXT
  8
22
  6
CONTINUOUS
 62
     3
  5
3A6
 10
954537.726
 20
7261945.847
 30
0.0
 40
6.0
  1
20'UUE
 50
88.0579
  7
txt
 72
     4
 11
954535.238439
 21
7261961.010012
 31
0.0
210
0.0
220
0.0
230
1.0
  0
TEXT
  8
11
  6
CONTINUOUS
 62
     7
  5
3A7
 10
954551.466
 20
7262159.406
 30
0.0
 40
8.0
  1
432.4'
 50
88.0579
  7
txt
 72
     4
 11
954548.147139
 21
7262179.561052
 31
0.0
210
0.0
220
0.0
230
1.0
  0
TEXT
  8
11
  6
CONTINUOUS
 62
     7
  5
3A8
 10
954115.796
 20
7262170.515
 30
0.0
 40
8.0
  1
432.4'
 50
88.0579
  7
txt
 72
     4
 11
954112.477139
 21
7262190.670052
 31
0.0
210
0.0
220
0.0
230
1.0
  0
TEXT
  8
11
  6
CONTINUOUS
 62
     7
  5
3A9
 10
954294.542
 20
7262428.805
 30
0.0
 40
8.0
  1
450'
 50
358.0579
  7
txt
 72
     4
 11
954308.464634
 21
7262432.335196
 31
0.0
210
0.0
220
0.0
230
1.0
  0
TEXT
  8
11
  6
CONTINUOUS
 62
     7
  5
3AA
 10
954298.937
 20
7261910.044
 30
0.0
 40
8.0
  1
450'
 50
358.0579
  7
txt
 72
     4
 11
954312.859634
 21
7261913.574196
 31
0.0
210
0.0
220
0.0
230
1.0
  0
TEXT
  8
10
  6
CONTINUOUS
 62
   134
  5
3AB
 10
954328.244
 20
7262189.177
 30
0.0
 40
13.999
  1
1
 50
358.0579
  7
txt
 72
     4
 11
954330.683961
 21
7262196.098287
 31
0.0
210
0.0
220
0.0
230
1.0
  0
TEXT
  8
11
  6
CONTINUOUS
 62
     7
  5
3AC
 10
954668.141
 20
7262415.047
 30
0.0
 40
8.0
  1
442.32'
 50
358.0579
  7
ROMANS
210
0.0
220
0.0
230
1.0
  0
TEXT
  8
15
  6
CONTINUOUS
 62
    30
  5
3AD
 10
952462.529
 20
7262154.887
 30
0.0
 40
40.0
  1
BURLINGTON 
 50
28.1092
  7
ROMANC
 72
     4
 11
952661.728685
 21
7262283.965255
 31
0.0
210
0.0
220
0.0
230
1.0
  0
TEXT
  8
15
  6
CONTINUOUS
 62
    30
  5
3AE
 10
952525.103
 20
7262114.62
 30
0.0
 40
40.0
  1
INDUSTRIAL
 50
28.1092
  7
ROMANC
 72
     4
 11
952692.356554
 21
7262226.634017
 31
0.0
210
0.0
220
0.0
230
1.0
  0
TEXT
  8
15
  6
CONTINUOUS
 62
    30
  5
3AF
 10
952520.446
 20
7262038.439
 30
0.0
 40
40.0
  1
  INDUSTRIAL
 50
28.1092
  7
ROMANC
 72
     4
 11
952722.981603
 21
7262169.299157
 31
0.0
210
0.0
220
0.0
230
1.0
  0
TEXT
  8
19
  6
CONTINUOUS
 62
     1
  5
3B0
 10
955808.48
 20
7261774.945
 30
0.0
 40
24.0
  1
E 52ND ST
 50
358.070122
  7
ROMANC
 72
     4
 11
955921.256341
 21
7261783.151759
 31
0.0
210
0.0
220
0.0
230
1.0
  0
TEXT
  8
19
  6
CONTINUOUS
 62
     1
  5
3B1
 10
955144.889
 20
7261140.143
 30
0.0
 40
24.0
  1
E 54TH ST
 50
358.070122
  7
ROMANC
 72
     4
 11
955259.931056
 21
7261148.273415
 31
0.0
210
0.0
220
0.0
230
1.0
  0
TEXT
  8
19
  6
CONTINUOUS
 62
     1
  5
3B2
 10
955773.314
 20
7260457.164
 30
0.0
 40
24.0
  1
E 56TH ST
 50
358.070122
  7
ROMANC
 72
     4
 11
955887.222699
 21
7260465.332604
 31
0.0
210
0.0
220
0.0
230
1.0
  0
TEXT
  8
19
  6
CONTINUOUS
 62
     1
  5
3B3
 10
955240.037
 20
7259828.434
 30
0.0
 40
24.0
  1
E 58TH ST
 50
358.070122
 41
0.833292
  7
ROMANC
 72
     4
 11
955335.023438
 21
7259837.240198
 31
0.0
210
0.0
220
0.0
230
1.0
  0
TEXT
  8
19
  6
CONTINUOUS
 62
     1
  5
3B4
 10
953045.246
 20
7257265.238
 30
0.0
 40
24.0
  1
E  66TH  ST
 50
358.1092
  7
ROMANC
 72
     4
 11
953187.478668
 21
7257272.549057
 31
0.0
210
0.0
220
0.0
230
1.0
  0
TEXT
  8
19
  6
CONTINUOUS
 62
     1
  5
3B5
 10
956972.434
 20
7257131.975
 30
0.0
 40
24.0
  1
E  66TH  ST
 50
358.0579
  7
ROMANC
 72
     4
 11
957114.673157
 21
7257139.158706
 31
0.0
210
0.0
220
0.0
230
1.0
  0
TEXT
  8
19
  6
CONTINUOUS
 62
     1
  5
3B6
 10
955043.222
 20
7257197.95
 30
0.0
 40
24.0
  1
E  66TH  ST
 50
358.0579
  7
ROMANC
 72
     4
 11
955185.461157
 21
7257205.133706
 31
0.0
210
0.0
220
0.0
230
1.0
  0
TEXT
  8
19
  6
CONTINUOUS
 62
     1
  5
3B7
 10
956517.153
 20
7261091.884
 30
0.0
 40
24.0
  1
E 54TH ST
 50
358.070122
  7
ROMANC
 72
     4
 11
956632.195056
 21
7261100.014415
 31
0.0
210
0.0
220
0.0
230
1.0
  0
TEXT
  8
19
  6
CONTINUOUS
 62
     1
  5
3B8
 10
957142.284
 20
7261728.247
 30
0.0
 40
24.0
  1
E 52ND ST
 50
358.070122
  7
ROMANC
 72
     4
 11
957255.060341
 21
7261736.453759
 31
0.0
210
0.0
220
0.0
230
1.0
  0
TEXT
  8
19
  6
CONTINUOUS
 62
     1
  5
3B9
 10
952990.909
 20
7259891.706
 30
0.0
 40
24.0
  1
E 58TH ST
 50
358.1092
 41
0.833292
  7
ROMANC
 72
     4
 11
953085.88941
 21
7259900.57698
 31
0.0
210
0.0
220
0.0
230
1.0
  0
TEXT
  8
19
  6
CONTINUOUS
 62
     1
  5
3BA
 10
956207.034
 20
7257229.142
 30
0.0
 40
24.0
  1
MAGNOLIA AVE
 50
88.0579
 41
0.833292
  7
ROMANC
 72
     4
 11
956199.510111
 21
7257361.348923
 31
0.0
210
0.0
220
0.0
230
1.0
  0
TEXT
  8
19
  6
CONTINUOUS
 62
     1
  5
3BB
 10
952398.649
 20
7261892.552
 30
0.0
 40
24.0
  1
E. 52ND ST
 50
358.1092
  7
ROMANC
 72
     4
 11
952510.474233
 21
7261900.866888
 31
0.0
210
0.0
220
0.0
230
1.0
  0
TEXT
  8
15
  6
CONTINUOUS
 62
    30
  5
3BC
 10
954098.503
 20
7262186.769
 30
0.0
 40
40.0
  1
BRADY
 50
88.0579
  7
ROMANC
 72
     4
 11
954082.228783
 21
7262296.983835
 31
0.0
210
0.0
220
0.0
230
1.0
  0
LINE
  8
21
  6
DASHDOT
 62
     7
  5
3BD
 10
953841.031
 20
7257731.73
 30
0.0
 11
953842.03
 21
7257731.696
 31
0.0
  0
LINE
  8
21
  6
DASHDOT
 62
     7
  5
3BE
 10
953753.446
 20
7261906.004
 30
0.0
 11
953754.446
 21
7261905.971
 31
0.0
  0
TEXT
  8
13
  6
CONTINUOUS
 62
    14
  5
3C0
 10
957448.741
 20
7260227.051
 30
0.0
 40
8.0
  1
V1079 P559
 50
358.070122
  7
txt
 72
     4
 11
957485.92368
 21
7260229.800382
 31
0.0
210
0.0
220
0.0
230
1.0
  0
POLYLINE
  8
21
  6
DASHDOT
 62
     7
  5
3C1
 66
     1
 10
0.0
 20
0.0
 30
0.0
 70
     1
  0
VERTEX
  8
21
  6
DASHDOT
 62
     7
  5
3C2
 10
957558.521
 20
7260221.068
 30
0.0
  0
VERTEX
  8
21
  6
DASHDOT
 62
     7
  5
3C3
 10
957421.598
 20
7260225.681
 30
0.0
  0
VERTEX
  8
21
  6
DASHDOT
 62
     7
  5
3C4
 10
957421.53
 20
7260223.682
 30
0.0
  0
VERTEX
  8
21
  6
DASHDOT
 62
     7
  5
3C5
 10
957558.453
 20
7260219.069
 30
0.0
  0
VERTEX
  8
21
  6
DASHDOT
 62
     7
  5
3C6
 10
957558.521
 20
7260221.068
 30
0.0
  0
SEQEND
  8
21
  6
DASHDOT
 62
     7
  5
3C7
  0
POLYLINE
  8
21
  6
DASHDOT
 62
     7
  5
3C8
 66
     1
 10
0.0
 20
0.0
 30
0.0
 70
     1
  0
VERTEX
  8
21
  6
DASHDOT
 62
     7
  5
3C9
 10
957573.363
 20
7260296.611
 30
0.0
  0
VERTEX
  8
21
  6
DASHDOT
 62
     7
  5
3CA
 10
957564.473
 20
7260032.761
 30
0.0
  0
VERTEX
  8
21
  6
DASHDOT
 62
     7
  5
3CB
 10
957549.481
 20
7260033.265
 30
0.0
  0
VERTEX
  8
21
  6
DASHDOT
 62
     7
  5
3CC
 10
957551.972
 20
7260107.223
 30
0.0
  0
VERTEX
  8
21
  6
DASHDOT
 62
     7
  5
3CD
 10
957562.889
 20
7260296.963
 30
0.0
  0
VERTEX
  8
21
  6
DASHDOT
 62
     7
  5
3CE
 10
957573.363
 20
7260296.611
 30
0.0
  0
SEQEND
  8
21
  6
DASHDOT
 62
     7
  5
3CF
  0
POLYLINE
  8
21
  6
DASHDOT
 62
     7
  5
3D0
 66
     1
 10
0.0
 20
0.0
 30
0.0
 70
     1
  0
VERTEX
  8
21
  6
DASHDOT
 62
     7
  5
3D1
 10
957559.421
 20
7259882.846
 30
0.0
  0
VERTEX
  8
21
  6
DASHDOT
 62
     7
  5
3D2
 10
957564.473
 20
7260032.761
 30
0.0
  0
VERTEX
  8
21
  6
DASHDOT
 62
     7
  5
3D3
 10
957549.481
 20
7260033.265
 30
0.0
  0
VERTEX
  8
21
  6
DASHDOT
 62
     7
  5
3D4
 10
957544.43
 20
7259883.351
 30
0.0
  0
VERTEX
  8
21
  6
DASHDOT
 62
     7
  5
3D5
 10
957559.421
 20
7259882.846
 30
0.0
  0
SEQEND
  8
21
  6
DASHDOT
 62
     7
  5
3D6
  0
TEXT
  8
22
  6
CONTINUOUS
 62
     3
  5
3D7
 10
957556.568
 20
7260221.91
 30
0.0
 40
6.0
  1
190.06'
 50
86.707342
  7
txt
 72
     1
 11
957557.506793
 21
7260238.228017
 31
0.0
210
0.0
220
0.0
230
1.0
  0
TEXT
  8
22
  6
CONTINUOUS
 62
     3
  5
3D8
 10
957553.76
 20
7260299.272
 30
0.0
 40
6.0
  1
10.48
 50
358.070122
  7
txt
 72
     1
 11
957565.327435
 21
7260298.88223
 31
0.0
210
0.0
220
0.0
230
1.0
  0
TEXT
  8
22
  6
CONTINUOUS
 62
     3
  5
3D9
 10
957576.076
 20
7260135.847
 30
0.0
 40
6.0
  1
264'
 50
88.070122
  7
txt
 72
     4
 11
957573.422143
 21
7260146.170228
 31
0.0
210
0.0
220
0.0
230
1.0
  0
TEXT
  8
22
  6
CONTINUOUS
 62
     3
  5
3DA
 10
957549.966
 20
7260092.733
 30
0.0
 40
6.0
  1
74'
 50
88.070122
  7
txt
 72
     4
 11
957547.216705
 21
7260100.223835
 31
0.0
210
0.0
220
0.0
230
1.0
  0
TEXT
  8
22
  6
CONTINUOUS
 62
     3
  5
3DB
 10
957552.254
 20
7260035.173
 30
0.0
 40
6.0
  1
15'
 50
358.070122
  7
txt
 72
     1
 11
957558.415503
 21
7260034.965385
 31
0.0
210
0.0
220
0.0
230
1.0
  0
TEXT
  8
22
  6
CONTINUOUS
 62
     3
  5
3DC
 10
957542.942
 20
7259947.452
 30
0.0
 40
6.0
  1
150'
 50
88.070122
  7
txt
 72
     4
 11
957540.251571
 21
7259956.689844
 31
0.0
210
0.0
220
0.0
230
1.0
  0
TEXT
  8
13
  6
CONTINUOUS
 62
    14
  5
3DD
 10
957565.772
 20
7260125.513
 30
0.0
 40
8.0
  1
V1072 P362
 50
88.070122
  7
txt
 72
     4
 11
957563.035381
 21
7260163.074465
 31
0.0
210
0.0
220
0.0
230
1.0
  0
TEXT
  8
13
  6
CONTINUOUS
 62
    14
  5
3DE
 10
957559.461
 20
7259954.015
 30
0.0
 40
8.0
  1
V1081 P353
 50
88.070122
  7
txt
 72
     4
 11
957556.634196
 21
7259988.899984
 31
0.0
210
0.0
220
0.0
230
1.0
  0
POLYLINE
  8
21
  6
DASHDOT
 62
     7
  5
3DF
 66
     1
 10
0.0
 20
0.0
 30
0.0
 70
     1
  0
VERTEX
  8
21
  6
DASHDOT
 62
     7
  5
3E0
 10
957594.449
 20
7260031.653
 30
0.0
  0
VERTEX
  8
21
  6
DASHDOT
 62
     7
  5
3E1
 10
957589.397
 20
7259881.739
 30
0.0
  0
VERTEX
  8
21
  6
DASHDOT
 62
     7
  5
3E2
 10
957567.251
 20
7259882.536
 30
0.0
  0
VERTEX
  8
21
  6
DASHDOT
 62
     7
  5
3E3
 10
957576.192
 20
7260032.309
 30
0.0
  0
VERTEX
  8
21
  6
DASHDOT
 62
     7
  5
3E4
 10
957594.449
 20
7260031.653
 30
0.0
  0
SEQEND
  8
21
  6
DASHDOT
 62
     7
  5
3E5
  0
TEXT
  8
22
  6
CONTINUOUS
 62
     3
  5
3E6
 10
957570.167
 20
7259874.632
 30
0.0
 40
6.0
  1
22.16'
 50
357.937275
  7
txt
 72
     1
 11
957583.908192
 21
7259880.140975
 31
0.0
210
0.0
220
0.0
230
1.0
 73
     3
  0
POLYLINE
  8
21
  6
DASHDOT
 62
     7
  5
3E7
 66
     1
 10
0.0
 20
0.0
 30
0.0
 70
     1
  0
VERTEX
  8
21
  6
DASHDOT
 62
     7
  5
3E8
 10
957567.251
 20
7259882.536
 30
0.0
  0
VERTEX
  8
21
  6
DASHDOT
 62
     7
  5
3E9
 10
957566.06
 20
7259862.572
 30
0.0
  0
VERTEX
  8
21
  6
DASHDOT
 62
     7
  5
3EA
 10
957316.692
 20
7259871.557
 30
0.0
  0
VERTEX
  8
21
  6
DASHDOT
 62
     7
  5
3EB
 10
957317.413
 20
7259891.544
 30
0.0
  0
VERTEX
  8
21
  6
DASHDOT
 62
     7
  5
3EC
 10
957567.251
 20
7259882.536
 30
0.0
  0
SEQEND
  8
21
  6
DASHDOT
 62
     7
  5
3ED
  0
TEXT
  8
22
  6
CONTINUOUS
 62
     3
  5
3EE
 10
957314.684
 20
7259877.741
 30
0.0
 40
6.0
  1
20'
 50
87.935978
  7
txt
 72
     1
 11
957308.947353
 21
7259885.156423
 31
0.0
210
0.0
220
0.0
230
1.0
 73
     3
  0
TEXT
  8
22
  6
CONTINUOUS
 62
     3
  5
3EF
 10
957415.228
 20
7259860.001
 30
0.0
 40
6.0
  1
249.53'
 50
357.936172
  7
txt
 72
     1
 11
957433.172569
 21
7259865.358241
 31
0.0
210
0.0
220
0.0
230
1.0
 73
     3
  0
TEXT
  8
13
  6
CONTINUOUS
 62
    14
  5
3F0
 10
957390.831
 20
7259875.661
 30
0.0
 40
8.0
  1
V3327 P332
 50
357.936172
  7
txt
 72
     1
 11
957429.922626
 21
7259874.252287
 31
0.0
210
0.0
220
0.0
230
1.0
  0
POLYLINE
  8
21
  6
DASHDOT
 62
     7
  5
3F1
 66
     1
 10
0.0
 20
0.0
 30
0.0
 70
     1
  0
VERTEX
  8
21
  6
DASHDOT
 62
     7
  5
3F2
 10
957603.346
 20
7260295.6
 30
0.0
  0
VERTEX
  8
21
  6
DASHDOT
 62
     7
  5
3F3
 10
957598.729
 20
7260158.559
 30
0.0
  0
VERTEX
  8
21
  6
DASHDOT
 62
     7
  5
3F4
 10
957583.757
 20
7260159.059
 30
0.0
  0
VERTEX
  8
21
  6
DASHDOT
 62
     7
  5
3F5
 10
957591.931
 20
7260295.985
 30
0.0
  0
VERTEX
  8
21
  6
DASHDOT
 62
     7
  5
3F6
 10
957603.346
 20
7260295.6
 30
0.0
  0
SEQEND
  8
21
  6
DASHDOT
 62
     7
  5
3F7
  0
TEXT
  8
13
  6
CONTINUOUS
 62
    14
  5
3F8
 10
957597.412
 20
7260189.741
 30
0.0
 40
8.0
  1
V2842 P129
 50
88.070122
  7
txt
 72
     4
 11
957594.681779
 21
7260227.492357
 31
0.0
210
0.0
220
0.0
230
1.0
  0
TEXT
  8
13
  6
CONTINUOUS
 62
    14
  5
3F9
 10
957608.978
 20
7260132.804
 30
0.0
 40
8.0
  1
V2855 P98
 50
88.069961
  7
txt
 72
     1
 11
957602.156796
 21
7260167.919654
 31
0.0
210
0.0
220
0.0
230
1.0
 73
     3
  0
POLYLINE
  8
21
  6
DASHDOT
 62
     7
  5
3FA
 66
     1
 10
0.0
 20
0.0
 30
0.0
  0
VERTEX
  8
21
  6
DASHDOT
 62
     7
  5
3FB
 10
957598.726
 20
7260158.561
 30
0.0
  0
VERTEX
  8
21
  6
DASHDOT
 62
     7
  5
3FC
 10
957583.757
 20
7260159.059
 30
0.0
  0
VERTEX
  8
21
  6
DASHDOT
 62
     7
  5
3FD
 10
957582.624
 20
7260140.083
 30
0.0
  0
VERTEX
  8
21
  6
DASHDOT
 62
     7
  5
3FE
 10
957582.624579
 20
7260140.082623
 30
0.0
 42
0.010703
  0
VERTEX
  8
21
  6
DASHDOT
 62
     7
  5
3FF
 10
957597.95077
 20
7260135.594109
 30
0.0
  0
VERTEX
  8
21
  6
DASHDOT
 62
     7
  5
400
 10
957597.951
 20
7260135.595
 30
0.0
  0
VERTEX
  8
21
  6
DASHDOT
 62
     7
  5
401
 10
957598.726
 20
7260158.561
 30
0.0
  0
SEQEND
  8
21
  6
DASHDOT
 62
     7
  5
402
  0
POLYLINE
  8
21
  6
DASHDOT
 62
     7
  5
403
 66
     1
 10
0.0
 20
0.0
 30
0.0
  0
VERTEX
  8
21
  6
DASHDOT
 62
     7
  5
404
 10
957582.625007
 20
7260140.083373
 30
0.0
 42
0.010703
  0
VERTEX
  8
21
  6
DASHDOT
 62
     7
  5
405
 10
957597.951198
 20
7260135.594859
 30
0.0
  0
VERTEX
  8
21
  6
DASHDOT
 62
     7
  5
406
 10
957597.952
 20
7260135.595
 30
0.0
  0
VERTEX
  8
21
  6
DASHDOT
 62
     7
  5
407
 10
957597.26
 20
7260115.096
 30
0.0
  0
VERTEX
  8
21
  6
DASHDOT
 62
     7
  5
408
 10
957597.260819
 20
7260115.096904
 30
0.0
 42
-0.010478
  0
VERTEX
  8
21
  6
DASHDOT
 62
     7
  5
409
 10
957581.398
 20
7260119.535262
 30
0.0
  0
VERTEX
  8
21
  6
DASHDOT
 62
     7
  5
40A
 10
957581.398
 20
7260119.535
 30
0.0
  0
VERTEX
  8
21
  6
DASHDOT
 62
     7
  5
40B
 10
957582.624
 20
7260140.083
 30
0.0
  0
SEQEND
  8
21
  6
DASHDOT
 62
     7
  5
40C
  0
TEXT
  8
13
  6
CONTINUOUS
 62
    14
  5
40D
 10
957585.922
 20
7260122.53
 30
0.0
 40
8.0
  1
V3019 P313
 50
344.566978
  7
txt
 72
     1
 11
957620.44077
 21
7260113.000539
 31
0.0
210
0.0
220
0.0
230
1.0
  0
POLYLINE
  8
21
  6
DASHDOT
 62
     7
  5
40E
 66
     1
 10
0.0
 20
0.0
 30
0.0
  0
VERTEX
  8
21
  6
DASHDOT
 62
     7
  5
40F
 10
957581.398
 20
7260119.535
 30
0.0
  0
VERTEX
  8
21
  6
DASHDOT
 62
     7
  5
410
 10
957576.192
 20
7260032.309
 30
0.0
  0
VERTEX
  8
21
  6
DASHDOT
 62
     7
  5
411
 10
957594.449
 20
7260031.653
 30
0.0
  0
VERTEX
  8
21
  6
DASHDOT
 62
     7
  5
412
 10
957594.448
 20
7260031.644
 30
0.0
  0
VERTEX
  8
21
  6
DASHDOT
 62
     7
  5
413
 10
957597.26
 20
7260115.096
 30
0.0
  0
VERTEX
  8
21
  6
DASHDOT
 62
     7
  5
414
 10
957597.260391
 20
7260115.096154
 30
0.0
 42
-0.010478
  0
VERTEX
  8
21
  6
DASHDOT
 62
     7
  5
415
 10
957581.397572
 20
7260119.534512
 30
0.0
  0
SEQEND
  8
21
  6
DASHDOT
 62
     7
  5
416
  0
TEXT
  8
13
  6
CONTINUOUS
 62
    14
  5
417
 10
957589.593
 20
7260039.126
 30
0.0
 40
8.0
  1
V2855 P98
 50
88.069961
  7
txt
 72
     1
 11
957582.771796
 21
7260074.241654
 31
0.0
210
0.0
220
0.0
230
1.0
 73
     3
  0
TEXT
  8
13
  6
CONTINUOUS
 62
    14
  5
418
 10
957587.778
 20
7259954.037
 30
0.0
 40
8.0
  1
V2853 P41
 50
88.069958
  7
txt
 72
     1
 11
957580.921771
 21
7259988.113244
 31
0.0
210
0.0
220
0.0
230
1.0
 73
     3
  0
TEXT
  8
22
  6
CONTINUOUS
 62
     3
  5
419
 10
957531.109
 20
7259418.921
 30
0.0
 40
6.0
  1
106.06'
 50
87.990811
  7
txt
 72
     1
 11
957525.685741
 21
7259435.46631
 31
0.0
210
0.0
220
0.0
230
1.0
 73
     3
  0
TEXT
  8
22
  6
CONTINUOUS
 62
     3
  5
41A
 10
957394.186
 20
7259510.231
 30
0.0
 40
6.0
  1
337.5'
 50
312.99125
  7
txt
 72
     1
 11
957408.642122
 21
7259503.523076
 31
0.0
210
0.0
220
0.0
230
1.0
 73
     3
  0
TEXT
  8
22
  6
CONTINUOUS
 62
     3
  5
41B
 10
957335.302
 20
7259638.316
 30
0.0
 40
6.0
  1
75'
 50
42.990833
  7
txt
 72
     1
 11
957340.606568
 21
7259643.261004
 31
0.0
210
0.0
220
0.0
230
1.0
  0
TEXT
  8
22
  6
CONTINUOUS
 62
     3
  5
41C
 10
957451.595
 20
7259587.58
 30
0.0
 40
6.0
  1
262.5'
 50
312.991222
  7
txt
 72
     1
 11
957461.549176
 21
7259576.902174
 31
0.0
210
0.0
220
0.0
230
1.0
  0
TEXT
  8
13
  6
CONTINUOUS
 62
    14
  5
41D
 10
957399.637
 20
7259579.744
 30
0.0
 40
8.0
  1
V3036 P192
 50
312.99125
  7
txt
 72
     1
 11
957424.892718
 21
7259552.652264
 31
0.0
210
0.0
220
0.0
230
1.0
  0
TEXT
  8
22
  6
CONTINUOUS
 62
     3
  5
41E
 10
957553.801
 20
7259649.722
 30
0.0
 40
6.0
  1
165.71'
 50
86.505044
  7
txt
 72
     1
 11
957554.745585
 21
7259665.188182
 31
0.0
210
0.0
220
0.0
230
1.0
  0
POLYLINE
  8
21
  6
DASHDOT
 62
     7
  5
41F
 66
     1
 10
0.0
 20
0.0
 30
0.0
 70
     1
  0
VERTEX
  8
21
  6
DASHDOT
 62
     7
  5
420
 10
956229.924
 20
7257150.766
 30
0.0
  0
VERTEX
  8
21
  6
DASHDOT
 62
     7
  5
421
 10
957486.046
 20
7257108.172
 30
0.0
  0
VERTEX
  8
21
  6
DASHDOT
 62
     7
  5
422
 10
957487.273
 20
7257145.652
 30
0.0
  0
VERTEX
  8
21
  6
DASHDOT
 62
     7
  5
423
 10
956231.195
 20
7257188.244
 30
0.0
  0
VERTEX
  8
21
  6
DASHDOT
 62
     7
  5
424
 10
956229.924
 20
7257150.766
 30
0.0
  0
SEQEND
  8
21
  6
DASHDOT
 62
     7
  5
425
  0
TEXT
  8
13
  6
CONTINUOUS
 62
    14
  5
426
 10
956816.285
 20
7257147.365
 30
0.0
 40
8.0
  1
V1670 P891
 50
358.0579
  7
txt
 72
     1
 11
956852.073431
 21
7257146.151449
 31
0.0
210
0.0
220
0.0
230
1.0
  0
TEXT
  8
22
  6
CONTINUOUS
 62
     3
  5
427
 10
956828.978
 20
7257134.598
 30
0.0
 40
6.0
  1
1256.8
 50
358.0579
  7
txt
 72
     1
 11
956843.283778
 21
7257134.112905
 31
0.0
210
0.0
220
0.0
230
1.0
  0
POLYLINE
  8
21
  6
DASHDOT
 62
     7
  5
428
 66
     1
 10
0.0
 20
0.0
 30
0.0
 70
     1
  0
VERTEX
  8
21
  6
DASHDOT
 62
     7
  5
429
 10
957632.213
 20
7261695.422
 30
0.0
  0
VERTEX
  8
21
  6
DASHDOT
 62
     7
  5
42A
 10
957650.493
 20
7261694.806
 30
0.0
  0
VERTEX
  8
21
  6
DASHDOT
 62
     7
  5
42B
 10
957640.389
 20
7261394.976
 30
0.0
  0
VERTEX
  8
21
  6
DASHDOT
 62
     7
  5
42C
 10
957626.049
 20
7261695.636
 30
0.0
  0
VERTEX
  8
21
  6
DASHDOT
 62
     7
  5
42D
 10
957632.213
 20
7261695.422
 30
0.0
  0
SEQEND
  8
21
  6
DASHDOT
 62
     7
  5
42E
  0
TEXT
  8
13
  6
CONTINUOUS
 62
    14
  5
42F
 10
957653.906
 20
7261473.616
 30
0.0
 40
8.0
  1
V1081 P331
 50
88.070122
  7
txt
 72
     4
 11
957651.031476
 21
7261507.084787
 31
0.0
210
0.0
220
0.0
230
1.0
  0
TEXT
  8
13
  6
CONTINUOUS
 62
    14
  5
430
 10
957661.42
 20
7261588.232
 30
0.0
 40
8.0
  1
V1688 P655
 50
88.070122
  7
txt
 72
     4
 11
957658.676982
 21
7261625.603572
 31
0.0
210
0.0
220
0.0
230
1.0
  0
POLYLINE
  8
21
  6
DASHDOT
 62
     7
  5
431
 66
     1
 10
0.0
 20
0.0
 30
0.0
  0
VERTEX
  8
21
  6
DASHDOT
 62
     7
  5
432
 10
956957.086519
 20
7260696.122201
 30
0.0
 42
0.414214
  0
VERTEX
  8
21
  6
DASHDOT
 62
     7
  5
433
 10
957014.972925
 20
7260650.766073
 30
0.0
  0
VERTEX
  8
21
  6
DASHDOT
 62
     7
  5
434
 10
957014.972
 20
7260650.766
 30
0.0
  0
VERTEX
  8
21
  6
DASHDOT
 62
     7
  5
435
 10
957018.504
 20
7260755.557
 30
0.0
  0
VERTEX
  8
21
  6
DASHDOT
 62
     7
  5
436
 10
956958.538
 20
7260757.577
 30
0.0
  0
VERTEX
  8
21
  6
DASHDOT
 62
     7
  5
437
 10
956956.737
 20
7260704.138
 30
0.0
  0
VERTEX
  8
21
  6
DASHDOT
 62
     7
  5
438
 10
956956.737178
 20
7260704.137512
 30
0.0
 42
0.038629
  0
VERTEX
  8
21
  6
DASHDOT
 62
     7
  5
439
 10
956957.086519
 20
7260696.122201
 30
0.0
  0
SEQEND
  8
21
  6
DASHDOT
 62
     7
  5
43A
  0
TEXT
  8
13
  6
CONTINUOUS
 62
    14
  5
43B
 10
956976.782
 20
7260682.658
 30
0.0
 40
8.0
  1
V1505 P27
 50
88.070122
  7
txt
 72
     4
 11
956973.91704
 21
7260716.410626
 31
0.0
210
0.0
220
0.0
230
1.0
  0
POLYLINE
  8
21
  6
DASHDOT
 62
     7
  5
43C
 66
     1
 10
0.0
 20
0.0
 30
0.0
  0
VERTEX
  8
21
  6
DASHDOT
 62
     7
  5
43D
 10
957018.504
 20
7260755.557
 30
0.0
  0
VERTEX
  8
21
  6
DASHDOT
 62
     7
  5
43E
 10
957031.785
 20
7260748.98
 30
0.0
  0
VERTEX
  8
21
  6
DASHDOT
 62
     7
  5
43F
 10
957031.784934
 20
7260748.979613
 30
0.0
 42
-0.74495
  0
VERTEX
  8
21
  6
DASHDOT
 62
     7
  5
440
 10
957014.973665
 20
7260650.75923
 30
0.0
  0
VERTEX
  8
21
  6
DASHDOT
 62
     7
  5
441
 10
957014.973
 20
7260650.759
 30
0.0
  0
VERTEX
  8
21
  6
DASHDOT
 62
     7
  5
442
 10
957018.504
 20
7260755.557
 30
0.0
  0
SEQEND
  8
21
  6
DASHDOT
 62
     7
  5
443
  0
TEXT
  8
13
  6
CONTINUOUS
 62
    14
  5
444
 10
957040.928
 20
7260675.762
 30
0.0
 40
8.0
  1
V1505 P29
 50
88.070122
  7
txt
 72
     4
 11
957038.055598
 21
7260709.293752
 31
0.0
210
0.0
220
0.0
230
1.0
  0
LINE
  8
6
  6
CONTINUOUS
 62
     7
  5
445
 10
957018.504
 20
7260755.557
 30
0.0
 11
957031.785
 21
7260748.98
 31
0.0
  0
ARC
  8
6
  6
CONTINUOUS
 62
     7
  5
446
 10
957008.708073
 20
7260702.380702
 30
0.0
 40
52.0
 50
178.070122
 51
63.654322
210
0.0
220
0.0
230
1.0
  0
LINE
  8
6
  6
CONTINUOUS
 62
     7
  5
447
 10
957483.24
 20
7260739.897
 30
0.0
 11
957482.903
 21
7260729.903
 31
0.0
  0
LINE
  8
6
  6
CONTINUOUS
 62
     7
  5
448
 10
957482.903
 20
7260729.903
 30
0.0
 11
957602.835
 21
7260725.861
 31
0.0
  0
LINE
  8
6
  6
CONTINUOUS
 62
     7
  5
449
 10
957602.835
 20
7260725.861
 30
0.0
 11
957600.478
 21
7260655.901
 31
0.0
  0
LINE
  8
6
  6
CONTINUOUS
 62
     7
  5
44A
 10
957595.764
 20
7260515.981
 30
0.0
 11
957588.355
 21
7260296.106
 31
0.0
  0
POLYLINE
  8
21
  6
DASHDOT
 62
     7
  5
44B
 66
     1
 10
0.0
 20
0.0
 30
0.0
 70
     1
  0
VERTEX
  8
21
  6
DASHDOT
 62
     7
  5
44C
 10
957613.382
 20
7260655.294
 30
0.0
  0
VERTEX
  8
21
  6
DASHDOT
 62
     7
  5
44D
 10
957605.048
 20
7260515.663
 30
0.0
  0
VERTEX
  8
21
  6
DASHDOT
 62
     7
  5
44E
 10
957610.755
 20
7260515.476
 30
0.0
  0
VERTEX
  8
21
  6
DASHDOT
 62
     7
  5
44F
 10
957615.463
 20
7260655.226
 30
0.0
  0
VERTEX
  8
21
  6
DASHDOT
 62
     7
  5
450
 10
957613.382
 20
7260655.294
 30
0.0
  0
SEQEND
  8
21
  6
DASHDOT
 62
     7
  5
451
  0
TEXT
  8
13
  6
CONTINUOUS
 62
    14
  5
452
 10
957621.879
 20
7260548.641
 30
0.0
 40
8.0
  1
V2861 P137
 50
88.070306
  7
txt
 72
     1
 11
957615.05011
 21
7260583.534739
 31
0.0
210
0.0
220
0.0
230
1.0
 73
     3
  0
LINE
  8
6
  6
CONTINUOUS
 62
     7
  5
453
 10
957613.382
 20
7260655.294
 30
0.0
 11
957605.048
 21
7260515.663
 31
0.0
  0
TEXT
  8
13
  6
CONTINUOUS
 62
    14
  5
454
 10
956554.196
 20
7260938.798
 30
0.0
 40
8.0
  1
V1190 P505
 50
358.070122
  7
txt
 72
     4
 11
956590.245323
 21
7260941.585571
 31
0.0
210
0.0
220
0.0
230
1.0
  0
POLYLINE
  8
21
  6
DASHDOT
 62
     7
  5
455
 66
     1
 10
0.0
 20
0.0
 30
0.0
  0
VERTEX
  8
21
  6
DASHDOT
 62
     7
  5
456
 10
957640.51
 20
7261770.679
 30
0.0
  0
VERTEX
  8
21
  6
DASHDOT
 62
     7
  5
457
 10
957640.596
 20
7262030.329
 30
0.0
  0
VERTEX
  8
21
  6
DASHDOT
 62
     7
  5
458
 10
957661.775
 20
7262029.616
 30
0.0
  0
VERTEX
  8
21
  6
DASHDOT
 62
     7
  5
459
 10
957653.009
 20
7261754.758
 30
0.0
  0
VERTEX
  8
21
  6
DASHDOT
 62
     7
  5
45A
 10
957625.505
 20
7261755.684
 30
0.0
  0
VERTEX
  8
21
  6
DASHDOT
 62
     7
  5
45B
 10
957625.50484
 20
7261755.684304
 30
0.0
 42
0.414214
  0
VERTEX
  8
21
  6
DASHDOT
 62
     7
  5
45C
 10
957640.510333
 20
7261770.679479
 30
0.0
  0
SEQEND
  8
21
  6
DASHDOT
 62
     7
  5
45D
  0
POLYLINE
  8
21
  6
DASHDOT
 62
     7
  5
45E
 66
     1
 10
0.0
 20
0.0
 30
0.0
 70
     1
  0
VERTEX
  8
21
  6
DASHDOT
 62
     7
  5
45F
 10
957652.513
 20
7261754.772
 30
0.0
  0
VERTEX
  8
21
  6
DASHDOT
 62
     7
  5
460
 10
957630.575
 20
7261755.511
 30
0.0
  0
VERTEX
  8
21
  6
DASHDOT
 62
     7
  5
461
 10
957626.975
 20
7261887.708
 30
0.0
  0
VERTEX
  8
21
  6
DASHDOT
 62
     7
  5
462
 10
957631.791
 20
7262030.627
 30
0.0
  0
VERTEX
  8
21
  6
DASHDOT
 62
     7
  5
463
 10
957661.775
 20
7262029.616
 30
0.0
  0
VERTEX
  8
21
  6
DASHDOT
 62
     7
  5
464
 10
957652.513
 20
7261754.772
 30
0.0
  0
SEQEND
  8
21
  6
DASHDOT
 62
     7
  5
465
  0
LINE
  8
6
  6
CONTINUOUS
 62
     7
  5
466
 10
957052.853
 20
7261774.978
 30
0.0
 11
957625.005
 21
7261755.699
 31
0.0
  0
LINE
  8
6
  6
CONTINUOUS
 62
     7
  5
467
 10
957640.684
 20
7262295.694
 30
0.0
 11
957640.51
 21
7261770.685
 31
0.0
  0
ARC
  8
6
  6
CONTINUOUS
 62
     7
  5
468
 10
957625.510336
 20
7261770.690631
 30
0.0
 40
15.0
 50
268.070122
 51
359.980994
210
0.0
220
0.0
230
1.0
  0
LINE
  8
6
  6
CONTINUOUS
 62
     7
  5
469
 10
957012.757
 20
7262366.663
 30
0.0
 11
956413.097
 21
7262386.869
 31
0.0
  0
LINE
  8
6
  6
CONTINUOUS
 62
     7
  5
46A
 10
956413.097
 20
7262386.869
 30
0.0
 11
956393.227
 21
7261797.204
 31
0.0
  0
LINE
  8
6
  6
CONTINUOUS
 62
     7
  5
46B
 10
956393.227
 20
7261797.204
 30
0.0
 11
956992.887
 21
7261776.999
 31
0.0
  0
LINE
  8
6
  6
CONTINUOUS
 62
     7
  5
46C
 10
956992.887
 20
7261776.999
 30
0.0
 11
957012.757
 21
7262366.663
 31
0.0
  0
LINE
  8
6
  6
CONTINUOUS
 62
     7
  5
46D
 10
957052.853
 20
7261774.978
 30
0.0
 11
957072.723
 21
7262364.644
 31
0.0
  0
LINE
  8
6
  6
CONTINUOUS
 62
     7
  5
46E
 10
957640.389
 20
7261394.976
 30
0.0
 11
957640.485
 21
7261680.636
 31
0.0
  0
ARC
  8
6
  6
CONTINUOUS
 62
     7
  5
46F
 10
957625.484992
 20
7261680.640407
 30
0.0
 40
15.0
 50
359.980939
 51
88.070122
210
0.0
220
0.0
230
1.0
  0
POLYLINE
  8
21
  6
DASHDOT
 62
     7
  5
470
 66
     1
 10
0.0
 20
0.0
 30
0.0
  0
VERTEX
  8
21
  6
DASHDOT
 62
     7
  5
471
 10
957625.98677
 20
7261695.632012
 30
0.0
 42
-0.404528
  0
VERTEX
  8
21
  6
DASHDOT
 62
     7
  5
472
 10
957640.484992
 20
7261680.636259
 30
0.0
  0
VERTEX
  8
21
  6
DASHDOT
 62
     7
  5
473
 10
957640.485
 20
7261680.637
 30
0.0
  0
VERTEX
  8
21
  6
DASHDOT
 62
     7
  5
474
 10
957640.389
 20
7261394.976
 30
0.0
  0
VERTEX
  8
21
  6
DASHDOT
 62
     7
  5
475
 10
957650.493
 20
7261694.806
 30
0.0
  0
VERTEX
  8
21
  6
DASHDOT
 62
     7
  5
476
 10
957625.987
 20
7261695.632
 30
0.0
  0
SEQEND
  8
21
  6
DASHDOT
 62
     7
  5
477
  0
POLYLINE
  8
21
  6
DASHDOT
 62
     7
  5
478
 66
     1
 10
0.0
 20
0.0
 30
0.0
  0
VERTEX
  8
21
  6
DASHDOT
 62
     7
  5
479
 10
957662.616
 20
7262054.602
 30
0.0
  0
VERTEX
  8
21
  6
DASHDOT
 62
     7
  5
47A
 10
957632.633
 20
7262055.613
 30
0.0
  0
VERTEX
  8
21
  6
DASHDOT
 62
     7
  5
47B
 10
957632.129
 20
7262040.622
 30
0.0
  0
VERTEX
  8
21
  6
DASHDOT
 62
     7
  5
47C
 10
957572.163
 20
7262042.641
 30
0.0
  0
VERTEX
  8
21
  6
DASHDOT
 62
     7
  5
47D
 10
957571.826
 20
7262032.648
 30
0.0
  0
VERTEX
  8
21
  6
DASHDOT
 62
     7
  5
47E
 10
957661.775
 20
7262029.616
 30
0.0
  0
VERTEX
  8
21
  6
DASHDOT
 62
     7
  5
47F
 10
957662.616
 20
7262054.602
 30
0.0
  0
SEQEND
  8
21
  6
DASHDOT
 62
     7
  5
480
  0
TEXT
  8
22
  6
CONTINUOUS
 62
     3
  5
481
 10
957594.46
 20
7262043.891
 30
0.0
 40
6.0
  1
60'
 50
358.070122
  7
txt
 72
     1
 11
957601.517994
 21
7262043.653178
 31
0.0
210
0.0
220
0.0
230
1.0
  0
TEXT
  8
22
  6
CONTINUOUS
 62
     3
  5
482
 10
957570.203
 20
7262032.898
 30
0.0
 40
6.0
  1
10'
 50
88.070122
  7
txt
 72
     4
 11
957567.411542
 21
7262039.137545
 31
0.0
210
0.0
220
0.0
230
1.0
  0
TEXT
  8
22
  6
CONTINUOUS
 62
     3
  5
483
 10
957605.855
 20
7262023.496
 30
0.0
 40
6.0
  1
90'
 50
358.070122
  7
txt
 72
     1
 11
957613.115052
 21
7262029.254774
 31
0.0
210
0.0
220
0.0
230
1.0
 73
     3
  0
TEXT
  8
13
  6
CONTINUOUS
 62
    14
  5
484
 10
957586.795
 20
7262033.472
 30
0.0
 40
8.0
  1
V1084 P113
 50
358.070122
  7
txt
 72
     4
 11
957622.057769
 21
7262036.286075
 31
0.0
210
0.0
220
0.0
230
1.0
  0
POLYLINE
  8
21
  6
DASHDOT
 62
     7
  5
485
 66
     1
 10
0.0
 20
0.0
 30
0.0
 70
     1
  0
VERTEX
  8
21
  6
DASHDOT
 62
     7
  5
486
 10
957641.652
 20
7262323.29
 30
0.0
  0
VERTEX
  8
21
  6
DASHDOT
 62
     7
  5
487
 10
957632.633
 20
7262055.613
 30
0.0
  0
VERTEX
  8
21
  6
DASHDOT
 62
     7
  5
488
 10
957662.616
 20
7262054.602
 30
0.0
  0
VERTEX
  8
21
  6
DASHDOT
 62
     7
  5
489
 10
957671.588
 20
7262320.861
 30
0.0
  0
VERTEX
  8
21
  6
DASHDOT
 62
     7
  5
48A
 10
957641.652
 20
7262323.29
 30
0.0
  0
SEQEND
  8
21
  6
DASHDOT
 62
     7
  5
48B
  0
POLYLINE
  8
21
  6
DASHDOT
 62
     7
  5
48C
 66
     1
 10
0.0
 20
0.0
 30
0.0
 70
     1
  0
VERTEX
  8
21
  6
DASHDOT
 62
     7
  5
48D
 10
957373.285
 20
7262364.521
 30
0.0
  0
VERTEX
  8
21
  6
DASHDOT
 62
     7
  5
48E
 10
957672.719
 20
7262354.432
 30
0.0
  0
VERTEX
  8
21
  6
DASHDOT
 62
     7
  5
48F
 10
957672.383
 20
7262344.438
 30
0.0
  0
VERTEX
  8
21
  6
DASHDOT
 62
     7
  5
490
 10
957372.553
 20
7262354.541
 30
0.0
  0
VERTEX
  8
21
  6
DASHDOT
 62
     7
  5
491
 10
957372.889
 20
7262364.535
 30
0.0
  0
VERTEX
  8
21
  6
DASHDOT
 62
     7
  5
492
 10
957373.285
 20
7262364.521
 30
0.0
  0
SEQEND
  8
21
  6
DASHDOT
 62
     7
  5
493
  0
POLYLINE
  8
21
  6
DASHDOT
 62
     7
  5
494
 66
     1
 10
0.0
 20
0.0
 30
0.0
 70
     1
  0
VERTEX
  8
21
  6
DASHDOT
 62
     7
  5
495
 10
957372.237
 20
7262345.146
 30
0.0
  0
VERTEX
  8
21
  6
DASHDOT
 62
     7
  5
496
 10
957671.588
 20
7262320.861
 30
0.0
  0
VERTEX
  8
21
  6
DASHDOT
 62
     7
  5
497
 10
957672.383
 20
7262344.438
 30
0.0
  0
VERTEX
  8
21
  6
DASHDOT
 62
     7
  5
498
 10
957372.553
 20
7262354.541
 30
0.0
  0
VERTEX
  8
21
  6
DASHDOT
 62
     7
  5
499
 10
957372.237
 20
7262345.146
 30
0.0
  0
SEQEND
  8
21
  6
DASHDOT
 62
     7
  5
49A
  0
TEXT
  8
13
  6
CONTINUOUS
 62
    14
  5
49B
 10
957430.039
 20
7262353.41
 30
0.0
 40
8.0
  1
V477 P705
 50
358.070122
  7
txt
 72
     1
 11
957465.355957
 21
7262352.219979
 31
0.0
210
0.0
220
0.0
230
1.0
  0
TEXT
  8
13
  6
CONTINUOUS
 62
    14
  5
49C
 10
957543.218
 20
7262337.778
 30
0.0
 40
8.0
  1
V956 P362
 50
355.36205
  7
txt
 72
     1
 11
957577.402696
 21
7262335.004775
 31
0.0
210
0.0
220
0.0
230
1.0
  0
TEXT
  8
13
  6
CONTINUOUS
 62
    14
  5
49D
 10
957655.133
 20
7262146.888
 30
0.0
 40
8.0
  1
V1688 P661
 50
88.070122
  7
txt
 72
     4
 11
957652.335898
 21
7262182.654483
 31
0.0
210
0.0
220
0.0
230
1.0
  0
TEXT
  8
13
  6
CONTINUOUS
 62
    14
  5
49E
 10
957629.647
 20
7262058.715
 30
0.0
 40
8.0
  1
V1085 P128
 50
88.070122
  7
txt
 72
     4
 11
957626.867949
 21
7262095.017179
 31
0.0
210
0.0
220
0.0
230
1.0
  0
LINE
  8
6
  6
CONTINUOUS
 62
     7
  5
49F
 10
957372.237
 20
7262345.146
 30
0.0
 11
957613.109
 21
7262325.604
 31
0.0
  0
ARC
  8
6
  6
CONTINUOUS
 62
     7
  5
4A0
 10
957610.684278
 20
7262295.703211
 30
0.0
 40
30.0
 50
359.981039
 51
85.36205
210
0.0
220
0.0
230
1.0
  0
LINE
  8
6
  6
CONTINUOUS
 62
     7
  5
4A1
 10
957072.723
 20
7262364.644
 30
0.0
 11
957372.553
 21
7262354.541
 31
0.0
  0
POLYLINE
  8
21
  6
DASHDOT
 62
     7
  5
4A2
 66
     1
 10
0.0
 20
0.0
 30
0.0
  0
VERTEX
  8
21
  6
DASHDOT
 62
     7
  5
4A3
 10
957661.264
 20
7262029.16
 30
0.0
  0
VERTEX
  8
21
  6
DASHDOT
 62
     7
  5
4A4
 10
957640.086
 20
7262029.872
 30
0.0
  0
VERTEX
  8
21
  6
DASHDOT
 62
     7
  5
4A5
 10
957640.173
 20
7262294.232
 30
0.0
  0
SEQEND
  8
21
  6
DASHDOT
 62
     7
  5
4A6
  0
ARC
  8
21
  6
DASHDOT
 62
     7
  5
4A7
 10
957610.211729
 20
7262295.746645
 30
0.0
 40
30.0
 50
357.107517
 51
84.399461
210
0.0
220
0.0
230
1.0
  0
POLYLINE
  8
21
  6
DASHDOT
 62
     7
  5
4A8
 66
     1
 10
0.0
 20
0.0
 30
0.0
  0
VERTEX
  8
21
  6
DASHDOT
 62
     7
  5
4A9
 10
957613.139
 20
7262325.603
 30
0.0
  0
VERTEX
  8
21
  6
DASHDOT
 62
     7
  5
4AA
 10
957671.588
 20
7262320.861
 30
0.0
  0
VERTEX
  8
21
  6
DASHDOT
 62
     7
  5
4AB
 10
957661.264
 20
7262029.16
 30
0.0
  0
SEQEND
  8
21
  6
DASHDOT
 62
     7
  5
4AC
  0
LINE
  8
6
  6
CONTINUOUS
 62
     7
  5
4AD
 10
955627.164
 20
7260442.234
 30
0.0
 11
955027.504
 21
7260462.44
 31
0.0
  0
LINE
  8
6
  6
CONTINUOUS
 62
     7
  5
4AE
 10
955027.504
 20
7260462.44
 30
0.0
 11
955007.298
 21
7259862.78
 31
0.0
  0
LINE
  8
6
  6
CONTINUOUS
 62
     7
  5
4AF
 10
955007.298
 20
7259862.78
 30
0.0
 11
955606.958
 21
7259842.575
 31
0.0
  0
LINE
  8
6
  6
CONTINUOUS
 62
     7
  5
4B0
 10
955606.958
 20
7259842.575
 30
0.0
 11
955627.164
 21
7260442.234
 31
0.0
  0
LINE
  8
6
  6
CONTINUOUS
 62
     7
  5
4B1
 10
956286.789
 20
7260420.007
 30
0.0
 11
955687.129
 21
7260440.213
 31
0.0
  0
LINE
  8
6
  6
CONTINUOUS
 62
     7
  5
4B2
 10
955687.129
 20
7260440.213
 30
0.0
 11
955666.923
 21
7259840.554
 31
0.0
  0
LINE
  8
6
  6
CONTINUOUS
 62
     7
  5
4B3
 10
955666.923
 20
7259840.554
 30
0.0
 11
956266.583
 21
7259820.347
 31
0.0
  0
LINE
  8
6
  6
CONTINUOUS
 62
     7
  5
4B4
 10
956266.583
 20
7259820.347
 30
0.0
 11
956286.789
 21
7260420.007
 31
0.0
  0
POLYLINE
  8
1
  6
HIDDEN
 62
   253
  5
4B6
 66
     1
 10
0.0
 20
0.0
 30
0.0
 70
     1
  0
VERTEX
  8
1
  6
HIDDEN
 62
   253
  5
4B7
 10
957625.928
 20
7262405.372
 30
0.0
  0
VERTEX
  8
1
  6
HIDDEN
 62
   253
  5
4B8
 10
952389.391
 20
7262571.567
 30
0.0
  0
VERTEX
  8
1
  6
HIDDEN
 62
   253
  5
4B9
 10
952225.313
 20
7257318.298
 30
0.0
  0
VERTEX
  8
1
  6
HIDDEN
 62
   253
  5
4BA
 10
957481.242
 20
7257153.688
 30
0.0
  0
SEQEND
  8
1
  6
HIDDEN
 62
   253
  5
4BB
  0
LINE
  8
6
  6
CONTINUOUS
 62
     7
  5
4BC
 10
952699.909
 20
7260518.842
 30
0.0
 11
952681.331
 21
7259966.325
 31
0.0
  0
LINE
  8
6
  6
CONTINUOUS
 62
     7
  5
4BD
 10
952695.803
 20
7259950.83
 30
0.0
 11
953578.326
 21
7259920.289
 31
0.0
  0
LINE
  8
6
  6
CONTINUOUS
 62
     7
  5
4BE
 10
953593.836
 20
7259934.776
 30
0.0
 11
953612.443
 21
7260488.159
 31
0.0
  0
LINE
  8
6
  6
CONTINUOUS
 62
     7
  5
4BF
 10
953597.955
 20
7260503.655
 30
0.0
 11
952715.405
 21
7260533.331
 31
0.0
  0
LINE
  8
6
  6
CONTINUOUS
 62
     7
  5
4C0
 10
953363.088
 20
7260511.552
 30
0.0
 11
953353.639
 21
7260230.54
 31
0.0
  0
LINE
  8
6
  6
CONTINUOUS
 62
     7
  5
4C1
 10
953603.328
 20
7260217.102
 30
0.0
 11
953413.535
 21
7260223.484
 31
0.0
  0
ARC
  8
6
  6
CONTINUOUS
 62
     7
  5
4C2
 10
952714.900641
 20
7260518.338915
 30
0.0
 40
15.0
 50
88.074164
 51
178.074169
210
0.0
220
0.0
230
1.0
  0
ARC
  8
6
  6
CONTINUOUS
 62
     7
  5
4C3
 10
952696.322367
 20
7259965.821047
 30
0.0
 40
15.0
 50
178.074169
 51
268.017972
210
0.0
220
0.0
230
1.0
  0
ARC
  8
6
  6
CONTINUOUS
 62
     7
  5
4C4
 10
953578.844185
 20
7259935.279877
 30
0.0
 40
15.0
 50
268.017972
 51
358.074222
210
0.0
220
0.0
230
1.0
  0
ARC
  8
6
  6
CONTINUOUS
 62
     7
  5
4C5
 10
953597.451033
 20
7260488.663276
 30
0.0
 40
15.0
 50
358.074225
 51
88.074164
210
0.0
220
0.0
230
1.0
  0
ARC
  8
6
  6
CONTINUOUS
 62
     7
  5
4C6
 10
953425.564415
 20
7260583.34314
 30
0.0
 40
360.06
 50
258.477036
 51
268.085483
210
0.0
220
0.0
230
1.0
  0
LINE
  8
6
  6
CONTINUOUS
 62
     7
  5
4C7
 10
953713.176
 20
7260499.893
 30
0.0
 11
954937.309
 21
7260458.026
 31
0.0
  0
LINE
  8
6
  6
CONTINUOUS
 62
     7
  5
4C8
 10
954951.788
 20
7260442.53
 30
0.0
 11
954933.099
 21
7259887.844
 31
0.0
  0
LINE
  8
6
  6
CONTINUOUS
 62
     7
  5
4C9
 10
954917.594
 20
7259873.359
 30
0.0
 11
953693.004
 21
7259915.241
 31
0.0
  0
LINE
  8
6
  6
CONTINUOUS
 62
     7
  5
4CA
 10
953678.525
 20
7259930.749
 30
0.0
 11
953697.673
 21
7260485.419
 31
0.0
  0
ARC
  8
6
  6
CONTINUOUS
 62
     7
  5
4CB
 10
954936.796925
 20
7260443.035148
 30
0.0
 40
15.0
 50
358.070186
 51
88.041203
210
0.0
220
0.0
230
1.0
  0
ARC
  8
6
  6
CONTINUOUS
 62
     7
  5
4CC
 10
953712.663593
 20
7260484.901523
 30
0.0
 40
15.0
 50
88.0412
 51
178.022903
210
0.0
220
0.0
230
1.0
  0
ARC
  8
6
  6
CONTINUOUS
 62
     7
  5
4CD
 10
953693.516088
 20
7259930.231811
 30
0.0
 40
15.0
 50
178.022903
 51
268.041206
210
0.0
220
0.0
230
1.0
  0
ARC
  8
6
  6
CONTINUOUS
 62
     7
  5
4CE
 10
954918.107157
 20
7259888.349914
 30
0.0
 40
15.0
 50
268.041206
 51
358.070183
210
0.0
220
0.0
230
1.0
  0
LINE
  8
6
  6
CONTINUOUS
 62
     7
  5
4CF
 10
952908.669
 20
7257306.107
 30
0.0
 11
952932.675
 21
7257305.277
 31
0.0
  0
LINE
  8
6
  6
CONTINUOUS
 62
     7
  5
4D0
 10
952964.763
 20
7257312.171
 30
0.0
 11
953197.308
 21
7257304.126
 31
0.0
  0
ARC
  8
6
  6
CONTINUOUS
 62
     7
  5
4D1
 10
953155.965857
 20
7256239.158433
 30
0.0
 40
1065.77
 50
83.775358
 51
87.776914
210
0.0
220
0.0
230
1.0
  0
LINE
  8
6
  6
CONTINUOUS
 62
     7
  5
4D2
 10
953314.182
 20
7257294.493
 30
0.0
 11
953271.524
 21
7257298.645
 31
0.0
  0
ARC
  8
6
  6
CONTINUOUS
 62
     7
  5
4D3
 10
953417.415283
 20
7258279.798837
 30
0.0
 40
990.699723
 50
264.018797
 51
268.018811
210
0.0
220
0.0
230
1.0
  0
LINE
  8
6
  6
CONTINUOUS
 62
     7
  5
4D4
 10
953383.165
 20
7257289.69
 30
0.0
 11
953479.939
 21
7257286.344
 31
0.0
  0
LINE
  8
6
  6
CONTINUOUS
 62
     7
  5
4D5
 10
952263.166
 20
7257563.068
 30
0.0
 11
952908.669
 21
7257306.107
 31
0.0
  0
LINE
  8
6
  6
CONTINUOUS
 62
     7
  5
4D6
 10
952358.658
 20
7259887.667
 30
0.0
 11
953568.485
 21
7259845.812
 31
0.0
  0
LINE
  8
6
  6
CONTINUOUS
 62
     7
  5
4D7
 10
953592.605
 20
7259819.963
 30
0.0
 11
953505.787
 21
7257310.464
 31
0.0
  0
LINE
  8
6
  6
CONTINUOUS
 62
     7
  5
4D8
 10
952332.809
 20
7259863.546
 30
0.0
 11
952253.722
 21
7257577.522
 31
0.0
  0
ARC
  8
6
  6
CONTINUOUS
 62
     7
  5
4D9
 10
952268.713466
 20
7257577.003732
 30
0.0
 40
15.0
 50
178.018603
 51
248.293636
210
0.0
220
0.0
230
1.0
  0
LINE
  8
6
  6
CONTINUOUS
 62
     7
  5
4DA
 10
952277.662
 20
7258269.5
 30
0.0
 11
953537.458
 21
7258225.917
 31
0.0
  0
POLYLINE
  8
21
  6
DASHDOT
 62
     7
  5
4DB
 66
     1
 10
0.0
 20
0.0
 30
0.0
  0
VERTEX
  8
21
  6
DASHDOT
 62
     7
  5
4DC
 10
952277.662
 20
7258269.5
 30
0.0
  0
VERTEX
  8
21
  6
DASHDOT
 62
     7
  5
4DD
 10
953537.458
 20
7258225.917
 30
0.0
  0
VERTEX
  8
21
  6
DASHDOT
 62
     7
  5
4DE
 10
953538.806
 20
7258264.894
 30
0.0
  0
VERTEX
  8
21
  6
DASHDOT
 62
     7
  5
4DF
 10
952279.011
 20
7258308.476
 30
0.0
  0
VERTEX
  8
21
  6
DASHDOT
 62
     7
  5
4E0
 10
952277.662
 20
7258269.5
 30
0.0
  0
SEQEND
  8
21
  6
DASHDOT
 62
     7
  5
4E1
  0
TEXT
  8
22
  6
CONTINUOUS
 62
     3
  5
4E2
 10
952291.174
 20
7258281.982
 30
0.0
 40
8.0
  1
39'
 50
88.1092
  7
ROMANS
210
0.0
220
0.0
230
1.0
  0
ARC
  8
6
  6
CONTINUOUS
 62
     7
  5
4E3
 10
952357.794068
 20
7259862.681427
 30
0.0
 40
25.0
 50
88.018611
 51
178.0186
210
0.0
220
0.0
230
1.0
  0
ARC
  8
6
  6
CONTINUOUS
 62
     7
  5
4E4
 10
953567.619869
 20
7259820.826806
 30
0.0
 40
25.0
 50
358.018608
 51
88.018608
210
0.0
220
0.0
230
1.0
  0
LINE
  8
6
  6
CONTINUOUS
 62
     7
  5
4E5
 10
953597.075
 20
7257634.458
 30
0.0
 11
956243.757
 21
7257540.52
 31
0.0
  0
LINE
  8
6
  6
CONTINUOUS
 62
     7
  5
4E6
 10
956243.757
 20
7257540.52
 30
0.0
 11
956231.254
 21
7257188.242
 31
0.0
  0
LINE
  8
6
  6
CONTINUOUS
 62
     7
  5
4E7
 10
956168.855
 20
7257543.179
 30
0.0
 11
956156.886
 21
7257205.891
 31
0.0
  0
LINE
  8
6
  6
CONTINUOUS
 62
     7
  5
4E8
 10
954926.587
 20
7257587.27
 30
0.0
 11
954914.616
 21
7257249.984
 31
0.0
  0
LINE
  8
6
  6
CONTINUOUS
 62
     7
  5
4E9
 10
954929.074
 20
7257234.46
 30
0.0
 11
956141.362
 21
7257191.432
 31
0.0
  0
LINE
  8
7
  6
CONTINUOUS
 62
     7
  5
4EA
 10
955547.697
 20
7257565.225
 30
0.0
 11
955535.194
 21
7257212.947
 31
0.0
  0
ARC
  8
7
  6
CONTINUOUS
 62
     7
  5
4EB
 10
954929.606434
 20
7257249.450804
 30
0.0
 40
15.0
 50
177.967244
 51
267.967258
210
0.0
220
0.0
230
1.0
  0
ARC
  8
7
  6
CONTINUOUS
 62
     7
  5
4EC
 10
956141.894641
 20
7257206.423186
 30
0.0
 40
15.0
 50
267.967261
 51
357.967417
210
0.0
220
0.0
230
1.0
  0
LINE
  8
6
  6
CONTINUOUS
 62
     7
  5
4ED
 10
954851.634
 20
7257589.931
 30
0.0
 11
954839.664
 21
7257252.641
 31
0.0
  0
LINE
  8
7
  6
CONTINUOUS
 62
     7
  5
4EE
 10
954096.761
 20
7257616.722
 30
0.0
 11
954084.257
 21
7257264.444
 31
0.0
  0
LINE
  8
6
  6
CONTINUOUS
 62
     7
  5
4EF
 10
953597.075
 20
7257634.458
 30
0.0
 11
953585.103
 21
7257297.17
 31
0.0
  0
LINE
  8
6
  6
CONTINUOUS
 62
     7
  5
4F0
 10
953599.562
 20
7257281.647
 30
0.0
 11
954824.141
 21
7257238.184
 31
0.0
  0
ARC
  8
6
  6
CONTINUOUS
 62
     7
  5
4F1
 10
954824.673374
 20
7257253.174075
 30
0.0
 40
15.0
 50
267.967281
 51
357.967414
210
0.0
220
0.0
230
1.0
  0
ARC
  8
6
  6
CONTINUOUS
 62
     7
  5
4F2
 10
953600.093874
 20
7257296.637488
 30
0.0
 40
15.0
 50
177.967244
 51
267.967281
210
0.0
220
0.0
230
1.0
  0
TEXT
  8
19
  6
CONTINUOUS
 62
     1
  5
4F3
 10
953564.458
 20
7257367.35
 30
0.0
 40
24.0
  1
ELM AVE
 50
88.0579
  7
ROMANC
 72
     4
 11
953555.679723
 21
7257462.564184
 31
0.0
210
0.0
220
0.0
230
1.0
  0
LINE
  8
6
  6
CONTINUOUS
 62
     7
  5
4F4
 10
953607.928
 20
7257940.265
 30
0.0
 11
953838.784
 21
7257932.072
 31
0.0
  0
LINE
  8
6
  6
CONTINUOUS
 62
     7
  5
4F5
 10
953838.784
 20
7257932.072
 30
0.0
 11
953827.93
 21
7257626.264
 31
0.0
  0
LINE
  8
6
  6
CONTINUOUS
 62
     7
  5
4F6
 10
953828.533
 20
7257643.253
 30
0.0
 11
953597.678
 21
7257651.446
 31
0.0
  0
LINE
  8
6
  6
CONTINUOUS
 62
     7
  5
4F7
 10
953597.678
 20
7257651.446
 30
0.0
 11
953604.737
 21
7257850.322
 31
0.0
  0
LINE
  8
6
  6
CONTINUOUS
 62
     7
  5
4F8
 10
953620.259
 20
7257864.781
 30
0.0
 11
953836.123
 21
7257857.119
 31
0.0
  0
TEXT
  8
22
  6
CONTINUOUS
 62
     3
  5
4F9
 10
953760.262
 20
7257615.2
 30
0.0
 40
8.0
  1
2.5' FOR O. H. UTILITIES
 50
358.0579
  7
ROMANS
 11
953760.397558
 21
7257619.197702
 31
0.0
210
0.0
220
0.0
230
1.0
 73
     2
  0
ARC
  8
6
  6
CONTINUOUS
 62
     7
  5
4FA
 10
953480.80228
 20
7257311.328633
 30
0.0
 40
25.0
 50
268.019097
 51
358.018608
210
0.0
220
0.0
230
1.0
  0
ARC
  8
6
  6
CONTINUOUS
 62
     7
  5
4FB
 10
953619.72724
 20
7257849.789898
 30
0.0
 40
15.0
 50
87.967181
 51
177.967206
210
0.0
220
0.0
230
1.0
  0
LINE
  8
6
  6
CONTINUOUS
 62
     7
  5
4FC
 10
953676.686
 20
7259877.524
 30
0.0
 11
953607.928
 21
7257940.265
 31
0.0
  0
TEXT
  8
13
  6
CONTINUOUS
 62
    14
  5
4FD
 10
952262.675
 20
7258086.397
 30
0.0
 40
8.0
  1
V1671 P70
 50
88.1092
  7
txt
 72
     4
 11
952259.688267
 21
7258117.156294
 31
0.0
210
0.0
220
0.0
230
1.0
  0
POLYLINE
  8
21
  6
DASHDOT
 62
     7
  5
4FE
 66
     1
 10
0.0
 20
0.0
 30
0.0
  0
VERTEX
  8
21
  6
DASHDOT
 62
     7
  5
4FF
 10
952216.335
 20
7257581.232
 30
0.0
  0
VERTEX
  8
21
  6
DASHDOT
 62
     7
  5
500
 10
952263.166
 20
7257563.067
 30
0.0
  0
VERTEX
  8
21
  6
DASHDOT
 62
     7
  5
501
 10
952263.166566
 20
7257563.067363
 30
0.0
 42
-0.316832
  0
VERTEX
  8
21
  6
DASHDOT
 62
     7
  5
502
 10
952253.729838
 20
7257577.537991
 30
0.0
  0
VERTEX
  8
21
  6
DASHDOT
 62
     7
  5
503
 10
952253.729
 20
7257577.537
 30
0.0
  0
VERTEX
  8
21
  6
DASHDOT
 62
     7
  5
504
 10
952277.635
 20
7258268.524
 30
0.0
  0
VERTEX
  8
21
  6
DASHDOT
 62
     7
  5
505
 10
952240.157
 20
7258269.821
 30
0.0
  0
VERTEX
  8
21
  6
DASHDOT
 62
     7
  5
506
 10
952216.335
 20
7257581.232
 30
0.0
  0
SEQEND
  8
21
  6
DASHDOT
 62
     7
  5
507
  0
POLYLINE
  8
21
  6
DASHDOT
 62
     7
  5
508
 66
     1
 10
0.0
 20
0.0
 30
0.0
 70
     1
  0
VERTEX
  8
21
  6
DASHDOT
 62
     7
  5
509
 10
957532.984
 20
7259377.635
 30
0.0
  0
VERTEX
  8
21
  6
DASHDOT
 62
     7
  5
50A
 10
957302.561
 20
7259624.234
 30
0.0
  0
VERTEX
  8
21
  6
DASHDOT
 62
     7
  5
50B
 10
957357.361
 20
7259675.438
 30
0.0
  0
VERTEX
  8
21
  6
DASHDOT
 62
     7
  5
50C
 10
957536.579
 20
7259483.639
 30
0.0
  0
VERTEX
  8
21
  6
DASHDOT
 62
     7
  5
50D
 10
957532.984
 20
7259377.635
 30
0.0
  0
SEQEND
  8
21
  6
DASHDOT
 62
     7
  5
50E
  0
POLYLINE
  8
21
  6
DASHDOT
 62
     7
  5
50F
 66
     1
 10
0.0
 20
0.0
 30
0.0
 70
     1
  0
VERTEX
  8
21
  6
DASHDOT
 62
     7
  5
510
 10
957487.273
 20
7257145.652
 30
0.0
  0
VERTEX
  8
21
  6
DASHDOT
 62
     7
  5
511
 10
957575.322
 20
7259742.33
 30
0.0
  0
VERTEX
  8
21
  6
DASHDOT
 62
     7
  5
512
 10
957549.637
 20
7259743.194
 30
0.0
  0
VERTEX
  8
21
  6
DASHDOT
 62
     7
  5
513
 10
957539.728
 20
7259577.78
 30
0.0
  0
VERTEX
  8
21
  6
DASHDOT
 62
     7
  5
514
 10
957457.291
 20
7257146.688
 30
0.0
  0
VERTEX
  8
21
  6
DASHDOT
 62
     7
  5
515
 10
957487.273
 20
7257145.652
 30
0.0
  0
SEQEND
  8
21
  6
DASHDOT
 62
     7
  5
516
  0
LINE
  8
6
  6
CONTINUOUS
 62
     7
  5
517
 10
957591.931
 20
7260295.985
 30
0.0
 11
957559.148
 21
7259746.783
 31
0.0
  0
POLYLINE
  8
6
  6
CONTINUOUS
 62
     7
  5
518
 66
     1
 10
0.0
 20
0.0
 30
0.0
  0
VERTEX
  8
6
  6
CONTINUOUS
 62
     7
  5
519
 10
956231.254
 20
7257188.242
 30
0.0
  0
VERTEX
  8
6
  6
CONTINUOUS
 62
     7
  5
51A
 10
957457.291
 20
7257146.688
 30
0.0
  0
VERTEX
  8
6
  6
CONTINUOUS
 62
     7
  5
51B
 10
957539.728
 20
7259577.78
 30
0.0
  0
VERTEX
  8
6
  6
CONTINUOUS
 62
     7
  5
51C
 10
957549.817
 20
7259746.19
 30
0.0
  0
SEQEND
  8
6
  6
CONTINUOUS
 62
     7
  5
51D
  0
POLYLINE
  8
21
  6
DASHDOT
 62
     7
  5
51E
 66
     1
 10
0.0
 20
0.0
 30
0.0
 70
     1
  0
VERTEX
  8
21
  6
DASHDOT
 62
     7
  5
51F
 10
953837.224
 20
7257889.6
 30
0.0
  0
VERTEX
  8
21
  6
DASHDOT
 62
     7
  5
520
 10
955563.232
 20
7257831.073
 30
0.0
  0
VERTEX
  8
21
  6
DASHDOT
 62
     7
  5
521
 10
955563.572
 20
7257841.067
 30
0.0
  0
VERTEX
  8
21
  6
DASHDOT
 62
     7
  5
522
 10
953837.563
 20
7257899.594
 30
0.0
  0
VERTEX
  8
21
  6
DASHDOT
 62
     7
  5
523
 10
953837.224
 20
7257889.6
 30
0.0
  0
SEQEND
  8
21
  6
DASHDOT
 62
     7
  5
524
  0
TEXT
  8
13
  6
CONTINUOUS
 62
    14
  5
525
 10
953849.74
 20
7257909.859
 30
0.0
 40
8.0
  1
TRACT 3 (SEE FILE 217.001)
 50
358.0579
  7
txt
 72
     4
 11
953941.596842
 21
7257910.746523
 31
0.0
210
0.0
220
0.0
230
1.0
  0
TEXT
  8
13
  6
CONTINUOUS
 62
    14
  5
526
 10
954690.051
 20
7257849.329
 30
0.0
 40
8.0
  1
V1044 P175
 50
358.0579
  7
txt
 72
     1
 11
954727.086986
 21
7257856.077744
 31
0.0
210
0.0
220
0.0
230
1.0
 73
     3
  0
TEXT
  8
22
  6
CONTINUOUS
 62
     3
  5
527
 10
955137.273
 20
7257566.957
 30
0.0
 40
8.0
  1
2.5' FOR O. H. UTILITIES
 50
358.0579
  7
ROMANS
 11
955137.408558
 21
7257570.954702
 31
0.0
210
0.0
220
0.0
230
1.0
 73
     2
  0
LINE
  8
21
  6
DASHDOT
 62
     7
  5
528
 10
953597.075
 20
7257634.458
 30
0.0
 11
956168.855
 21
7257543.179
 31
0.0
  0
LINE
  8
21
  6
DASHDOT
 62
     7
  5
529
 10
956168.855
 20
7257543.179
 30
0.0
 11
956168.771
 21
7257540.68
 31
0.0
  0
LINE
  8
21
  6
DASHDOT
 62
     7
  5
52A
 10
956168.771
 20
7257540.68
 30
0.0
 11
953596.99
 21
7257631.961
 31
0.0
  0
LINE
  8
21
  6
DASHDOT
 62
     7
  5
52B
 10
953596.99
 20
7257631.961
 30
0.0
 11
953597.075
 21
7257634.458
 31
0.0
  0
TEXT
  8
22
  6
CONTINUOUS
 62
     3
  5
52C
 10
953611.329
 20
7257657.268
 30
0.0
 40
8.0
  1
2.5' UTILITY EASEMENT
 50
358.0579
  7
ROMANS
 11
953611.464558
 21
7257661.265702
 31
0.0
210
0.0
220
0.0
230
1.0
 73
     2
  0
LINE
  8
21
  6
DASHDOT
 62
     7
  5
52D
 10
953597.678
 20
7257651.446
 30
0.0
 11
953597.763
 21
7257653.945
 31
0.0
  0
LINE
  8
21
  6
DASHDOT
 62
     7
  5
52E
 10
953597.763
 20
7257653.945
 30
0.0
 11
953828.804
 21
7257646.111
 31
0.0
  0
LINE
  8
21
  6
DASHDOT
 62
     7
  5
52F
 10
953828.804
 20
7257646.111
 30
0.0
 11
953828.719
 21
7257643.612
 31
0.0
  0
LINE
  8
21
  6
DASHDOT
 62
     7
  5
530
 10
953828.719
 20
7257643.612
 30
0.0
 11
953597.678
 21
7257651.446
 31
0.0
  0
TEXT
  8
13
  6
CONTINUOUS
 62
    14
  5
531
 10
953697.707
 20
7258567.711
 30
0.0
 40
8.0
  1
TRACT2 (SEE FILE 217.001)
 50
358.0579
  7
txt
 72
     4
 11
953785.566139
 21
7258568.734081
 31
0.0
210
0.0
220
0.0
230
1.0
  0
POLYLINE
  8
21
  6
DASHDOT
 62
     7
  5
532
 66
     1
 10
0.0
 20
0.0
 30
0.0
 70
     1
  0
VERTEX
  8
21
  6
DASHDOT
 62
     7
  5
533
 10
953929.293
 20
7258514.32
 30
0.0
  0
VERTEX
  8
21
  6
DASHDOT
 62
     7
  5
534
 10
953931.926
 20
7258589.273
 30
0.0
  0
VERTEX
  8
21
  6
DASHDOT
 62
     7
  5
535
 10
953632.111
 20
7258599.804
 30
0.0
  0
VERTEX
  8
21
  6
DASHDOT
 62
     7
  5
536
 10
953629.478
 20
7258524.851
 30
0.0
  0
VERTEX
  8
21
  6
DASHDOT
 62
     7
  5
537
 10
953929.194
 20
7258514.323
 30
0.0
  0
VERTEX
  8
21
  6
DASHDOT
 62
     7
  5
538
 10
953929.293
 20
7258514.32
 30
0.0
  0
SEQEND
  8
21
  6
DASHDOT
 62
     7
  5
539
  0
TEXT
  8
22
  6
CONTINUOUS
 62
     3
  5
53A
 10
953635.117
 20
7258925.675
 30
0.0
 40
8.0
  1
1' STREET LICENSE
 50
88.0579
  7
ROMANS
210
0.0
220
0.0
230
1.0
  0
TEXT
  8
13
  6
CONTINUOUS
 62
    14
  5
53B
 10
953728.333
 20
7259229.122
 30
0.0
 40
8.0
  1
TRACT2 (SEE FILE 217.001)
 50
358.0579
  7
txt
 72
     4
 11
953816.192139
 21
7259230.145081
 31
0.0
210
0.0
220
0.0
230
1.0
  0
POLYLINE
  8
21
  6
DASHDOT
 62
     7
  5
53C
 66
     1
 10
0.0
 20
0.0
 30
0.0
  0
VERTEX
  8
21
  6
DASHDOT
 62
     7
  5
53D
 10
953605.701
 20
7257843.761
 30
0.0
  0
VERTEX
  8
21
  6
DASHDOT
 62
     7
  5
53E
 10
953744.444
 20
7261935.409
 30
0.0
  0
VERTEX
  8
21
  6
DASHDOT
 62
     7
  5
53F
 10
953745.444
 20
7261935.375
 30
0.0
  0
VERTEX
  8
21
  6
DASHDOT
 62
     7
  5
540
 10
953606.735
 20
7257844.726
 30
0.0
  0
VERTEX
  8
21
  6
DASHDOT
 62
     7
  5
541
 10
953835.603
 20
7257836.965
 30
0.0
  0
VERTEX
  8
21
  6
DASHDOT
 62
     7
  5
542
 10
953833.061
 20
7257762.009
 30
0.0
  0
VERTEX
  8
21
  6
DASHDOT
 62
     7
  5
543
 10
953832.061
 20
7257762.042
 30
0.0
  0
VERTEX
  8
21
  6
DASHDOT
 62
     7
  5
544
 10
953834.57
 20
7257836.0
 30
0.0
  0
VERTEX
  8
21
  6
DASHDOT
 62
     7
  5
545
 10
953605.701
 20
7257843.761
 30
0.0
  0
SEQEND
  8
21
  6
DASHDOT
 62
     7
  5
546
  0
POLYLINE
  8
21
  6
DASHDOT
 62
     7
  5
547
 66
     1
 10
0.0
 20
0.0
 30
0.0
 70
     1
  0
VERTEX
  8
21
  6
DASHDOT
 62
     7
  5
548
 10
956243.813
 20
7257540.637
 30
0.0
  0
VERTEX
  8
21
  6
DASHDOT
 62
     7
  5
549
 10
956168.415
 20
7257530.187
 30
0.0
  0
VERTEX
  8
21
  6
DASHDOT
 62
     7
  5
54A
 10
956168.771
 20
7257540.68
 30
0.0
  0
VERTEX
  8
21
  6
DASHDOT
 62
     7
  5
54B
 10
956168.855
 20
7257543.179
 30
0.0
  0
VERTEX
  8
21
  6
DASHDOT
 62
     7
  5
54C
 10
956243.813
 20
7257540.637
 30
0.0
  0
SEQEND
  8
21
  6
DASHDOT
 62
     7
  5
54D
  0
TEXT
  8
22
  6
CONTINUOUS
 62
     3
  5
54E
 10
956218.21
 20
7257543.535
 30
0.0
 40
6.0
  1
SLU
 50
358.0579
  7
txt
 72
     4
 11
956226.031232
 21
7257546.271514
 31
0.0
210
0.0
220
0.0
230
1.0
  0
TEXT
  8
13
  6
CONTINUOUS
 62
    14
  5
54F
 10
952944.643
 20
7262350.018
 30
0.0
 40
8.0
  1
V1443 P698
 50
88.1092
  7
txt
 72
     4
 11
952941.886966
 21
7262387.765487
 31
0.0
210
0.0
220
0.0
230
1.0
  0
LINE
  8
7
  6
CONTINUOUS
 62
     7
  5
550
 10
954102.592
 20
7262151.987
 30
0.0
 11
954054.011
 21
7262153.635
 31
0.0
  0
TEXT
  8
22
  6
CONTINUOUS
 62
     3
  5
551
 10
954339.176
 20
7262387.956
 30
0.0
 40
6.0
  1
2'x40' GWE
 50
88.0579
  7
txt
 72
     4
 11
954336.998257
 21
7262412.255761
 31
0.0
210
0.0
220
0.0
230
1.0
  0
POLYLINE
  8
21
  6
DASHDOT
 62
     7
  5
552
 66
     1
 10
0.0
 20
0.0
 30
0.0
  0
VERTEX
  8
21
  6
DASHDOT
 62
     7
  5
553
 10
954340.703
 20
7262399.06
 30
0.0
  0
VERTEX
  8
21
  6
DASHDOT
 62
     7
  5
554
 10
954342.059
 20
7262439.037
 30
0.0
  0
VERTEX
  8
21
  6
DASHDOT
 62
     7
  5
555
 10
954344.057
 20
7262438.97
 30
0.0
  0
VERTEX
  8
21
  6
DASHDOT
 62
     7
  5
556
 10
954342.702
 20
7262398.992
 30
0.0
  0
VERTEX
  8
21
  6
DASHDOT
 62
     7
  5
557
 10
954340.703
 20
7262399.06
 30
0.0
  0
SEQEND
  8
21
  6
DASHDOT
 62
     7
  5
558
  0
TEXT
  8
13
  6
CONTINUOUS
 62
    14
  5
559
 10
954351.457
 20
7262364.402
 30
0.0
 40
8.0
  1
V1218 P358
 50
88.0579
  7
txt
 72
     4
 11
954348.686777
 21
7262400.736753
 31
0.0
210
0.0
220
0.0
230
1.0
  0
ARC
  8
6
  6
CONTINUOUS
 62
     7
  5
55A
 10
953778.649211
 20
7262442.458167
 30
0.0
 40
15.0
 50
88.089456
 51
178.0579
210
0.0
220
0.0
230
1.0
  0
POLYLINE
  8
25
  6
CONTINUOUS
 62
   212
  5
55C
 66
     1
 10
0.0
 20
0.0
 30
0.0
 70
     1
  0
VERTEX
  8
25
  6
CONTINUOUS
 62
   212
  5
55D
 10
954060.619
 20
7262348.523
 30
0.0
  0
VERTEX
  8
25
  6
CONTINUOUS
 62
   212
  5
55E
 10
954109.2
 20
7262346.876
 30
0.0
  0
VERTEX
  8
25
  6
CONTINUOUS
 62
   212
  5
55F
 10
954108.691
 20
7262331.884
 30
0.0
  0
VERTEX
  8
25
  6
CONTINUOUS
 62
   212
  5
560
 10
954060.111
 20
7262333.532
 30
0.0
  0
VERTEX
  8
25
  6
CONTINUOUS
 62
   212
  5
561
 10
954060.619
 20
7262348.523
 30
0.0
  0
SEQEND
  8
25
  6
CONTINUOUS
 62
   212
  5
562
  0
POLYLINE
  8
25
  6
CONTINUOUS
 62
   212
  5
563
 66
     1
 10
0.0
 20
0.0
 30
0.0
 70
     1
  0
VERTEX
  8
25
  6
CONTINUOUS
 62
   212
  5
564
 10
954055.705
 20
7262203.606
 30
0.0
  0
VERTEX
  8
25
  6
CONTINUOUS
 62
   212
  5
565
 10
954104.286
 20
7262201.959
 30
0.0
  0
VERTEX
  8
25
  6
CONTINUOUS
 62
   212
  5
566
 10
954102.592
 20
7262151.987
 30
0.0
  0
VERTEX
  8
25
  6
CONTINUOUS
 62
   212
  5
567
 10
954054.011
 20
7262153.635
 30
0.0
  0
VERTEX
  8
25
  6
CONTINUOUS
 62
   212
  5
568
 10
954055.702
 20
7262203.493
 30
0.0
  0
VERTEX
  8
25
  6
CONTINUOUS
 62
   212
  5
569
 10
954055.705
 20
7262203.606
 30
0.0
  0
SEQEND
  8
25
  6
CONTINUOUS
 62
   212
  5
56A
  0
POLYLINE
  8
21
  6
DASHDOT
 62
     7
  5
56B
 66
     1
 10
0.0
 20
0.0
 30
0.0
 70
     1
  0
VERTEX
  8
21
  6
DASHDOT
 62
     7
  5
56C
 10
952913.446
 20
7262484.46
 30
0.0
  0
VERTEX
  8
21
  6
DASHDOT
 62
     7
  5
56D
 10
952894.88
 20
7261922.077
 30
0.0
  0
VERTEX
  8
21
  6
DASHDOT
 62
     7
  5
56E
 10
952954.848
 20
7261920.097
 30
0.0
  0
VERTEX
  8
21
  6
DASHDOT
 62
     7
  5
56F
 10
952973.413
 20
7262482.461
 30
0.0
  0
VERTEX
  8
21
  6
DASHDOT
 62
     7
  5
570
 10
952913.446
 20
7262484.46
 30
0.0
  0
SEQEND
  8
21
  6
DASHDOT
 62
     7
  5
571
  0
LINE
  8
6
  6
CONTINUOUS
 62
     7
  5
572
 10
955543.591
 20
7262416.169
 30
0.0
 11
955107.684
 21
7262413.899
 31
0.0
  0
ARC
  8
6
  6
CONTINUOUS
 62
     7
  5
573
 10
955107.761665
 20
7262398.899195
 30
0.0
 40
15.0
 50
90.298311
 51
178.070069
210
0.0
220
0.0
230
1.0
  0
POLYLINE
  8
21
  6
DASHDOT
 62
     7
  5
574
 66
     1
 10
0.0
 20
0.0
 30
0.0
 70
     1
  0
VERTEX
  8
21
  6
DASHDOT
 62
     7
  5
575
 10
955093.256
 20
7262413.824
 30
0.0
  0
VERTEX
  8
21
  6
DASHDOT
 62
     7
  5
576
 10
955093.85
 20
7262431.424
 30
0.0
  0
VERTEX
  8
21
  6
DASHDOT
 62
     7
  5
577
 10
955318.722
 20
7262423.847
 30
0.0
  0
VERTEX
  8
21
  6
DASHDOT
 62
     7
  5
578
 10
955318.424
 20
7262415.042
 30
0.0
  0
VERTEX
  8
21
  6
DASHDOT
 62
     7
  5
579
 10
955093.256
 20
7262413.824
 30
0.0
  0
SEQEND
  8
21
  6
DASHDOT
 62
     7
  5
57A
  0
POLYLINE
  8
21
  6
DASHDOT
 62
     7
  5
57B
 66
     1
 10
0.0
 20
0.0
 30
0.0
 70
     1
  0
VERTEX
  8
21
  6
DASHDOT
 62
     7
  5
57C
 10
955318.421
 20
7262414.941
 30
0.0
  0
VERTEX
  8
21
  6
DASHDOT
 62
     7
  5
57D
 10
955368.459
 20
7262415.215
 30
0.0
  0
VERTEX
  8
21
  6
DASHDOT
 62
     7
  5
57E
 10
955368.69
 20
7262422.062
 30
0.0
  0
VERTEX
  8
21
  6
DASHDOT
 62
     7
  5
57F
 10
955318.719
 20
7262423.746
 30
0.0
  0
VERTEX
  8
21
  6
DASHDOT
 62
     7
  5
580
 10
955318.421
 20
7262414.941
 30
0.0
  0
SEQEND
  8
21
  6
DASHDOT
 62
     7
  5
581
  0
POLYLINE
  8
21
  6
DASHDOT
 62
     7
  5
582
 66
     1
 10
0.0
 20
0.0
 30
0.0
 70
     1
  0
VERTEX
  8
21
  6
DASHDOT
 62
     7
  5
583
 10
955368.46
 20
7262415.242
 30
0.0
  0
VERTEX
  8
21
  6
DASHDOT
 62
     7
  5
584
 10
955418.499
 20
7262415.518
 30
0.0
  0
VERTEX
  8
21
  6
DASHDOT
 62
     7
  5
585
 10
955418.661
 20
7262420.377
 30
0.0
  0
VERTEX
  8
21
  6
DASHDOT
 62
     7
  5
586
 10
955368.69
 20
7262422.062
 30
0.0
  0
VERTEX
  8
21
  6
DASHDOT
 62
     7
  5
587
 10
955368.46
 20
7262415.242
 30
0.0
  0
SEQEND
  8
21
  6
DASHDOT
 62
     7
  5
588
  0
POLYLINE
  8
21
  6
DASHDOT
 62
     7
  5
589
 66
     1
 10
0.0
 20
0.0
 30
0.0
 70
     1
  0
VERTEX
  8
21
  6
DASHDOT
 62
     7
  5
58A
 10
955418.498
 20
7262415.491
 30
0.0
  0
VERTEX
  8
21
  6
DASHDOT
 62
     7
  5
58B
 10
955468.535
 20
7262415.766
 30
0.0
  0
VERTEX
  8
21
  6
DASHDOT
 62
     7
  5
58C
 10
955468.634
 20
7262418.694
 30
0.0
  0
VERTEX
  8
21
  6
DASHDOT
 62
     7
  5
58D
 10
955418.661
 20
7262420.377
 30
0.0
  0
VERTEX
  8
21
  6
DASHDOT
 62
     7
  5
58E
 10
955418.498
 20
7262415.491
 30
0.0
  0
SEQEND
  8
21
  6
DASHDOT
 62
     7
  5
58F
  0
POLYLINE
  8
21
  6
DASHDOT
 62
     7
  5
590
 66
     1
 10
0.0
 20
0.0
 30
0.0
 70
     1
  0
VERTEX
  8
21
  6
DASHDOT
 62
     7
  5
591
 10
955468.535
 20
7262415.766
 30
0.0
  0
VERTEX
  8
21
  6
DASHDOT
 62
     7
  5
592
 10
955543.591
 20
7262416.169
 30
0.0
  0
VERTEX
  8
21
  6
DASHDOT
 62
     7
  5
593
 10
955468.634
 20
7262418.694
 30
0.0
  0
VERTEX
  8
21
  6
DASHDOT
 62
     7
  5
594
 10
955468.535
 20
7262415.766
 30
0.0
  0
SEQEND
  8
21
  6
DASHDOT
 62
     7
  5
595
  0
TEXT
  8
13
  6
CONTINUOUS
 62
    14
  5
596
 10
955126.904
 20
7262420.203
 30
0.0
 40
8.0
  1
V949 P241
 50
358.070122
  7
txt
 72
     1
 11
955160.601439
 21
7262427.072089
 31
0.0
210
0.0
220
0.0
230
1.0
 73
     3
  0
TEXT
  8
13
  6
CONTINUOUS
 62
    14
  5
597
 10
955343.888
 20
7262352.217
 30
0.0
 40
8.0
  1
V949 P547
 50
88.314967
  7
txt
 72
     1
 11
955336.917581
 21
7262387.333151
 31
0.0
210
0.0
220
0.0
230
1.0
 73
     3
  0
TEXT
  8
13
  6
CONTINUOUS
 62
    14
  5
598
 10
955448.046
 20
7262352.044
 30
0.0
 40
8.0
  1
V952 P177
 50
88.070122
  7
txt
 72
     4
 11
955445.176763
 21
7262385.669698
 31
0.0
210
0.0
220
0.0
230
1.0
  0
TEXT
  8
13
  6
CONTINUOUS
 62
    14
  5
599
 10
955491.072
 20
7262348.263
 30
0.0
 40
8.0
  1
V949 P535
 50
88.070122
  7
txt
 72
     4
 11
955488.24203
 21
7262383.054037
 31
0.0
210
0.0
220
0.0
230
1.0
  0
SOLID
  8
21
  6
DASHDOT
 62
     7
  5
59A
 10
955093.85
 20
7262431.424
 30
0.0
 11
955094.188
 21
7262441.418
 31
0.0
 12
955693.506
 22
7262411.117
 32
0.0
 13
955693.843
 23
7262421.111
 33
0.0
  0
POLYLINE
  8
21
  6
DASHDOT
 62
     7
  5
59B
 66
     1
 10
0.0
 20
0.0
 30
0.0
  0
VERTEX
  8
21
  6
DASHDOT
 62
     7
  5
59C
 10
955743.032
 20
7262099.272
 30
0.0
  0
VERTEX
  8
21
  6
DASHDOT
 62
     7
  5
59D
 10
955742.998
 20
7262098.272
 30
0.0
  0
VERTEX
  8
21
  6
DASHDOT
 62
     7
  5
59E
 10
955683.032
 20
7262100.294
 30
0.0
  0
VERTEX
  8
21
  6
DASHDOT
 62
     7
  5
59F
 10
955683.067
 20
7262101.293
 30
0.0
  0
VERTEX
  8
21
  6
DASHDOT
 62
     7
  5
5A0
 10
955743.032
 20
7262099.272
 30
0.0
  0
SEQEND
  8
21
  6
DASHDOT
 62
     7
  5
5A1
  0
POLYLINE
  8
21
  6
DASHDOT
 62
     7
  5
5A2
 66
     1
 10
0.0
 20
0.0
 30
0.0
  0
VERTEX
  8
21
  6
DASHDOT
 62
     7
  5
5A3
 10
955383.908
 20
7262131.384
 30
0.0
  0
VERTEX
  8
21
  6
DASHDOT
 62
     7
  5
5A4
 10
955379.842
 20
7262010.744
 30
0.0
  0
VERTEX
  8
21
  6
DASHDOT
 62
     7
  5
5A5
 10
955379.843103
 20
7262010.743699
 30
0.0
 42
-0.317838
  0
VERTEX
  8
21
  6
DASHDOT
 62
     7
  5
5A6
 10
955397.295377
 20
7262033.738344
 30
0.0
  0
VERTEX
  8
21
  6
DASHDOT
 62
     7
  5
5A7
 10
955397.295472
 20
7262033.738044
 30
0.0
 42
0.843035
  0
VERTEX
  8
21
  6
DASHDOT
 62
     7
  5
5A8
 10
955383.909152
 20
7262131.38453
 30
0.0
  0
SEQEND
  8
21
  6
DASHDOT
 62
     7
  5
5A9
  0
TEXT
  8
13
  6
CONTINUOUS
 62
    14
  5
5AA
 10
955388.055
 20
7262070.457
 30
0.0
 40
8.0
  1
V5097 P256
 50
358.070122
  7
txt
 72
     4
 11
955426.87475
 21
7262073.151221
 31
0.0
210
0.0
220
0.0
230
1.0
  0
POLYLINE
  8
25
  6
CONTINUOUS
 62
   212
  5
5AB
 66
     1
 10
0.0
 20
0.0
 30
0.0
 70
     1
  0
VERTEX
  8
25
  6
CONTINUOUS
 62
   212
  5
5AC
 10
955078.354
 20
7261971.584
 30
0.0
  0
VERTEX
  8
25
  6
CONTINUOUS
 62
   212
  5
5AD
 10
955228.269
 20
7261966.532
 30
0.0
  0
VERTEX
  8
25
  6
CONTINUOUS
 62
   212
  5
5AE
 10
955228.943
 20
7261986.521
 30
0.0
  0
VERTEX
  8
25
  6
CONTINUOUS
 62
   212
  5
5AF
 10
955079.028
 20
7261991.573
 30
0.0
  0
VERTEX
  8
25
  6
CONTINUOUS
 62
   212
  5
5B0
 10
955078.354
 20
7261971.584
 30
0.0
  0
SEQEND
  8
25
  6
CONTINUOUS
 62
   212
  5
5B1
  0
TEXT
  8
13
  6
CONTINUOUS
 62
    14
  5
5B2
 10
955108.904
 20
7261974.855
 30
0.0
 40
8.0
  1
V5097 P249
 50
358.070122
  7
txt
 72
     1
 11
955147.777938
 21
7261973.545125
 31
0.0
210
0.0
220
0.0
230
1.0
  0
LINE
  8
6
  6
CONTINUOUS
 62
     7
  5
5B3
 10
955693.506
 20
7262411.117
 30
0.0
 11
955677.004
 21
7261921.395
 31
0.0
  0
POLYLINE
  8
6
  6
CONTINUOUS
 62
     7
  5
5B4
 66
     1
 10
0.0
 20
0.0
 30
0.0
  0
VERTEX
  8
6
  6
CONTINUOUS
 62
     7
  5
5B5
 10
955676.751
 20
7261913.899
 30
0.0
  0
VERTEX
  8
6
  6
CONTINUOUS
 62
     7
  5
5B6
 10
955673.636
 20
7261821.452
 30
0.0
  0
VERTEX
  8
6
  6
CONTINUOUS
 62
     7
  5
5B7
 10
955531.217
 20
7261826.25
 30
0.0
  0
VERTEX
  8
6
  6
CONTINUOUS
 62
     7
  5
5B8
 10
955534.333
 20
7261918.699
 30
0.0
  0
SEQEND
  8
6
  6
CONTINUOUS
 62
     7
  5
5B9
  0
LINE
  8
6
  6
CONTINUOUS
 62
     7
  5
5BA
 10
955537.084
 20
7261926.109
 30
0.0
 11
955677.004
 21
7261921.395
 31
0.0
  0
LINE
  8
6
  6
CONTINUOUS
 62
     7
  5
5BB
 10
955676.751
 20
7261913.899
 30
0.0
 11
955534.333
 21
7261918.699
 31
0.0
  0
LINE
  8
6
  6
CONTINUOUS
 62
     7
  5
5BC
 10
955537.084
 20
7261926.109
 30
0.0
 11
955540.451
 21
7262026.053
 31
0.0
  0
LINE
  8
6
  6
CONTINUOUS
 62
     7
  5
5BD
 10
955540.451
 20
7262026.053
 30
0.0
 11
955537.952
 21
7262026.137
 31
0.0
  0
LINE
  8
6
  6
CONTINUOUS
 62
     7
  5
5BE
 10
955537.952
 20
7262026.137
 30
0.0
 11
955551.087
 21
7262415.916
 31
0.0
  0
LINE
  8
6
  6
CONTINUOUS
 62
     7
  5
5BF
 10
955551.087
 20
7262415.916
 30
0.0
 11
955693.506
 21
7262411.117
 31
0.0
  0
POLYLINE
  8
21
  6
DASHDOT
 62
     7
  5
5C0
 66
     1
 10
0.0
 20
0.0
 30
0.0
 70
     1
  0
VERTEX
  8
21
  6
DASHDOT
 62
     7
  5
5C1
 10
955677.004
 20
7261921.395
 30
0.0
  0
VERTEX
  8
21
  6
DASHDOT
 62
     7
  5
5C2
 10
955527.089
 20
7261926.447
 30
0.0
  0
VERTEX
  8
21
  6
DASHDOT
 62
     7
  5
5C3
 10
955526.837
 20
7261918.951
 30
0.0
  0
VERTEX
  8
21
  6
DASHDOT
 62
     7
  5
5C4
 10
955676.752
 20
7261913.899
 30
0.0
  0
VERTEX
  8
21
  6
DASHDOT
 62
     7
  5
5C5
 10
955677.004
 20
7261921.395
 30
0.0
  0
SEQEND
  8
21
  6
DASHDOT
 62
     7
  5
5C6
  0
TEXT
  8
13
  6
CONTINUOUS
 62
    14
  5
5C7
 10
955524.916
 20
7261928.255
 30
0.0
 40
8.0
  1
(SEE ROW FILE 218.021)
 50
358.0579
  7
txt
 72
     4
 11
955602.986765
 21
7261929.609995
 31
0.0
210
0.0
220
0.0
230
1.0
  0
POLYLINE
  8
21
  6
DASHDOT
 62
     7
  5
5C8
 66
     1
 10
0.0
 20
0.0
 30
0.0
 70
     1
  0
VERTEX
  8
21
  6
DASHDOT
 62
     7
  5
5C9
 10
956413.434
 20
7262396.864
 30
0.0
  0
VERTEX
  8
21
  6
DASHDOT
 62
     7
  5
5CA
 10
956413.097
 20
7262386.869
 30
0.0
  0
VERTEX
  8
21
  6
DASHDOT
 62
     7
  5
5CB
 10
956637.97
 20
7262379.292
 30
0.0
  0
VERTEX
  8
21
  6
DASHDOT
 62
     7
  5
5CC
 10
956638.306
 20
7262389.287
 30
0.0
  0
VERTEX
  8
21
  6
DASHDOT
 62
     7
  5
5CD
 10
956413.434
 20
7262396.864
 30
0.0
  0
SEQEND
  8
21
  6
DASHDOT
 62
     7
  5
5CE
  0
POLYLINE
  8
21
  6
DASHDOT
 62
     7
  5
5CF
 66
     1
 10
0.0
 20
0.0
 30
0.0
 70
     1
  0
VERTEX
  8
21
  6
DASHDOT
 62
     7
  5
5D0
 10
956638.315
 20
7262389.508
 30
0.0
  0
VERTEX
  8
21
  6
DASHDOT
 62
     7
  5
5D1
 10
956637.979
 20
7262379.513
 30
0.0
  0
VERTEX
  8
21
  6
DASHDOT
 62
     7
  5
5D2
 10
956712.937
 20
7262376.987
 30
0.0
  0
VERTEX
  8
21
  6
DASHDOT
 62
     7
  5
5D3
 10
956713.272
 20
7262386.982
 30
0.0
  0
VERTEX
  8
21
  6
DASHDOT
 62
     7
  5
5D4
 10
956638.315
 20
7262389.508
 30
0.0
  0
SEQEND
  8
21
  6
DASHDOT
 62
     7
  5
5D5
  0
TEXT
  8
13
  6
CONTINUOUS
 62
    14
  5
5D6
 10
956644.414
 20
7262380.712
 30
0.0
 40
8.0
  1
V949 P67
 50
358.070122
  7
txt
 72
     4
 11
956675.049395
 21
7262383.681996
 31
0.0
210
0.0
220
0.0
230
1.0
  0
LINE
  8
21
  6
DASHDOT
 62
     7
  5
5D7
 10
957072.723
 20
7262364.644
 30
0.0
 11
957073.059
 21
7262374.638
 31
0.0
  0
LINE
  8
21
  6
DASHDOT
 62
     7
  5
5D8
 10
957073.059
 20
7262374.638
 30
0.0
 11
957372.889
 21
7262364.535
 31
0.0
  0
LINE
  8
21
  6
DASHDOT
 62
     7
  5
5D9
 10
957372.889
 20
7262364.535
 30
0.0
 11
957372.553
 21
7262354.541
 31
0.0
  0
LINE
  8
21
  6
DASHDOT
 62
     7
  5
5DA
 10
957372.553
 20
7262354.541
 30
0.0
 11
957072.723
 21
7262364.644
 31
0.0
  0
LINE
  8
21
  6
DASHDOT
 62
     7
  5
5DB
 10
956712.927
 20
7262376.766
 30
0.0
 11
957012.757
 21
7262366.663
 31
0.0
  0
LINE
  8
21
  6
DASHDOT
 62
     7
  5
5DC
 10
957012.757
 20
7262366.663
 30
0.0
 11
957013.094
 21
7262376.659
 31
0.0
  0
LINE
  8
21
  6
DASHDOT
 62
     7
  5
5DD
 10
957013.094
 20
7262376.659
 30
0.0
 11
956713.264
 21
7262386.762
 31
0.0
  0
LINE
  8
21
  6
DASHDOT
 62
     7
  5
5DE
 10
956713.264
 20
7262386.762
 30
0.0
 11
956712.927
 21
7262376.766
 31
0.0
  0
LINE
  8
21
  6
DASHDOT
 62
     7
  5
5DF
 10
956353.132
 20
7262388.89
 30
0.0
 11
956353.468
 21
7262398.886
 31
0.0
  0
LINE
  8
21
  6
DASHDOT
 62
     7
  5
5E0
 10
956353.468
 20
7262398.886
 30
0.0
 11
955753.809
 21
7262419.091
 31
0.0
  0
LINE
  8
21
  6
DASHDOT
 62
     7
  5
5E1
 10
955753.809
 20
7262419.091
 30
0.0
 11
955753.472
 21
7262409.095
 31
0.0
  0
LINE
  8
21
  6
DASHDOT
 62
     7
  5
5E2
 10
955753.472
 20
7262409.095
 30
0.0
 11
956353.132
 21
7262388.89
 31
0.0
  0
POLYLINE
  8
21
  6
DASHDOT
 62
     7
  5
5E3
 66
     1
 10
0.0
 20
0.0
 30
0.0
  0
VERTEX
  8
21
  6
DASHDOT
 62
     7
  5
5E4
 10
957661.202
 20
7262029.161
 30
0.0
  0
VERTEX
  8
21
  6
DASHDOT
 62
     7
  5
5E5
 10
957640.024
 20
7262029.879
 30
0.0
  0
VERTEX
  8
21
  6
DASHDOT
 62
     7
  5
5E6
 10
957640.168
 20
7262294.239
 30
0.0
  0
VERTEX
  8
21
  6
DASHDOT
 62
     7
  5
5E7
 10
957640.168422
 20
7262294.239308
 30
0.0
 42
0.400437
  0
VERTEX
  8
21
  6
DASHDOT
 62
     7
  5
5E8
 10
957613.141103
 20
7262325.615726
 30
0.0
  0
VERTEX
  8
21
  6
DASHDOT
 62
     7
  5
5E9
 10
957613.141
 20
7262325.615
 30
0.0
  0
VERTEX
  8
21
  6
DASHDOT
 62
     7
  5
5EA
 10
957671.588
 20
7262320.861
 30
0.0
  0
VERTEX
  8
21
  6
DASHDOT
 62
     7
  5
5EB
 10
957661.202
 20
7262029.161
 30
0.0
  0
SEQEND
  8
21
  6
DASHDOT
 62
     7
  5
5EC
  0
TEXT
  8
13
  6
CONTINUOUS
 62
    14
  5
5ED
 10
955304.439
 20
7262425.548
 30
0.0
 40
8.0
  1
V477 P677
 50
358.314967
  7
txt
 72
     1
 11
955339.869015
 21
7262432.509186
 31
0.0
210
0.0
220
0.0
230
1.0
 73
     3
  0
TEXT
  8
13
  6
CONTINUOUS
 62
    14
  5
5EE
 10
955383.733
 20
7262422.858
 30
0.0
 40
8.0
  1
V477 P683
 50
358.314967
  7
txt
 72
     1
 11
955419.101042
 21
7262429.821009
 31
0.0
210
0.0
220
0.0
230
1.0
 73
     3
  0
TEXT
  8
13
  6
CONTINUOUS
 62
    14
  5
5EF
 10
955462.965
 20
7262420.172
 30
0.0
 40
8.0
  1
V477 P682
 50
358.314967
  7
txt
 72
     1
 11
955498.333042
 21
7262427.135009
 31
0.0
210
0.0
220
0.0
230
1.0
 73
     3
  0
TEXT
  8
13
  6
CONTINUOUS
 62
    14
  5
5F0
 10
955590.571
 20
7262415.844
 30
0.0
 40
8.0
  1
V477 P703
 50
358.314967
  7
txt
 72
     1
 11
955626.127961
 21
7262422.801451
 31
0.0
210
0.0
220
0.0
230
1.0
 73
     3
  0
TEXT
  8
13
  6
CONTINUOUS
 62
    14
  5
5F1
 10
955789.196
 20
7262409.111
 30
0.0
 40
8.0
  1
V477 P689
 50
358.314967
  7
txt
 72
     1
 11
955824.375124
 21
7262416.079566
 31
0.0
210
0.0
220
0.0
230
1.0
 73
     3
  0
TEXT
  8
13
  6
CONTINUOUS
 62
    14
  5
5F2
 10
955947.447
 20
7262403.746
 30
0.0
 40
8.0
  1
V477 P666
 50
358.314967
  7
txt
 72
     1
 11
955982.437206
 21
7262410.720124
 31
0.0
210
0.0
220
0.0
230
1.0
 73
     3
  0
TEXT
  8
13
  6
CONTINUOUS
 62
    14
  5
5F3
 10
956099.93
 20
7262398.574
 30
0.0
 40
8.0
  1
V477 P676
 50
358.314967
  7
txt
 72
     1
 11
956135.140111
 21
7262405.541655
 31
0.0
210
0.0
220
0.0
230
1.0
 73
     3
  0
TEXT
  8
13
  6
CONTINUOUS
 62
    14
  5
5F4
 10
956248.723
 20
7262393.535
 30
0.0
 40
8.0
  1
V477 P691
 50
358.314967
  7
txt
 72
     1
 11
956282.484737
 21
7262400.545263
 31
0.0
210
0.0
220
0.0
230
1.0
 73
     3
  0
TEXT
  8
13
  6
CONTINUOUS
 62
    14
  5
5F5
 10
956466.364
 20
7262386.238
 30
0.0
 40
8.0
  1
V949 P65
 50
358.070122
  7
txt
 72
     1
 11
956496.832708
 21
7262385.211343
 31
0.0
210
0.0
220
0.0
230
1.0
  0
TEXT
  8
13
  6
CONTINUOUS
 62
    14
  5
5F6
 10
956715.034
 20
7262378.183
 30
0.0
 40
8.0
  1
V477 P673
 50
358.070122
  7
txt
 72
     4
 11
956750.328751
 21
7262380.995997
 31
0.0
210
0.0
220
0.0
230
1.0
  0
TEXT
  8
13
  6
CONTINUOUS
 62
    14
  5
5F7
 10
956792.807
 20
7262375.546
 30
0.0
 40
8.0
  1
V477 P685
 50
358.070122
  7
txt
 72
     4
 11
956828.069769
 21
7262378.360075
 31
0.0
210
0.0
220
0.0
230
1.0
  0
TEXT
  8
13
  6
CONTINUOUS
 62
    14
  5
5F8
 10
956910.586
 20
7262371.552
 30
0.0
 40
8.0
  1
V477 P679
 50
358.070122
  7
txt
 72
     4
 11
956945.690859
 21
7262374.371396
 31
0.0
210
0.0
220
0.0
230
1.0
  0
TEXT
  8
13
  6
CONTINUOUS
 62
    14
  5
5F9
 10
957195.008
 20
7262361.908
 30
0.0
 40
8.0
  1
V477 P674
 50
358.070122
  7
txt
 72
     4
 11
957230.490644
 21
7262364.714666
 31
0.0
210
0.0
220
0.0
230
1.0
  0
TEXT
  8
13
  6
CONTINUOUS
 62
    14
  5
5FA
 10
957556.26
 20
7262349.131
 30
0.0
 40
8.0
  1
V11 P364
 50
358.070122
  7
txt
 72
     1
 11
957583.046798
 21
7262348.228406
 31
0.0
210
0.0
220
0.0
230
1.0
  0
TEXT
  8
13
  6
CONTINUOUS
 62
    14
  5
5FB
 10
957625.311
 20
7261939.383
 30
0.0
 40
8.0
  1
V1083 P546
 50
88.070122
  7
txt
 72
     4
 11
957622.579702
 21
7261977.102375
 31
0.0
210
0.0
220
0.0
230
1.0
  0
TEXT
  8
13
  6
CONTINUOUS
 62
    14
  5
5FC
 10
957652.528
 20
7261900.139
 30
0.0
 40
8.0
  1
V1688 P653
 50
88.070122
  7
txt
 72
     4
 11
957649.784982
 21
7261937.510572
 31
0.0
210
0.0
220
0.0
230
1.0
  0
ARC
  8
6
  6
CONTINUOUS
 62
     7
  5
5FD
 10
952961.425744
 20
7257249.579846
 30
0.0
 40
62.68
 50
86.948647
 51
117.303303
210
0.0
220
0.0
230
1.0
  0
POLYLINE
  8
21
  6
DASHDOT
 62
     7
  5
5FE
 66
     1
 10
0.0
 20
0.0
 30
0.0
 70
     1
  0
VERTEX
  8
21
  6
DASHDOT
 62
     7
  5
5FF
 10
953765.493
 20
7262497.108
 30
0.0
  0
VERTEX
  8
21
  6
DASHDOT
 62
     7
  5
600
 10
953815.465
 20
7262495.413
 30
0.0
  0
VERTEX
  8
21
  6
DASHDOT
 62
     7
  5
601
 10
953814.788
 20
7262475.425
 30
0.0
  0
VERTEX
  8
21
  6
DASHDOT
 62
     7
  5
602
 10
953764.816
 20
7262477.12
 30
0.0
  0
SEQEND
  8
21
  6
DASHDOT
 62
     7
  5
603
  0
POLYLINE
  8
21
  6
DASHDOT
 62
     7
  5
604
 66
     1
 10
0.0
 20
0.0
 30
0.0
 70
     1
  0
VERTEX
  8
21
  6
DASHDOT
 62
     7
  5
605
 10
954065.172
 20
7262482.772
 30
0.0
  0
VERTEX
  8
21
  6
DASHDOT
 62
     7
  5
606
 10
954355.005
 20
7262472.944
 30
0.0
  0
VERTEX
  8
21
  6
DASHDOT
 62
     7
  5
607
 10
954354.497
 20
7262457.952
 30
0.0
  0
VERTEX
  8
21
  6
DASHDOT
 62
     7
  5
608
 10
954064.664
 20
7262467.781
 30
0.0
  0
SEQEND
  8
21
  6
DASHDOT
 62
     7
  5
609
  0
TEXT
  8
13
  6
CONTINUOUS
 62
    14
  5
60A
 10
953758.988
 20
7262483.904
 30
0.0
 40
8.0
  1
V471 P686
 50
358.0579
  7
txt
 72
     4
 11
953791.167141
 21
7262486.815136
 31
0.0
210
0.0
220
0.0
230
1.0
  0
TEXT
  8
13
  6
CONTINUOUS
 62
    14
  5
60B
 10
954166.887
 20
7262468.158
 30
0.0
 40
8.0
  1
V472 P692
 50
358.0579
  7
txt
 72
     4
 11
954201.898513
 21
7262470.973093
 31
0.0
210
0.0
220
0.0
230
1.0
  0
TEXT
  8
22
  6
CONTINUOUS
 62
     3
  5
60C
 10
955687.772
 20
7262102.592
 30
0.0
 40
6.0
  1
1' STREET USE LICENSE
 50
358.070122
  7
txt
 72
     4
 11
955743.913225
 21
7262103.701998
 31
0.0
210
0.0
220
0.0
230
1.0
  0
TEXT
  8
22
  6
CONTINUOUS
 62
     3
  5
60D
 10
955684.223
 20
7262090.64
 30
0.0
 40
8.0
  1
RESOLUTION 6108
 50
358.070122
  7
ROMANS
 72
     4
 11
955742.657618
 21
7262092.673288
 31
0.0
210
0.0
220
0.0
230
1.0
  0
TEXT
  8
22
  6
CONTINUOUS
 62
     3
  5
60E
 10
955238.941
 20
7261968.757
 30
0.0
 40
6.0
  1
20'
 50
88.070122
  7
txt
 72
     4
 11
955236.185306
 21
7261976.057943
 31
0.0
210
0.0
220
0.0
230
1.0
  0
TEXT
  8
22
  6
CONTINUOUS
 62
     3
  5
60F
 10
955139.234
 20
7261991.444
 30
0.0
 40
6.0
  1
150'
 50
358.070122
  7
txt
 72
     1
 11
955148.370815
 21
7261991.136131
 31
0.0
210
0.0
220
0.0
230
1.0
  0
TEXT
  8
22
  6
CONTINUOUS
 62
     3
  5
610
 10
957417.809
 20
7260212.092
 30
0.0
 40
6.0
  1
2'x137' GWE
 50
358.070122
  7
txt
 72
     1
 11
957444.05028
 21
7260217.211193
 31
0.0
210
0.0
220
0.0
230
1.0
 73
     3
  0
POLYLINE
  8
21
  6
DASHDOT
 62
     7
  5
611
 66
     1
 10
0.0
 20
0.0
 30
0.0
 70
     1
  0
VERTEX
  8
21
  6
DASHDOT
 62
     7
  5
612
 10
953952.424
 20
7259172.914
 30
0.0
  0
VERTEX
  8
21
  6
DASHDOT
 62
     7
  5
613
 10
953955.057
 20
7259247.868
 30
0.0
  0
VERTEX
  8
21
  6
DASHDOT
 62
     7
  5
614
 10
953655.241
 20
7259258.399
 30
0.0
  0
VERTEX
  8
21
  6
DASHDOT
 62
     7
  5
615
 10
953652.609
 20
7259183.444
 30
0.0
  0
VERTEX
  8
21
  6
DASHDOT
 62
     7
  5
616
 10
953952.325
 20
7259172.917
 30
0.0
  0
VERTEX
  8
21
  6
DASHDOT
 62
     7
  5
617
 10
953952.424
 20
7259172.914
 30
0.0
  0
SEQEND
  8
21
  6
DASHDOT
 62
     7
  5
618
  0
POLYLINE
  8
21
  6
DASHDOT
 62
     7
  5
619
 66
     1
 10
0.0
 20
0.0
 30
0.0
 70
     1
  0
VERTEX
  8
21
  6
DASHDOT
 62
     7
  5
61A
 10
954135.966
 20
7257846.587
 30
0.0
  0
VERTEX
  8
21
  6
DASHDOT
 62
     7
  5
61B
 10
954138.599
 20
7257921.541
 30
0.0
  0
VERTEX
  8
21
  6
DASHDOT
 62
     7
  5
61C
 10
953838.784
 20
7257932.072
 30
0.0
  0
VERTEX
  8
21
  6
DASHDOT
 62
     7
  5
61D
 10
953836.151
 20
7257857.118
 30
0.0
  0
VERTEX
  8
21
  6
DASHDOT
 62
     7
  5
61E
 10
954135.867
 20
7257846.59
 30
0.0
  0
VERTEX
  8
21
  6
DASHDOT
 62
     7
  5
61F
 10
954135.966
 20
7257846.587
 30
0.0
  0
SEQEND
  8
21
  6
DASHDOT
 62
     7
  5
620
  0
TEXT
  8
22
  6
CONTINUOUS
 62
     3
  5
621
 10
956228.286
 20
7257158.631
 30
0.0
 40
6.0
  1
37.5'
 50
88.0579
  7
txt
 72
     4
 11
956225.6864
 21
7257170.489911
 31
0.0
210
0.0
220
0.0
230
1.0
  0
TEXT
  8
22
  6
CONTINUOUS
 62
     3
  5
622
 10
957492.979
 20
7258275.465
 30
0.0
 40
6.0
  1
2432.49'
 50
87.617897
  7
txt
 72
     1
 11
957493.84693
 21
7258296.328955
 31
0.0
210
0.0
220
0.0
230
1.0
  0
TEXT
  8
13
  6
CONTINUOUS
 62
    14
  5
623
 10
957515.131
 20
7258282.696
 30
0.0
 40
8.0
  1
V2848 P23
 50
87.617942
  7
txt
 72
     1
 11
957516.595839
 21
7258317.909545
 31
0.0
210
0.0
220
0.0
230
1.0
  0
TEXT
  8
22
  6
CONTINUOUS
 62
     3
  5
624
 10
957534.652
 20
7258279.499
 30
0.0
 40
6.0
  1
2598.17'
 50
87.617942
  7
txt
 72
     1
 11
957529.47007
 21
7258299.289477
 31
0.0
210
0.0
220
0.0
230
1.0
 73
     3
  0
TEXT
  8
22
  6
CONTINUOUS
 62
     3
  5
625
 10
954677.427
 20
7257871.457
 30
0.0
 40
6.0
  1
1727'
 50
358.0579
  7
txt
 72
     1
 11
954689.631985
 21
7257871.043141
 31
0.0
210
0.0
220
0.0
230
1.0
  0
TEXT
  8
22
  6
CONTINUOUS
 62
     3
  5
626
 10
953836.338
 20
7257888.57
 30
0.0
 40
6.0
  1
10'
 50
88.0579
  7
txt
 72
     4
 11
953833.547873
 21
7257894.810141
 31
0.0
210
0.0
220
0.0
230
1.0
  0
TEXT
  8
22
  6
CONTINUOUS
 62
     3
  5
627
 10
953858.431
 20
7257932.642
 30
0.0
 40
6.0
  1
300'
 50
357.988358
  7
txt
 72
     1
 11
953868.815342
 21
7257938.280958
 31
0.0
210
0.0
220
0.0
230
1.0
 73
     3
  0
TEXT
  8
22
  6
CONTINUOUS
 62
     3
  5
628
 10
953789.271
 20
7259257.544
 30
0.0
 40
6.0
  1
300'
 50
357.988381
  7
txt
 72
     1
 11
953799.444726
 21
7259257.18666
 31
0.0
210
0.0
220
0.0
230
1.0
  0
TEXT
  8
22
  6
CONTINUOUS
 62
     3
  5
629
 10
953961.429
 20
7259200.349
 30
0.0
 40
6.0
  1
75'
 50
88.0579
  7
txt
 72
     4
 11
953958.67649
 21
7259207.698503
 31
0.0
210
0.0
220
0.0
230
1.0
  0
TEXT
  8
22
  6
CONTINUOUS
 62
     3
  5
62A
 10
953798.843
 20
7259166.638
 30
0.0
 40
6.0
  1
300'
 50
357.988358
  7
txt
 72
     1
 11
953809.227342
 21
7259172.276958
 31
0.0
210
0.0
220
0.0
230
1.0
 73
     3
  0
TEXT
  8
22
  6
CONTINUOUS
 62
     3
  5
62B
 10
953649.484
 20
7259210.926
 30
0.0
 40
6.0
  1
75'
 50
88.0579
  7
txt
 72
     4
 11
953646.73149
 21
7259218.275503
 31
0.0
210
0.0
220
0.0
230
1.0
  0
TEXT
  8
22
  6
CONTINUOUS
 62
     3
  5
62C
 10
953625.411
 20
7258554.886
 30
0.0
 40
6.0
  1
75'
 50
88.0579
  7
txt
 72
     4
 11
953622.65849
 21
7258562.235503
 31
0.0
210
0.0
220
0.0
230
1.0
  0
TEXT
  8
22
  6
CONTINUOUS
 62
     3
  5
62D
 10
953783.19
 20
7258597.076
 30
0.0
 40
6.0
  1
300'
 50
357.988358
  7
txt
 72
     1
 11
953793.574342
 21
7258602.714958
 31
0.0
210
0.0
220
0.0
230
1.0
 73
     3
  0
TEXT
  8
22
  6
CONTINUOUS
 62
     3
  5
62E
 10
952939.807
 20
7262485.246
 30
0.0
 40
6.0
  1
60'
 50
358.1092
  7
txt
 72
     1
 11
952946.865155
 21
7262485.012991
 31
0.0
210
0.0
220
0.0
230
1.0
  0
TEXT
  8
22
  6
CONTINUOUS
 62
     3
  5
62F
 10
953704.012
 20
7260781.416
 30
0.0
 40
6.0
  1
1' SUL
 50
90.0579
  7
txt
 72
     4
 11
953700.999756
 21
7260793.530962
 31
0.0
210
0.0
220
0.0
230
1.0
  0
TEXT
  8
22
  6
CONTINUOUS
 62
     3
  5
630
 10
957431.257
 20
7259889.441
 30
0.0
 40
6.0
  1
250'
 50
357.934942
  7
txt
 72
     1
 11
957441.454373
 21
7259889.073306
 31
0.0
210
0.0
220
0.0
230
1.0
  0
TEXT
  8
11
  6
CONTINUOUS
 62
     7
  5
631
 10
953314.005
 20
7257669.31
 30
0.0
 40
8.0
  1
402'
 50
358.018628
  7
txt
 72
     1
 11
953328.068349
 21
7257676.828261
 31
0.0
210
0.0
220
0.0
230
1.0
 73
     3
  0
TEXT
  8
11
  6
CONTINUOUS
 62
     7
  5
632
 10
953508.08
 20
7257463.505
 30
0.0
 40
8.0
  1
363'
 50
88.0186
  7
txt
 72
     1
 11
953508.544965
 21
7257476.944959
 31
0.0
210
0.0
220
0.0
230
1.0
  0
TEXT
  8
11
  6
CONTINUOUS
 62
     7
  5
633
 10
953120.899
 20
7257493.883
 30
0.0
 40
8.0
  1
380'
 50
88.018681
  7
txt
 72
     1
 11
953113.374192
 21
7257507.757455
 31
0.0
210
0.0
220
0.0
230
1.0
 73
     3
  0
TEXT
  8
11
  6
CONTINUOUS
 62
     7
  5
634
 10
953127.806
 20
7257309.532
 30
0.0
 40
8.0
  1
93.95'
 50
358.018617
  7
txt
 72
     1
 11
953147.068476
 21
7257308.865606
 31
0.0
210
0.0
220
0.0
230
1.0
  0
TEXT
  8
11
  6
CONTINUOUS
 62
     7
  5
635
 10
953210.237
 20
7257306.731
 30
0.0
 40
8.0
  1
74.39'
 50
356.0347
  7
txt
 72
     1
 11
953229.873879
 21
7257305.369806
 31
0.0
210
0.0
220
0.0
230
1.0
  0
TEXT
  8
11
  6
CONTINUOUS
 62
     7
  5
636
 10
953274.473
 20
7257301.716
 30
0.0
 40
8.0
  1
42.87'
 50
354.440783
  7
txt
 72
     1
 11
953294.253525
 21
7257299.790717
 31
0.0
210
0.0
220
0.0
230
1.0
  0
TEXT
  8
11
  6
CONTINUOUS
 62
     7
  5
637
 10
953328.685
 20
7257295.93
 30
0.0
 40
8.0
  1
69.15'
 50
355.882481
  7
txt
 72
     1
 11
953346.495909
 21
7257294.647824
 31
0.0
210
0.0
220
0.0
230
1.0
  0
TEXT
  8
11
  6
CONTINUOUS
 62
     7
  5
638
 10
953411.065
 20
7257291.727
 30
0.0
 40
8.0
  1
96.83'
 50
358.019764
  7
txt
 72
     1
 11
953430.32749
 21
7257291.060992
 31
0.0
210
0.0
220
0.0
230
1.0
  0
TEXT
  8
10
  6
CONTINUOUS
 62
   134
  5
639
 10
953298.34
 20
7257493.609
 30
0.0
 40
13.999
  1
1
  7
txt
 72
     4
 11
953300.544
 21
7257500.609
 31
0.0
210
0.0
220
0.0
230
1.0
  0
TEXT
  8
15
  6
CONTINUOUS
 62
    30
  5
63A
 10
953033.169
 20
7257383.43
 30
0.0
 40
35.0
  1
SLATON HIGHWAY
 50
28.0579
  7
ROMANC
 72
     4
 11
953266.664565
 21
7257527.715265
 31
0.0
210
0.0
220
0.0
230
1.0
  0
TEXT
  8
15
  6
CONTINUOUS
 62
    30
  5
63B
 10
953060.175
 20
7257329.834
 30
0.0
 40
35.0
  1
INDUSTRIAL PARK
 50
28.0579
  7
ROMANC
 72
     4
 11
953295.008393
 21
7257474.832336
 31
0.0
210
0.0
220
0.0
230
1.0
  0
LINE
  8
6
  6
CONTINUOUS
 62
     7
  5
63C
 10
953116.578
 20
7257687.146
 30
0.0
 11
953518.338
 21
7257673.247
 31
0.0
  0
LINE
  8
6
  6
CONTINUOUS
 62
     7
  5
63D
 10
953103.44
 20
7257307.373
 30
0.0
 11
953116.578
 21
7257687.146
 31
0.0
  0
ENDSEC
  0
EOF
