  0
SECTION
  2
HEADER
  9
$ACADVER
  1
AC1009
  9
$INSBASE
 10
0.0
 20
0.0
 30
0.0
  9
$EXTMIN
 10
931615.768
 20
7273635.491
 30
0.0
  9
$EXTMAX
 10
2950181.447
 20
9351567.424
 30
0.0
  9
$LIMMIN
 10
0.0
 20
0.0
  9
$LIMMAX
 10
12.0
 20
9.0
  9
$ORTHOMODE
 70
     0
  9
$REGENMODE
 70
     1
  9
$FILLMODE
 70
     1
  9
$QTEXTMODE
 70
     0
  9
$MIRRTEXT
 70
     1
  9
$DRAGMODE
 70
     2
  9
$LTSCALE
 40
1.0
  9
$OSMODE
 70
     0
  9
$ATTMODE
 70
     1
  9
$TEXTSIZE
 40
0.2
  9
$TRACEWID
 40
0.05
  9
$TEXTSTYLE
  7
STANDARD
  9
$CLAYER
  8
0
  9
$CELTYPE
  6
CONTINUOUS
  9
$CECOLOR
 62
   256
  9
$DIMSCALE
 40
1.0
  9
$DIMASZ
 40
0.18
  9
$DIMEXO
 40
0.0625
  9
$DIMDLI
 40
0.38
  9
$DIMRND
 40
0.0
  9
$DIMDLE
 40
0.0
  9
$DIMEXE
 40
0.18
  9
$DIMTP
 40
0.0
  9
$DIMTM
 40
0.0
  9
$DIMTXT
 40
0.18
  9
$DIMCEN
 40
0.09
  9
$DIMTSZ
 40
0.0
  9
$DIMTOL
 70
     0
  9
$DIMLIM
 70
     0
  9
$DIMTIH
 70
     1
  9
$DIMTOH
 70
     1
  9
$DIMSE1
 70
     0
  9
$DIMSE2
 70
     0
  9
$DIMTAD
 70
     0
  9
$DIMZIN
 70
     0
  9
$DIMBLK
  1

  9
$DIMASO
 70
     1
  9
$DIMSHO
 70
     1
  9
$DIMPOST
  1

  9
$DIMAPOST
  1

  9
$DIMALT
 70
     0
  9
$DIMALTD
 70
     2
  9
$DIMALTF
 40
25.4
  9
$DIMLFAC
 40
1.0
  9
$DIMTOFL
 70
     0
  9
$DIMTVP
 40
0.0
  9
$DIMTIX
 70
     0
  9
$DIMSOXD
 70
     0
  9
$DIMSAH
 70
     0
  9
$DIMBLK1
  1

  9
$DIMBLK2
  1

  9
$DIMSTYLE
  2
STANDARD
  9
$DIMCLRD
 70
     0
  9
$DIMCLRE
 70
     0
  9
$DIMCLRT
 70
     0
  9
$DIMTFAC
 40
1.0
  9
$DIMGAP
 40
0.09
  9
$LUNITS
 70
     2
  9
$LUPREC
 70
     4
  9
$AXISMODE
 70
     0
  9
$AXISUNIT
 10
0.0
 20
0.0
  9
$SKETCHINC
 40
0.1
  9
$FILLETRAD
 40
0.0
  9
$AUNITS
 70
     0
  9
$AUPREC
 70
     0
  9
$MENU
  1
acad
  9
$ELEVATION
 40
0.0
  9
$PELEVATION
 40
0.0
  9
$THICKNESS
 40
0.0
  9
$LIMCHECK
 70
     0
  9
$BLIPMODE
 70
     1
  9
$CHAMFERA
 40
0.0
  9
$CHAMFERB
 40
0.0
  9
$SKPOLY
 70
     0
  9
$TDCREATE
 40
2453013.897835648
  9
$TDUPDATE
 40
2453013.897835648
  9
$TDINDWG
 40
0.0000000000
  9
$TDUSRTIMER
 40
0.0000000000
  9
$USRTIMER
 70
     1
  9
$ANGBASE
 50
0.0
  9
$ANGDIR
 70
     0
  9
$PDMODE
 70
     0
  9
$PDSIZE
 40
0.0
  9
$PLINEWID
 40
0.0
  9
$COORDS
 70
     0
  9
$SPLFRAME
 70
     0
  9
$SPLINETYPE
 70
     6
  9
$SPLINESEGS
 70
    10
  9
$ATTDIA
 70
     0
  9
$ATTREQ
 70
     1
  9
$HANDLING
 70
     1
  9
$HANDSEED
  5
507
  9
$SURFTAB1
 70
     6
  9
$SURFTAB2
 70
     6
  9
$SURFTYPE
 70
     6
  9
$SURFU
 70
     6
  9
$SURFV
 70
     6
  9
$UCSNAME
  2

  9
$UCSORG
 10
0.0
 20
0.0
 30
0.0
  9
$UCSXDIR
 10
1.0
 20
0.0
 30
0.0
  9
$UCSYDIR
 10
0.0
 20
1.0
 30
0.0
  9
$PUCSNAME
  2

  9
$PUCSORG
 10
0.0
 20
0.0
 30
0.0
  9
$PUCSXDIR
 10
1.0
 20
0.0
 30
0.0
  9
$PUCSYDIR
 10
0.0
 20
1.0
 30
0.0
  9
$USERI1
 70
     0
  9
$USERI2
 70
     0
  9
$USERI3
 70
     0
  9
$USERI4
 70
     0
  9
$USERI5
 70
     0
  9
$USERR1
 40
0.0
  9
$USERR2
 40
0.0
  9
$USERR3
 40
0.0
  9
$USERR4
 40
0.0
  9
$USERR5
 40
0.0
  9
$WORLDVIEW
 70
     1
  9
$SHADEDGE
 70
     3
  9
$SHADEDIF
 70
    70
  9
$TILEMODE
 70
     1
  9
$MAXACTVP
 70
    16
  9
$PINSBASE
 10
0.0
 20
0.0
 30
0.0
  9
$PLIMCHECK
 70
     0
  9
$PEXTMIN
 10
-1.000000E+20
 20
-1.000000E+20
 30
-1.000000E+20
  9
$PEXTMAX
 10
-1.000000E+20
 20
-1.000000E+20
 30
-1.000000E+20
  9
$PLIMMIN
 10
0.0
 20
0.0
  9
$PLIMMAX
 10
12.0
 20
9.0
  9
$UNITMODE
 70
     0
  9
$VISRETAIN
 70
     0
  9
$PLINEGEN
 70
     1
  9
$PSLTSCALE
 70
     0
  9
$TREEDEPTH
 70
  3020
  9
$DWGCODEPAGE
  3
ansi_1252
  0
ENDSEC
  0
SECTION
  2
TABLES
  0
TABLE
  2
VPORT
 70
     1
  0
VPORT
  2
*ACTIVE
 70
     0
 10
0.0
 20
0.0
 11
1.0
 21
1.0
 12
0.0
 22
0.0
 13
0.0
 23
0.0
 14
0.0
 24
0.0
 15
0.0
 25
0.0
 16
0.0
 26
0.0
 36
1.0
 17
934067.539811
 27
7276289.939
 37
0.0
 40
5378.54
 41
1.261803
 42
50.0
 43
0.004
 44
0.0
 50
0.0
 51
0.0
 71
     0
 72
   100
 73
     1
 74
     0
 75
     0
 76
     0
 77
     0
 78
     0
  0
ENDTAB
  0
TABLE
  2
LTYPE
 70
     7
  0
LTYPE
  2
CONTINUOUS
 70
     0
  3
Solid line
 72
    65
 73
     0
 40
0.0
  0
LTYPE
  2
DOT
 70
    64
  3
. . . . . . . . . . . . . . . . . . . . . . . . . . . . . . . . .
 72
    65
 73
     2
 40
0.25
 49
0.0
 49
-0.25
  0
LTYPE
  2
HIDDEN
 70
    64
  3
__ __ __ __ __ __ __ __ __ __ __ __ __ __ __ __ __ __ __ __ __ 
 72
    65
 73
     2
 40
0.375
 49
0.25
 49
-0.125
  0
LTYPE
  2
DASHED
 70
    64
  3
__ __ __ __ __ __ __ __ __ __ __ __ __ __ __ __ __ __ __ __ __
 72
    65
 73
     2
 40
0.75
 49
0.5
 49
-0.25
  0
LTYPE
  2
DASHDOT
 70
    64
  3
__ . __ . __ . __ . __ . __ . __ . __ . __ . __ . __ . __ . _
 72
    65
 73
     4
 40
1.0
 49
0.5
 49
-0.25
 49
0.0
 49
-0.25
  0
LTYPE
  2
DIVIDE
 70
    64
  3
____ . . ____ . . ____ . . ____ . . ____ . . ____ . . ____ . .
 72
    65
 73
     6
 40
1.25
 49
0.5
 49
-0.25
 49
0.0
 49
-0.25
 49
0.0
 49
-0.25
  0
LTYPE
  2
CENTER
 70
    64
  3
____ _ ____ _ ____ _ ____ _ ____ _ ____ _ ____ _ ____ _ ____ _
 72
    65
 73
     4
 40
2.0
 49
1.25
 49
-0.25
 49
0.25
 49
-0.25
  0
ENDTAB
  0
TABLE
  2
LAYER
 70
    14
  0
LAYER
  2
0
 70
     0
 62
     7
  6
CONTINUOUS
  0
LAYER
  2
CONSTRUCTION_CLASS
 70
     1
 62
     7
  6
CONTINUOUS
  0
LAYER
  2
PATTERN_CLASS
 70
    64
 62
     7
  6
CONTINUOUS
  0
LAYER
  2
6
 70
    64
 62
     7
  6
CONTINUOUS
  0
LAYER
  2
7
 70
    64
 62
     7
  6
CONTINUOUS
  0
LAYER
  2
10
 70
    64
 62
     7
  6
CONTINUOUS
  0
LAYER
  2
11
 70
    64
 62
     7
  6
CONTINUOUS
  0
LAYER
  2
15
 70
    64
 62
     7
  6
CONTINUOUS
  0
LAYER
  2
19
 70
    64
 62
     7
  6
CONTINUOUS
  0
LAYER
  2
22
 70
    64
 62
     7
  6
CONTINUOUS
  0
LAYER
  2
21
 70
    64
 62
     7
  6
CONTINUOUS
  0
LAYER
  2
13
 70
    64
 62
     7
  6
CONTINUOUS
  0
LAYER
  2
25
 70
    64
 62
     7
  6
CONTINUOUS
  0
LAYER
  2
1
 70
    64
 62
     7
  6
CONTINUOUS
  0
ENDTAB
  0
TABLE
  2
STYLE
 70
     4
  0
STYLE
  2
STANDARD
 70
     0
 40
0.0
 41
1.0
 50
0.0
 71
     0
 42
0.0
  3
txt
  4

  0
STYLE
  2
ROMANS
 70
     0
 40
0.2
 41
1.0
 50
0.0
 71
     0
 42
0.2
  3
ROMANS
  4

  0
STYLE
  2
ROMANC
 70
     0
 40
0.2
 41
1.0
 50
0.0
 71
     0
 42
0.2
  3
ROMANC
  4

  0
STYLE
  2
txt
 70
     0
 40
0.2
 41
1.0
 50
0.0
 71
     0
 42
0.2
  3
TXT
  4

  0
ENDTAB
  0
TABLE
  2
VIEW
 70
     0
  0
ENDTAB
  0
TABLE
  2
UCS
 70
     0
  0
ENDTAB
  0
TABLE
  2
APPID
 70
     1
  0
APPID
  2
ACAD
 70
     0
  0
ENDTAB
  0
TABLE
  2
DIMSTYLE
 70
     1
  0
DIMSTYLE
  2
STANDARD
 70
     0
  3

  4

  5

  6

  7

 40
1.0
 41
0.18
 42
0.0625
 43
0.38
 44
0.18
 45
0.0
 46
0.0
 47
0.0
 48
0.0
140
0.18
141
0.09
142
0.0
143
25.4
144
1.0
145
0.0
146
1.0
147
0.09
 71
     0
 72
     0
 73
     1
 74
     1
 75
     0
 76
     0
 77
     0
 78
     0
170
     0
171
     2
172
     0
173
     0
174
     0
175
     0
176
     0
177
     0
178
     0
  0
ENDTAB
  0
ENDSEC
  0
SECTION
  2
BLOCKS
  0
ENDSEC
  0
SECTION
  2
ENTITIES
  0
LINE
  8
6
  6
CONTINUOUS
 62
     7
  5
29
 10
932208.183
 20
7274442.757
 30
0.0
 11
932552.012
 21
7274431.94
 31
0.0
  0
LINE
  8
6
  6
CONTINUOUS
 62
     7
  5
2A
 10
932552.012
 20
7274431.94
 30
0.0
 11
932556.494
 21
7274574.371
 31
0.0
  0
LINE
  8
6
  6
CONTINUOUS
 62
     7
  5
2B
 10
932213.136
 20
7274600.179
 30
0.0
 11
932208.183
 21
7274442.757
 31
0.0
  0
LINE
  8
6
  6
CONTINUOUS
 62
     7
  5
2C
 10
932213.136
 20
7274600.179
 30
0.0
 11
932541.973
 21
7274589.835
 31
0.0
  0
ARC
  8
6
  6
CONTINUOUS
 62
     7
  5
2D
 10
932541.50115
 20
7274574.841681
 30
0.0
 40
15.0
 50
358.1981
 51
88.1981
210
0.0
220
0.0
230
1.0
  0
POLYLINE
  8
6
  6
CONTINUOUS
 62
     7
  5
2E
 66
     1
 10
0.0
 20
0.0
 30
0.0
  0
VERTEX
  8
6
  6
CONTINUOUS
 62
     7
  5
2F
 10
932553.922
 20
7274969.646
 30
0.0
  0
VERTEX
  8
6
  6
CONTINUOUS
 62
     7
  5
30
 10
932225.084
 20
7274979.992
 30
0.0
  0
VERTEX
  8
6
  6
CONTINUOUS
 62
     7
  5
31
 10
932220.132
 20
7274822.569
 30
0.0
  0
SEQEND
  8
6
  6
CONTINUOUS
 62
     7
  5
32
  0
POLYLINE
  8
6
  6
CONTINUOUS
 62
     7
  5
33
 66
     1
 10
0.0
 20
0.0
 30
0.0
  0
VERTEX
  8
6
  6
CONTINUOUS
 62
     7
  5
34
 10
932220.132
 20
7274822.569
 30
0.0
  0
VERTEX
  8
6
  6
CONTINUOUS
 62
     7
  5
35
 10
932563.962
 20
7274811.752
 30
0.0
  0
VERTEX
  8
6
  6
CONTINUOUS
 62
     7
  5
36
 10
932568.443
 20
7274954.183
 30
0.0
  0
SEQEND
  8
6
  6
CONTINUOUS
 62
     7
  5
37
  0
ARC
  8
6
  6
CONTINUOUS
 62
     7
  5
38
 10
932553.449833
 20
7274954.653778
 30
0.0
 40
15.0
 50
358.1981
 51
88.1981
210
0.0
220
0.0
230
1.0
  0
LINE
  8
6
  6
CONTINUOUS
 62
     7
  5
39
 10
931691.921
 20
7275046.789
 30
0.0
 11
932176.681
 21
7275031.539
 31
0.0
  0
LINE
  8
6
  6
CONTINUOUS
 62
     7
  5
3A
 10
932176.681
 20
7275031.539
 30
0.0
 11
932181.66
 21
7275189.79
 31
0.0
  0
LINE
  8
6
  6
CONTINUOUS
 62
     7
  5
3B
 10
932181.66
 20
7275189.79
 30
0.0
 11
931696.9
 21
7275205.041
 31
0.0
  0
LINE
  8
6
  6
CONTINUOUS
 62
     7
  5
3C
 10
931696.9
 20
7275205.041
 30
0.0
 11
931691.921
 21
7275046.789
 31
0.0
  0
LINE
  8
6
  6
CONTINUOUS
 62
     7
  5
3D
 10
932226.657
 20
7275029.967
 30
0.0
 11
932570.487
 21
7275019.15
 31
0.0
  0
LINE
  8
6
  6
CONTINUOUS
 62
     7
  5
3E
 10
932570.487
 20
7275019.15
 30
0.0
 11
932575.465
 21
7275177.402
 31
0.0
  0
LINE
  8
6
  6
CONTINUOUS
 62
     7
  5
3F
 10
932575.465
 20
7275177.402
 30
0.0
 11
932231.635
 21
7275188.219
 31
0.0
  0
LINE
  8
6
  6
CONTINUOUS
 62
     7
  5
40
 10
932231.635
 20
7275188.219
 30
0.0
 11
932226.657
 21
7275029.967
 31
0.0
  0
ARC
  8
6
  6
CONTINUOUS
 62
     7
  5
41
 10
933191.104033
 20
7274259.348625
 30
0.0
 40
15.0
 50
268.1981
 51
358.1981
210
0.0
220
0.0
230
1.0
  0
LINE
  8
6
  6
CONTINUOUS
 62
     7
  5
42
 10
932604.999
 20
7274212.096
 30
0.0
 11
933204.701
 21
7274193.231
 31
0.0
  0
LINE
  8
6
  6
CONTINUOUS
 62
     7
  5
43
 10
933204.701
 20
7274193.231
 30
0.0
 11
933201.1
 21
7274078.736
 31
0.0
  0
LINE
  8
6
  6
CONTINUOUS
 62
     7
  5
44
 10
933201.1
 20
7274078.736
 30
0.0
 11
932601.396
 21
7274097.603
 31
0.0
  0
LINE
  8
6
  6
CONTINUOUS
 62
     7
  5
45
 10
932601.396
 20
7274097.603
 30
0.0
 11
932604.999
 21
7274212.096
 31
0.0
  0
LINE
  8
6
  6
CONTINUOUS
 62
     7
  5
46
 10
933206.097
 20
7274258.877
 30
0.0
 11
933209.974
 21
7274382.116
 31
0.0
  0
LINE
  8
6
  6
CONTINUOUS
 62
     7
  5
47
 10
933209.974
 20
7274382.116
 30
0.0
 11
932610.27
 21
7274400.982
 31
0.0
  0
LINE
  8
6
  6
CONTINUOUS
 62
     7
  5
48
 10
932610.27
 20
7274400.982
 30
0.0
 11
932605.921
 21
7274262.751
 31
0.0
  0
LINE
  8
6
  6
CONTINUOUS
 62
     7
  5
49
 10
932605.921
 20
7274262.751
 30
0.0
 11
933190.632
 21
7274244.356
 31
0.0
  0
LINE
  8
6
  6
CONTINUOUS
 62
     7
  5
4A
 10
932610.743
 20
7274415.974
 30
0.0
 11
933210.445
 21
7274397.109
 31
0.0
  0
LINE
  8
6
  6
CONTINUOUS
 62
     7
  5
4B
 10
933210.445
 20
7274397.109
 30
0.0
 11
933214.794
 21
7274535.34
 31
0.0
  0
LINE
  8
6
  6
CONTINUOUS
 62
     7
  5
4C
 10
933214.794
 20
7274535.34
 30
0.0
 11
932615.091
 21
7274554.206
 31
0.0
  0
LINE
  8
6
  6
CONTINUOUS
 62
     7
  5
4D
 10
932615.091
 20
7274554.206
 30
0.0
 11
932610.743
 21
7274415.974
 31
0.0
  0
LINE
  8
6
  6
CONTINUOUS
 62
     7
  5
4E
 10
932616.663
 20
7274604.182
 30
0.0
 11
933216.366
 21
7274585.316
 31
0.0
  0
LINE
  8
6
  6
CONTINUOUS
 62
     7
  5
4F
 10
933216.366
 20
7274585.316
 30
0.0
 11
933220.715
 21
7274723.547
 31
0.0
  0
LINE
  8
6
  6
CONTINUOUS
 62
     7
  5
50
 10
933220.715
 20
7274723.547
 30
0.0
 11
932621.012
 21
7274742.413
 31
0.0
  0
LINE
  8
6
  6
CONTINUOUS
 62
     7
  5
51
 10
932621.012
 20
7274742.413
 30
0.0
 11
932616.663
 21
7274604.182
 31
0.0
  0
LINE
  8
6
  6
CONTINUOUS
 62
     7
  5
52
 10
932621.483
 20
7274757.406
 30
0.0
 11
933221.186
 21
7274738.539
 31
0.0
  0
LINE
  8
6
  6
CONTINUOUS
 62
     7
  5
53
 10
933221.186
 20
7274738.539
 30
0.0
 11
933225.535
 21
7274876.772
 31
0.0
  0
LINE
  8
6
  6
CONTINUOUS
 62
     7
  5
54
 10
933225.535
 20
7274876.772
 30
0.0
 11
932625.833
 21
7274895.637
 31
0.0
  0
LINE
  8
6
  6
CONTINUOUS
 62
     7
  5
55
 10
932625.833
 20
7274895.637
 30
0.0
 11
932621.483
 21
7274757.406
 31
0.0
  0
LINE
  8
6
  6
CONTINUOUS
 62
     7
  5
56
 10
932214.708
 20
7274650.155
 30
0.0
 11
932558.538
 21
7274639.338
 31
0.0
  0
LINE
  8
6
  6
CONTINUOUS
 62
     7
  5
57
 10
932558.538
 20
7274639.338
 30
0.0
 11
932563.49
 21
7274796.759
 31
0.0
  0
LINE
  8
6
  6
CONTINUOUS
 62
     7
  5
58
 10
932563.49
 20
7274796.759
 30
0.0
 11
932219.66
 21
7274807.577
 31
0.0
  0
LINE
  8
6
  6
CONTINUOUS
 62
     7
  5
59
 10
932219.66
 20
7274807.577
 30
0.0
 11
932214.708
 21
7274650.155
 31
0.0
  0
LINE
  8
6
  6
CONTINUOUS
 62
     7
  5
5A
 10
932202.917
 20
7274275.34
 30
0.0
 11
932546.747
 21
7274264.523
 31
0.0
  0
LINE
  8
6
  6
CONTINUOUS
 62
     7
  5
5B
 10
932546.747
 20
7274264.523
 30
0.0
 11
932551.542
 21
7274416.948
 31
0.0
  0
LINE
  8
6
  6
CONTINUOUS
 62
     7
  5
5C
 10
932551.542
 20
7274416.948
 30
0.0
 11
932207.712
 21
7274427.764
 31
0.0
  0
LINE
  8
6
  6
CONTINUOUS
 62
     7
  5
5D
 10
932207.712
 20
7274427.764
 30
0.0
 11
932202.917
 21
7274275.34
 31
0.0
  0
LINE
  8
PATTERN_CLASS
  6
CONTINUOUS
 62
    32
  5
5E
 10
2948090.443
 20
9351567.424
 30
0.0
 11
2950181.447
 21
9350434.199
 31
0.0
  0
LINE
  8
PATTERN_CLASS
  6
CONTINUOUS
 62
    32
  5
5F
 10
2948341.363
 20
9351012.22
 30
0.0
 11
2950097.807
 21
9350038.711
 31
0.0
  0
LINE
  8
7
  6
CONTINUOUS
 62
     7
  5
61
 10
931753.139
 20
7274289.49
 30
0.0
 11
931757.934
 21
7274441.914
 31
0.0
  0
LINE
  8
7
  6
CONTINUOUS
 62
     7
  5
62
 10
931853.09
 20
7274286.345
 30
0.0
 11
931857.885
 21
7274438.77
 31
0.0
  0
LINE
  8
7
  6
CONTINUOUS
 62
     7
  5
63
 10
931953.039
 20
7274283.201
 30
0.0
 11
931957.835
 21
7274435.626
 31
0.0
  0
LINE
  8
7
  6
CONTINUOUS
 62
     7
  5
64
 10
932052.99
 20
7274280.057
 30
0.0
 11
932057.785
 21
7274432.48
 31
0.0
  0
LINE
  8
7
  6
CONTINUOUS
 62
     7
  5
65
 10
931758.405
 20
7274456.907
 30
0.0
 11
931763.358
 21
7274614.329
 31
0.0
  0
LINE
  8
7
  6
CONTINUOUS
 62
     7
  5
66
 10
931858.356
 20
7274453.763
 30
0.0
 11
931863.309
 21
7274611.185
 31
0.0
  0
LINE
  8
7
  6
CONTINUOUS
 62
     7
  5
67
 10
931958.307
 20
7274450.618
 30
0.0
 11
931963.259
 21
7274608.041
 31
0.0
  0
LINE
  8
7
  6
CONTINUOUS
 62
     7
  5
68
 10
932058.258
 20
7274447.474
 30
0.0
 11
932063.21
 21
7274604.896
 31
0.0
  0
LINE
  8
7
  6
CONTINUOUS
 62
     7
  5
69
 10
932280.147
 20
7274440.493
 30
0.0
 11
932285.099
 21
7274597.915
 31
0.0
  0
LINE
  8
7
  6
CONTINUOUS
 62
     7
  5
6A
 10
932274.881
 20
7274273.077
 30
0.0
 11
932279.676
 21
7274425.5
 31
0.0
  0
LINE
  8
7
  6
CONTINUOUS
 62
     7
  5
6B
 10
932352.112
 20
7274438.229
 30
0.0
 11
932357.064
 21
7274595.651
 31
0.0
  0
LINE
  8
7
  6
CONTINUOUS
 62
     7
  5
6C
 10
932346.844
 20
7274270.812
 30
0.0
 11
932351.639
 21
7274423.237
 31
0.0
  0
LINE
  8
7
  6
CONTINUOUS
 62
     7
  5
6D
 10
932452.063
 20
7274435.085
 30
0.0
 11
932457.015
 21
7274592.506
 31
0.0
  0
LINE
  8
7
  6
CONTINUOUS
 62
     7
  5
6E
 10
932446.796
 20
7274267.667
 30
0.0
 11
932451.591
 21
7274420.093
 31
0.0
  0
LINE
  8
7
  6
CONTINUOUS
 62
     7
  5
6F
 10
932651.372
 20
7274096.031
 30
0.0
 11
932654.974
 21
7274210.525
 31
0.0
  0
LINE
  8
6
  6
CONTINUOUS
 62
     7
  5
70
 10
931668.181
 20
7274292.162
 30
0.0
 11
932152.941
 21
7274276.912
 31
0.0
  0
LINE
  8
6
  6
CONTINUOUS
 62
     7
  5
71
 10
932152.941
 20
7274276.912
 30
0.0
 11
932157.736
 21
7274429.337
 31
0.0
  0
LINE
  8
6
  6
CONTINUOUS
 62
     7
  5
72
 10
932157.736
 20
7274429.337
 30
0.0
 11
931672.976
 21
7274444.587
 31
0.0
  0
LINE
  8
6
  6
CONTINUOUS
 62
     7
  5
73
 10
931672.976
 20
7274444.587
 30
0.0
 11
931668.181
 21
7274292.162
 31
0.0
  0
LINE
  8
7
  6
CONTINUOUS
 62
     7
  5
74
 10
931764.931
 20
7274664.304
 30
0.0
 11
931769.883
 21
7274821.726
 31
0.0
  0
LINE
  8
7
  6
CONTINUOUS
 62
     7
  5
75
 10
931770.354
 20
7274836.719
 30
0.0
 11
931775.306
 21
7274994.141
 31
0.0
  0
LINE
  8
7
  6
CONTINUOUS
 62
     7
  5
76
 10
931864.88
 20
7274661.16
 30
0.0
 11
931869.833
 21
7274818.582
 31
0.0
  0
LINE
  8
7
  6
CONTINUOUS
 62
     7
  5
77
 10
931870.305
 20
7274833.575
 30
0.0
 11
931875.257
 21
7274990.997
 31
0.0
  0
LINE
  8
7
  6
CONTINUOUS
 62
     7
  5
78
 10
931964.831
 20
7274658.015
 30
0.0
 11
931969.784
 21
7274815.437
 31
0.0
  0
LINE
  8
7
  6
CONTINUOUS
 62
     7
  5
79
 10
931970.256
 20
7274830.43
 30
0.0
 11
931975.208
 21
7274987.853
 31
0.0
  0
LINE
  8
7
  6
CONTINUOUS
 62
     7
  5
7A
 10
932064.782
 20
7274654.871
 30
0.0
 11
932069.734
 21
7274812.294
 31
0.0
  0
LINE
  8
7
  6
CONTINUOUS
 62
     7
  5
7B
 10
932070.206
 20
7274827.286
 30
0.0
 11
932075.159
 21
7274984.707
 31
0.0
  0
LINE
  8
7
  6
CONTINUOUS
 62
     7
  5
7C
 10
932286.672
 20
7274647.891
 30
0.0
 11
932291.624
 21
7274805.312
 31
0.0
  0
LINE
  8
7
  6
CONTINUOUS
 62
     7
  5
7D
 10
932292.096
 20
7274820.306
 30
0.0
 11
932297.048
 21
7274977.727
 31
0.0
  0
LINE
  8
7
  6
CONTINUOUS
 62
     7
  5
7E
 10
932358.636
 20
7274645.627
 30
0.0
 11
932363.589
 21
7274803.049
 31
0.0
  0
LINE
  8
7
  6
CONTINUOUS
 62
     7
  5
7F
 10
932364.061
 20
7274818.042
 30
0.0
 11
932369.014
 21
7274975.463
 31
0.0
  0
LINE
  8
7
  6
CONTINUOUS
 62
     7
  5
80
 10
932458.588
 20
7274642.482
 30
0.0
 11
932463.539
 21
7274799.905
 31
0.0
  0
LINE
  8
7
  6
CONTINUOUS
 62
     7
  5
81
 10
932464.011
 20
7274814.897
 30
0.0
 11
932468.963
 21
7274972.32
 31
0.0
  0
LINE
  8
7
  6
CONTINUOUS
 62
     7
  5
82
 10
932513.987
 20
7274813.325
 30
0.0
 11
932518.939
 21
7274970.747
 31
0.0
  0
LINE
  8
7
  6
CONTINUOUS
 62
     7
  5
83
 10
932298.62
 20
7275027.703
 30
0.0
 11
932303.599
 21
7275185.954
 31
0.0
  0
LINE
  8
7
  6
CONTINUOUS
 62
     7
  5
84
 10
932370.584
 20
7275025.439
 30
0.0
 11
932375.564
 21
7275183.69
 31
0.0
  0
LINE
  8
7
  6
CONTINUOUS
 62
     7
  5
85
 10
932470.536
 20
7275022.295
 30
0.0
 11
932475.514
 21
7275180.546
 31
0.0
  0
LINE
  8
7
  6
CONTINUOUS
 62
     7
  5
86
 10
931776.879
 20
7275044.117
 30
0.0
 11
931781.858
 21
7275202.388
 31
0.0
  0
LINE
  8
7
  6
CONTINUOUS
 62
     7
  5
87
 10
931876.83
 20
7275040.972
 30
0.0
 11
931881.809
 21
7275199.243
 31
0.0
  0
LINE
  8
7
  6
CONTINUOUS
 62
     7
  5
88
 10
931976.78
 20
7275037.828
 30
0.0
 11
931981.759
 21
7275196.1
 31
0.0
  0
LINE
  8
7
  6
CONTINUOUS
 62
     7
  5
89
 10
932076.731
 20
7275034.683
 30
0.0
 11
932081.71
 21
7275192.956
 31
0.0
  0
LINE
  8
7
  6
CONTINUOUS
 62
     7
  5
8A
 10
932671.459
 20
7274755.833
 30
0.0
 11
932675.808
 21
7274894.066
 31
0.0
  0
LINE
  8
7
  6
CONTINUOUS
 62
     7
  5
8B
 10
932721.434
 20
7274754.262
 30
0.0
 11
932725.782
 21
7274892.493
 31
0.0
  0
LINE
  8
7
  6
CONTINUOUS
 62
     7
  5
8C
 10
932771.41
 20
7274752.689
 30
0.0
 11
932775.757
 21
7274890.921
 31
0.0
  0
LINE
  8
7
  6
CONTINUOUS
 62
     7
  5
8D
 10
932821.384
 20
7274751.117
 30
0.0
 11
932825.733
 21
7274889.349
 31
0.0
  0
LINE
  8
7
  6
CONTINUOUS
 62
     7
  5
8E
 10
932871.359
 20
7274749.546
 30
0.0
 11
932875.708
 21
7274887.776
 31
0.0
  0
LINE
  8
7
  6
CONTINUOUS
 62
     7
  5
8F
 10
932921.335
 20
7274747.973
 30
0.0
 11
932925.683
 21
7274886.204
 31
0.0
  0
LINE
  8
7
  6
CONTINUOUS
 62
     7
  5
90
 10
932971.31
 20
7274746.4
 30
0.0
 11
932975.66
 21
7274884.633
 31
0.0
  0
LINE
  8
7
  6
CONTINUOUS
 62
     7
  5
91
 10
933021.285
 20
7274744.829
 30
0.0
 11
933025.635
 21
7274883.06
 31
0.0
  0
LINE
  8
7
  6
CONTINUOUS
 62
     7
  5
92
 10
933071.26
 20
7274743.256
 30
0.0
 11
933075.609
 21
7274881.489
 31
0.0
  0
LINE
  8
7
  6
CONTINUOUS
 62
     7
  5
93
 10
933121.237
 20
7274741.683
 30
0.0
 11
933125.584
 21
7274879.916
 31
0.0
  0
LINE
  8
7
  6
CONTINUOUS
 62
     7
  5
94
 10
933171.211
 20
7274740.112
 30
0.0
 11
933175.56
 21
7274878.343
 31
0.0
  0
LINE
  8
7
  6
CONTINUOUS
 62
     7
  5
95
 10
932666.639
 20
7274602.609
 30
0.0
 11
932670.986
 21
7274740.842
 31
0.0
  0
LINE
  8
7
  6
CONTINUOUS
 62
     7
  5
96
 10
932716.614
 20
7274601.036
 30
0.0
 11
932720.962
 21
7274739.269
 31
0.0
  0
LINE
  8
7
  6
CONTINUOUS
 62
     7
  5
97
 10
932766.589
 20
7274599.466
 30
0.0
 11
932770.937
 21
7274737.696
 31
0.0
  0
LINE
  8
7
  6
CONTINUOUS
 62
     7
  5
98
 10
932816.563
 20
7274597.893
 30
0.0
 11
932820.913
 21
7274736.125
 31
0.0
  0
LINE
  8
7
  6
CONTINUOUS
 62
     7
  5
99
 10
932866.539
 20
7274596.321
 30
0.0
 11
932870.888
 21
7274734.552
 31
0.0
  0
LINE
  8
7
  6
CONTINUOUS
 62
     7
  5
9A
 10
932916.514
 20
7274594.749
 30
0.0
 11
932920.864
 21
7274732.98
 31
0.0
  0
LINE
  8
7
  6
CONTINUOUS
 62
     7
  5
9B
 10
932966.49
 20
7274593.176
 30
0.0
 11
932970.839
 21
7274731.409
 31
0.0
  0
LINE
  8
7
  6
CONTINUOUS
 62
     7
  5
9C
 10
933016.466
 20
7274591.604
 30
0.0
 11
933020.814
 21
7274729.836
 31
0.0
  0
LINE
  8
7
  6
CONTINUOUS
 62
     7
  5
9D
 10
933066.441
 20
7274590.032
 30
0.0
 11
933070.789
 21
7274728.263
 31
0.0
  0
LINE
  8
7
  6
CONTINUOUS
 62
     7
  5
9E
 10
933116.416
 20
7274588.459
 30
0.0
 11
933120.764
 21
7274726.692
 31
0.0
  0
LINE
  8
7
  6
CONTINUOUS
 62
     7
  5
9F
 10
933166.39
 20
7274586.888
 30
0.0
 11
933170.739
 21
7274725.119
 31
0.0
  0
LINE
  8
7
  6
CONTINUOUS
 62
     7
  5
A0
 10
932660.717
 20
7274414.403
 30
0.0
 11
932665.066
 21
7274552.634
 31
0.0
  0
LINE
  8
7
  6
CONTINUOUS
 62
     7
  5
A1
 10
932710.692
 20
7274412.831
 30
0.0
 11
932715.041
 21
7274551.062
 31
0.0
  0
LINE
  8
7
  6
CONTINUOUS
 62
     7
  5
A2
 10
932760.668
 20
7274411.258
 30
0.0
 11
932765.016
 21
7274549.49
 31
0.0
  0
LINE
  8
7
  6
CONTINUOUS
 62
     7
  5
A3
 10
932810.643
 20
7274409.686
 30
0.0
 11
932814.992
 21
7274547.918
 31
0.0
  0
LINE
  8
7
  6
CONTINUOUS
 62
     7
  5
A4
 10
932860.618
 20
7274408.114
 30
0.0
 11
932864.967
 21
7274546.346
 31
0.0
  0
LINE
  8
7
  6
CONTINUOUS
 62
     7
  5
A5
 10
932910.594
 20
7274406.542
 30
0.0
 11
932914.942
 21
7274544.774
 31
0.0
  0
LINE
  8
7
  6
CONTINUOUS
 62
     7
  5
A6
 10
932960.569
 20
7274404.969
 30
0.0
 11
932964.918
 21
7274543.201
 31
0.0
  0
LINE
  8
7
  6
CONTINUOUS
 62
     7
  5
A7
 10
933010.544
 20
7274403.397
 30
0.0
 11
933014.893
 21
7274541.629
 31
0.0
  0
LINE
  8
7
  6
CONTINUOUS
 62
     7
  5
A8
 10
933060.519
 20
7274401.825
 30
0.0
 11
933064.868
 21
7274540.057
 31
0.0
  0
LINE
  8
7
  6
CONTINUOUS
 62
     7
  5
A9
 10
933110.495
 20
7274400.253
 30
0.0
 11
933114.843
 21
7274538.484
 31
0.0
  0
LINE
  8
7
  6
CONTINUOUS
 62
     7
  5
AA
 10
933160.47
 20
7274398.681
 30
0.0
 11
933164.819
 21
7274536.912
 31
0.0
  0
LINE
  8
7
  6
CONTINUOUS
 62
     7
  5
AB
 10
932655.897
 20
7274261.179
 30
0.0
 11
932660.245
 21
7274399.41
 31
0.0
  0
LINE
  8
6
  6
CONTINUOUS
 62
     7
  5
AC
 10
934327.526
 20
7273791.38
 30
0.0
 11
936770.396
 21
7273712.491
 31
0.0
  0
LINE
  8
7
  6
CONTINUOUS
 62
     7
  5
AD
 10
932705.872
 20
7274259.606
 30
0.0
 11
932710.221
 21
7274397.838
 31
0.0
  0
LINE
  8
7
  6
CONTINUOUS
 62
     7
  5
AE
 10
932750.851
 20
7274258.192
 30
0.0
 11
932755.199
 21
7274396.422
 31
0.0
  0
LINE
  8
7
  6
CONTINUOUS
 62
     7
  5
AF
 10
932775.838
 20
7274257.406
 30
0.0
 11
932780.186
 21
7274395.636
 31
0.0
  0
LINE
  8
7
  6
CONTINUOUS
 62
     7
  5
B0
 10
932800.826
 20
7274256.619
 30
0.0
 11
932805.174
 21
7274394.852
 31
0.0
  0
LINE
  8
7
  6
CONTINUOUS
 62
     7
  5
B1
 10
932825.813
 20
7274255.833
 30
0.0
 11
932830.162
 21
7274394.065
 31
0.0
  0
LINE
  8
7
  6
CONTINUOUS
 62
     7
  5
B2
 10
932850.801
 20
7274255.047
 30
0.0
 11
932855.149
 21
7274393.279
 31
0.0
  0
LINE
  8
7
  6
CONTINUOUS
 62
     7
  5
B3
 10
932875.788
 20
7274254.261
 30
0.0
 11
932880.137
 21
7274392.493
 31
0.0
  0
LINE
  8
7
  6
CONTINUOUS
 62
     7
  5
B4
 10
932905.774
 20
7274253.318
 30
0.0
 11
932910.122
 21
7274391.549
 31
0.0
  0
LINE
  8
7
  6
CONTINUOUS
 62
     7
  5
B5
 10
932935.759
 20
7274252.375
 30
0.0
 11
932940.107
 21
7274390.605
 31
0.0
  0
LINE
  8
7
  6
CONTINUOUS
 62
     7
  5
B6
 10
932960.746
 20
7274251.588
 30
0.0
 11
932965.095
 21
7274389.82
 31
0.0
  0
LINE
  8
7
  6
CONTINUOUS
 62
     7
  5
B7
 10
932985.734
 20
7274250.802
 30
0.0
 11
932990.082
 21
7274389.034
 31
0.0
  0
LINE
  8
7
  6
CONTINUOUS
 62
     7
  5
B8
 10
933010.722
 20
7274250.017
 30
0.0
 11
933015.07
 21
7274388.247
 31
0.0
  0
LINE
  8
7
  6
CONTINUOUS
 62
     7
  5
B9
 10
933040.707
 20
7274249.073
 30
0.0
 11
933045.055
 21
7274387.304
 31
0.0
  0
LINE
  8
7
  6
CONTINUOUS
 62
     7
  5
BA
 10
933070.692
 20
7274248.129
 30
0.0
 11
933075.04
 21
7274386.361
 31
0.0
  0
LINE
  8
7
  6
CONTINUOUS
 62
     7
  5
BB
 10
933095.68
 20
7274247.343
 30
0.0
 11
933100.028
 21
7274385.575
 31
0.0
  0
LINE
  8
7
  6
CONTINUOUS
 62
     7
  5
BC
 10
933120.667
 20
7274246.557
 30
0.0
 11
933125.016
 21
7274384.789
 31
0.0
  0
LINE
  8
7
  6
CONTINUOUS
 62
     7
  5
BD
 10
933145.655
 20
7274245.77
 30
0.0
 11
933150.003
 21
7274384.003
 31
0.0
  0
LINE
  8
7
  6
CONTINUOUS
 62
     7
  5
BE
 10
933170.642
 20
7274244.985
 30
0.0
 11
933174.991
 21
7274383.216
 31
0.0
  0
LINE
  8
7
  6
CONTINUOUS
 62
     7
  5
BF
 10
932701.347
 20
7274094.458
 30
0.0
 11
932704.949
 21
7274208.952
 31
0.0
  0
LINE
  8
7
  6
CONTINUOUS
 62
     7
  5
C0
 10
932751.322
 20
7274092.886
 30
0.0
 11
932754.923
 21
7274207.381
 31
0.0
  0
LINE
  8
7
  6
CONTINUOUS
 62
     7
  5
C1
 10
932801.297
 20
7274091.315
 30
0.0
 11
932804.899
 21
7274205.808
 31
0.0
  0
LINE
  8
7
  6
CONTINUOUS
 62
     7
  5
C2
 10
932851.274
 20
7274089.743
 30
0.0
 11
932854.875
 21
7274204.235
 31
0.0
  0
LINE
  8
7
  6
CONTINUOUS
 62
     7
  5
C3
 10
932901.249
 20
7274088.17
 30
0.0
 11
932904.85
 21
7274202.664
 31
0.0
  0
LINE
  8
7
  6
CONTINUOUS
 62
     7
  5
C4
 10
932951.223
 20
7274086.598
 30
0.0
 11
932954.826
 21
7274201.091
 31
0.0
  0
LINE
  8
7
  6
CONTINUOUS
 62
     7
  5
C5
 10
933001.199
 20
7274085.026
 30
0.0
 11
933004.801
 21
7274199.518
 31
0.0
  0
LINE
  8
7
  6
CONTINUOUS
 62
     7
  5
C6
 10
933051.174
 20
7274083.453
 30
0.0
 11
933054.776
 21
7274197.947
 31
0.0
  0
LINE
  8
7
  6
CONTINUOUS
 62
     7
  5
C7
 10
933101.149
 20
7274081.881
 30
0.0
 11
933104.751
 21
7274196.375
 31
0.0
  0
LINE
  8
7
  6
CONTINUOUS
 62
     7
  5
C8
 10
933151.124
 20
7274080.309
 30
0.0
 11
933154.726
 21
7274194.802
 31
0.0
  0
TEXT
  8
10
  6
CONTINUOUS
 62
   134
  5
CB
 10
931824.366
 20
7275295.294
 30
0.0
 40
13.999
  1
1
 50
358.1981
  7
ROMANS
 11
931824.806183
 21
7275309.286078
 31
0.0
210
0.0
220
0.0
230
1.0
 73
     3
  0
TEXT
  8
10
  6
CONTINUOUS
 62
   134
  5
CC
 10
932055.541
 20
7275281.675
 30
0.0
 40
13.999
  1
2
 50
358.1981
  7
ROMANS
 11
932055.981183
 21
7275295.667078
 31
0.0
210
0.0
220
0.0
230
1.0
 73
     3
  0
TEXT
  8
10
  6
CONTINUOUS
 62
   134
  5
CD
 10
932336.347
 20
7275089.048
 30
0.0
 40
13.999
  1
2
 50
358.1981
  7
ROMANS
 11
932336.787183
 21
7275103.040078
 31
0.0
210
0.0
220
0.0
230
1.0
 73
     3
  0
TEXT
  8
10
  6
CONTINUOUS
 62
   134
  5
CE
 10
932266.719
 20
7275094.412
 30
0.0
 40
13.999
  1
1
 50
358.1981
  7
ROMANS
 11
932267.159183
 21
7275108.404078
 31
0.0
210
0.0
220
0.0
230
1.0
 73
     3
  0
TEXT
  8
10
  6
CONTINUOUS
 62
   134
  5
CF
 10
932421.924
 20
7275086.356
 30
0.0
 40
13.999
  1
3
 50
358.1981
  7
ROMANS
 11
932422.364183
 21
7275100.348078
 31
0.0
210
0.0
220
0.0
230
1.0
 73
     3
  0
TEXT
  8
10
  6
CONTINUOUS
 62
   134
  5
D0
 10
932517.009
 20
7275083.364
 30
0.0
 40
13.999
  1
4
 50
358.1981
  7
ROMANS
 11
932517.449183
 21
7275097.356078
 31
0.0
210
0.0
220
0.0
230
1.0
 73
     3
  0
TEXT
  8
10
  6
CONTINUOUS
 62
   134
  5
D1
 10
931734.264
 20
7275117.439
 30
0.0
 40
13.999
  1
1
 50
358.1981
  7
ROMANS
 11
931734.704183
 21
7275131.431078
 31
0.0
210
0.0
220
0.0
230
1.0
 73
     3
  0
TEXT
  8
10
  6
CONTINUOUS
 62
   134
  5
D2
 10
931826.477
 20
7275112.007
 30
0.0
 40
13.999
  1
2
 50
358.1981
  7
ROMANS
 11
931826.917183
 21
7275125.999078
 31
0.0
210
0.0
220
0.0
230
1.0
 73
     3
  0
TEXT
  8
10
  6
CONTINUOUS
 62
   134
  5
D3
 10
931926.276
 20
7275106.335
 30
0.0
 40
13.999
  1
3
 50
358.1981
  7
ROMANS
 11
931926.716183
 21
7275120.327078
 31
0.0
210
0.0
220
0.0
230
1.0
 73
     3
  0
TEXT
  8
10
  6
CONTINUOUS
 62
   134
  5
D4
 10
932026.234
 20
7275105.723
 30
0.0
 40
13.999
  1
4
 50
358.1981
  7
ROMANS
 11
932026.674183
 21
7275119.715078
 31
0.0
210
0.0
220
0.0
230
1.0
 73
     3
  0
TEXT
  8
10
  6
CONTINUOUS
 62
   134
  5
D5
 10
932126.152
 20
7275103.845
 30
0.0
 40
13.999
  1
5
 50
358.1981
  7
ROMANS
 11
932126.592183
 21
7275117.837078
 31
0.0
210
0.0
220
0.0
230
1.0
 73
     3
  0
TEXT
  8
10
  6
CONTINUOUS
 62
   134
  5
D6
 10
931727.7
 20
7274908.78
 30
0.0
 40
13.999
  1
1
 50
358.1981
  7
ROMANS
 11
931728.140183
 21
7274922.772078
 31
0.0
210
0.0
220
0.0
230
1.0
 73
     3
  0
TEXT
  8
10
  6
CONTINUOUS
 62
   134
  5
D7
 10
931819.914
 20
7274903.347
 30
0.0
 40
13.999
  1
2
 50
358.1981
  7
ROMANS
 11
931820.354183
 21
7274917.339078
 31
0.0
210
0.0
220
0.0
230
1.0
 73
     3
  0
TEXT
  8
10
  6
CONTINUOUS
 62
   134
  5
D8
 10
931919.712
 20
7274897.676
 30
0.0
 40
13.999
  1
3
 50
358.1981
  7
ROMANS
 11
931920.152183
 21
7274911.668078
 31
0.0
210
0.0
220
0.0
230
1.0
 73
     3
  0
TEXT
  8
10
  6
CONTINUOUS
 62
   134
  5
D9
 10
932019.67
 20
7274897.063
 30
0.0
 40
13.999
  1
4
 50
358.1981
  7
ROMANS
 11
932020.110183
 21
7274911.055078
 31
0.0
210
0.0
220
0.0
230
1.0
 73
     3
  0
TEXT
  8
10
  6
CONTINUOUS
 62
   134
  5
DA
 10
932119.588
 20
7274895.185
 30
0.0
 40
13.999
  1
5
 50
358.1981
  7
ROMANS
 11
932120.028183
 21
7274909.177078
 31
0.0
210
0.0
220
0.0
230
1.0
 73
     3
  0
TEXT
  8
10
  6
CONTINUOUS
 62
   134
  5
DB
 10
931723.554
 20
7274736.755
 30
0.0
 40
13.999
  1
6
 50
358.1981
  7
ROMANS
 11
931723.994183
 21
7274750.747078
 31
0.0
210
0.0
220
0.0
230
1.0
 73
     3
  0
TEXT
  8
10
  6
CONTINUOUS
 62
   134
  5
DC
 10
931813.238
 20
7274731.401
 30
0.0
 40
13.999
  1
7
 50
358.1981
  7
ROMANS
 11
931813.678183
 21
7274745.393078
 31
0.0
210
0.0
220
0.0
230
1.0
 73
     3
  0
TEXT
  8
10
  6
CONTINUOUS
 62
   134
  5
DD
 10
931914.302
 20
7274725.69
 30
0.0
 40
13.999
  1
8
 50
358.1981
  7
ROMANS
 11
931914.742183
 21
7274739.682078
 31
0.0
210
0.0
220
0.0
230
1.0
 73
     3
  0
TEXT
  8
10
  6
CONTINUOUS
 62
   134
  5
DE
 10
932015.404
 20
7274721.243
 30
0.0
 40
13.999
  1
9
 50
358.1981
  7
ROMANS
 11
932015.844183
 21
7274735.235078
 31
0.0
210
0.0
220
0.0
230
1.0
 73
     3
  0
TEXT
  8
10
  6
CONTINUOUS
 62
   134
  5
DF
 10
932107.698
 20
7274718.34
 30
0.0
 40
13.999
  1
10
 50
358.1981
  7
ROMANS
 11
932108.138183
 21
7274732.332078
 31
0.0
210
0.0
220
0.0
230
1.0
 73
     3
  0
TEXT
  8
10
  6
CONTINUOUS
 62
   134
  5
E0
 10
932257.316
 20
7274888.322
 30
0.0
 40
13.999
  1
1
 50
358.1981
  7
ROMANS
 11
932257.756183
 21
7274902.314078
 31
0.0
210
0.0
220
0.0
230
1.0
 73
     3
  0
TEXT
  8
10
  6
CONTINUOUS
 62
   134
  5
E1
 10
932328.118
 20
7274886.093
 30
0.0
 40
13.999
  1
2
 50
358.1981
  7
ROMANS
 11
932328.558183
 21
7274900.085078
 31
0.0
210
0.0
220
0.0
230
1.0
 73
     3
  0
TEXT
  8
10
  6
CONTINUOUS
 62
   134
  5
E2
 10
932411.599
 20
7274884.733
 30
0.0
 40
13.999
  1
3
 50
358.1981
  7
ROMANS
 11
932412.039183
 21
7274898.725078
 31
0.0
210
0.0
220
0.0
230
1.0
 73
     3
  0
TEXT
  8
10
  6
CONTINUOUS
 62
   134
  5
E3
 10
932481.055
 20
7274880.016
 30
0.0
 40
13.999
  1
4A
 50
358.1981
  7
ROMANS
 11
932481.495183
 21
7274894.008078
 31
0.0
210
0.0
220
0.0
230
1.0
 73
     3
  0
TEXT
  8
10
  6
CONTINUOUS
 62
   134
  5
E4
 10
932530.403
 20
7274879.73
 30
0.0
 40
13.999
  1
4B
 50
358.1981
  7
ROMANS
 11
932530.843183
 21
7274893.722078
 31
0.0
210
0.0
220
0.0
230
1.0
 73
     3
  0
TEXT
  8
10
  6
CONTINUOUS
 62
   134
  5
E5
 10
932249.418
 20
7274717.679
 30
0.0
 40
13.999
  1
5
 50
358.1981
  7
ROMANS
 11
932249.858183
 21
7274731.671078
 31
0.0
210
0.0
220
0.0
230
1.0
 73
     3
  0
TEXT
  8
10
  6
CONTINUOUS
 62
   134
  5
E6
 10
932320.177
 20
7274714.187
 30
0.0
 40
13.999
  1
6
 50
358.1981
  7
ROMANS
 11
932320.617183
 21
7274728.179078
 31
0.0
210
0.0
220
0.0
230
1.0
 73
     3
  0
TEXT
  8
10
  6
CONTINUOUS
 62
   134
  5
E7
 10
932406.069
 20
7274708.953
 30
0.0
 40
13.999
  1
7
 50
358.1981
  7
ROMANS
 11
932406.509183
 21
7274722.945078
 31
0.0
210
0.0
220
0.0
230
1.0
 73
     3
  0
TEXT
  8
10
  6
CONTINUOUS
 62
   134
  5
E8
 10
932507.251
 20
7274707.037
 30
0.0
 40
13.999
  1
8
 50
358.1981
  7
ROMANS
 11
932507.691183
 21
7274721.029078
 31
0.0
210
0.0
220
0.0
230
1.0
 73
     3
  0
TEXT
  8
10
  6
CONTINUOUS
 62
   134
  5
E9
 10
932271.088
 20
7275268.019
 30
0.0
 40
13.999
  1
2A
 50
358.1981
  7
ROMANS
 11
932271.528183
 21
7275282.011078
 31
0.0
210
0.0
220
0.0
230
1.0
 73
     3
  0
TEXT
  8
10
  6
CONTINUOUS
 62
   134
  5
EA
 10
932469.589
 20
7275302.282
 30
0.0
 40
13.999
  1
3
 50
358.1981
  7
ROMANS
 11
932470.029183
 21
7275316.274078
 31
0.0
210
0.0
220
0.0
230
1.0
 73
     3
  0
TEXT
  8
10
  6
CONTINUOUS
 62
   134
  5
EB
 10
931716.269
 20
7274528.609
 30
0.0
 40
13.999
  1
1
 50
358.1981
  7
ROMANS
 11
931716.709183
 21
7274542.601078
 31
0.0
210
0.0
220
0.0
230
1.0
 73
     3
  0
TEXT
  8
10
  6
CONTINUOUS
 62
   134
  5
EC
 10
931809.153
 20
7274524.593
 30
0.0
 40
13.999
  1
2
 50
358.1981
  7
ROMANS
 11
931809.593183
 21
7274538.585078
 31
0.0
210
0.0
220
0.0
230
1.0
 73
     3
  0
TEXT
  8
10
  6
CONTINUOUS
 62
   134
  5
ED
 10
931909.656
 20
7274519.242
 30
0.0
 40
13.999
  1
3
 50
358.1981
  7
ROMANS
 11
931910.096183
 21
7274533.234078
 31
0.0
210
0.0
220
0.0
230
1.0
 73
     3
  0
TEXT
  8
10
  6
CONTINUOUS
 62
   134
  5
EE
 10
932008.008
 20
7274515.053
 30
0.0
 40
13.999
  1
4
 50
358.1981
  7
ROMANS
 11
932008.448183
 21
7274529.045078
 31
0.0
210
0.0
220
0.0
230
1.0
 73
     3
  0
TEXT
  8
10
  6
CONTINUOUS
 62
   134
  5
EF
 10
932108.648
 20
7274514.077
 30
0.0
 40
13.999
  1
5
 50
358.1981
  7
ROMANS
 11
932109.088183
 21
7274528.069078
 31
0.0
210
0.0
220
0.0
230
1.0
 73
     3
  0
TEXT
  8
10
  6
CONTINUOUS
 62
   134
  5
F0
 10
931710.938
 20
7274359.127
 30
0.0
 40
13.999
  1
6
 50
358.1981
  7
ROMANS
 11
931711.378183
 21
7274373.119078
 31
0.0
210
0.0
220
0.0
230
1.0
 73
     3
  0
TEXT
  8
10
  6
CONTINUOUS
 62
   134
  5
F1
 10
931803.857
 20
7274356.203
 30
0.0
 40
13.999
  1
7
 50
358.1981
  7
ROMANS
 11
931804.297183
 21
7274370.195078
 31
0.0
210
0.0
220
0.0
230
1.0
 73
     3
  0
TEXT
  8
10
  6
CONTINUOUS
 62
   134
  5
F2
 10
931902.379
 20
7274357.482
 30
0.0
 40
13.999
  1
8
 50
358.1981
  7
ROMANS
 11
931902.819183
 21
7274371.474078
 31
0.0
210
0.0
220
0.0
230
1.0
 73
     3
  0
TEXT
  8
10
  6
CONTINUOUS
 62
   134
  5
F3
 10
932000.66
 20
7274351.106
 30
0.0
 40
13.999
  1
9
 50
358.1981
  7
ROMANS
 11
932001.100183
 21
7274365.098078
 31
0.0
210
0.0
220
0.0
230
1.0
 73
     3
  0
TEXT
  8
10
  6
CONTINUOUS
 62
   134
  5
F4
 10
932095.733
 20
7274347.021
 30
0.0
 40
13.999
  1
10
 50
358.1981
  7
ROMANS
 11
932096.173183
 21
7274361.013078
 31
0.0
210
0.0
220
0.0
230
1.0
 73
     3
  0
TEXT
  8
10
  6
CONTINUOUS
 62
   134
  5
F5
 10
932245.19
 20
7274506.497
 30
0.0
 40
13.999
  1
1
 50
358.1981
  7
ROMANS
 11
932245.630183
 21
7274520.489078
 31
0.0
210
0.0
220
0.0
230
1.0
 73
     3
  0
TEXT
  8
10
  6
CONTINUOUS
 62
   134
  5
F6
 10
932315.221
 20
7274506.483
 30
0.0
 40
13.999
  1
2
 50
358.1981
  7
ROMANS
 11
932315.661183
 21
7274520.475078
 31
0.0
210
0.0
220
0.0
230
1.0
 73
     3
  0
TEXT
  8
10
  6
CONTINUOUS
 62
   134
  5
F7
 10
932400.384
 20
7274500.52
 30
0.0
 40
13.999
  1
3
 50
358.1981
  7
ROMANS
 11
932400.824183
 21
7274514.512078
 31
0.0
210
0.0
220
0.0
230
1.0
 73
     3
  0
TEXT
  8
10
  6
CONTINUOUS
 62
   134
  5
F8
 10
932468.23
 20
7274500.574
 30
0.0
 40
13.999
  1
4A
 50
358.1981
  7
ROMANS
 11
932468.670183
 21
7274514.566078
 31
0.0
210
0.0
220
0.0
230
1.0
 73
     3
  0
TEXT
  8
10
  6
CONTINUOUS
 62
   134
  5
F9
 10
932236.819
 20
7274344.772
 30
0.0
 40
13.999
  1
5
 50
358.1981
  7
ROMANS
 11
932237.259183
 21
7274358.764078
 31
0.0
210
0.0
220
0.0
230
1.0
 73
     3
  0
TEXT
  8
10
  6
CONTINUOUS
 62
   134
  5
FA
 10
932309.002
 20
7274343.595
 30
0.0
 40
13.999
  1
6
 50
358.1981
  7
ROMANS
 11
932309.442183
 21
7274357.587078
 31
0.0
210
0.0
220
0.0
230
1.0
 73
     3
  0
TEXT
  8
10
  6
CONTINUOUS
 62
   134
  5
FB
 10
932393.176
 20
7274340.946
 30
0.0
 40
13.999
  1
7
 50
358.1981
  7
ROMANS
 11
932393.616183
 21
7274354.938078
 31
0.0
210
0.0
220
0.0
230
1.0
 73
     3
  0
TEXT
  8
10
  6
CONTINUOUS
 62
   134
  5
FC
 10
932496.924
 20
7274334.4
 30
0.0
 40
13.999
  1
8
 50
358.1981
  7
ROMANS
 11
932497.364183
 21
7274348.392078
 31
0.0
210
0.0
220
0.0
230
1.0
 73
     3
  0
LINE
  8
7
  6
CONTINUOUS
 62
     7
  5
FD
 10
932502.037
 20
7274433.512
 30
0.0
 11
932506.99
 21
7274590.935
 31
0.0
  0
TEXT
  8
10
  6
CONTINUOUS
 62
   134
  5
FE
 10
932518.515
 20
7274498.993
 30
0.0
 40
13.999
  1
4B
 50
358.1981
  7
ROMANS
 11
932518.955183
 21
7274512.985078
 31
0.0
210
0.0
220
0.0
230
1.0
 73
     3
  0
TEXT
  8
10
  6
CONTINUOUS
 62
   134
  5
FF
 10
931895.33
 20
7274098.331
 30
0.0
 40
13.999
  1
1
 50
358.1981
  7
ROMANS
 11
931895.770183
 21
7274112.323078
 31
0.0
210
0.0
220
0.0
230
1.0
 73
     3
  0
TEXT
  8
10
  6
CONTINUOUS
 62
   134
  5
100
 10
932055.815
 20
7273912.688
 30
0.0
 40
13.999
  1
2
 50
358.1981
  7
ROMANS
 11
932056.255183
 21
7273926.680078
 31
0.0
210
0.0
220
0.0
230
1.0
 73
     3
  0
TEXT
  8
10
  6
CONTINUOUS
 62
   134
  5
101
 10
931717.924
 20
7273920.035
 30
0.0
 40
13.999
  1
3
 50
358.1981
  7
ROMANS
 11
931718.364183
 21
7273934.027078
 31
0.0
210
0.0
220
0.0
230
1.0
 73
     3
  0
TEXT
  8
10
  6
CONTINUOUS
 62
   134
  5
102
 10
932321.965
 20
7273959.251
 30
0.0
 40
13.999
  1
1
 50
358.1981
  7
ROMANS
 11
932322.405183
 21
7273973.243078
 31
0.0
210
0.0
220
0.0
230
1.0
 73
     3
  0
TEXT
  8
10
  6
CONTINUOUS
 62
   134
  5
103
 10
932347.177
 20
7273960.647
 30
0.0
 40
13.999
  1
2
 50
358.1981
  7
ROMANS
 11
932347.617183
 21
7273974.639078
 31
0.0
210
0.0
220
0.0
230
1.0
 73
     3
  0
TEXT
  8
10
  6
CONTINUOUS
 62
   134
  5
104
 10
932372.251
 20
7273957.669
 30
0.0
 40
13.999
  1
3
 50
358.1981
  7
ROMANS
 11
932372.691183
 21
7273971.661078
 31
0.0
210
0.0
220
0.0
230
1.0
 73
     3
  0
TEXT
  8
10
  6
CONTINUOUS
 62
   134
  5
105
 10
932397.359
 20
7273955.785
 30
0.0
 40
13.999
  1
4
 50
358.1981
  7
ROMANS
 11
932397.799183
 21
7273969.777078
 31
0.0
210
0.0
220
0.0
230
1.0
 73
     3
  0
TEXT
  8
10
  6
CONTINUOUS
 62
   134
  5
106
 10
932423.629
 20
7273956.052
 30
0.0
 40
13.999
  1
5
 50
358.1981
  7
ROMANS
 11
932424.069183
 21
7273970.044078
 31
0.0
210
0.0
220
0.0
230
1.0
 73
     3
  0
TEXT
  8
10
  6
CONTINUOUS
 62
   134
  5
107
 10
932448.738
 20
7273954.168
 30
0.0
 40
13.999
  1
6
 50
358.1981
  7
ROMANS
 11
932449.178183
 21
7273968.160078
 31
0.0
210
0.0
220
0.0
230
1.0
 73
     3
  0
TEXT
  8
10
  6
CONTINUOUS
 62
   134
  5
108
 10
932473.915
 20
7273954.471
 30
0.0
 40
13.999
  1
7
 50
358.1981
  7
ROMANS
 11
932474.355183
 21
7273968.463078
 31
0.0
210
0.0
220
0.0
230
1.0
 73
     3
  0
TEXT
  8
10
  6
CONTINUOUS
 62
   134
  5
109
 10
932507.838
 20
7273954.499
 30
0.0
 40
13.999
  1
8
 50
358.1981
  7
ROMANS
 11
932508.278183
 21
7273968.491078
 31
0.0
210
0.0
220
0.0
230
1.0
 73
     3
  0
TEXT
  8
10
  6
CONTINUOUS
 62
   134
  5
10A
 10
932240.046
 20
7273964.017
 30
0.0
 40
13.999
  1
10
 50
358.1981
  7
ROMANS
 11
932240.486183
 21
7273978.009078
 31
0.0
210
0.0
220
0.0
230
1.0
 73
     3
  0
TEXT
  8
10
  6
CONTINUOUS
 62
   134
  5
10B
 10
932248.356
 20
7274158.581
 30
0.0
 40
13.999
  1
11
 50
358.1981
  7
ROMANS
 11
932248.796183
 21
7274172.573078
 31
0.0
210
0.0
220
0.0
230
1.0
 73
     3
  0
TEXT
  8
10
  6
CONTINUOUS
 62
   134
  5
10C
 10
932375.129
 20
7274153.497
 30
0.0
 40
13.999
  1
12
 50
358.1981
  7
ROMANS
 11
932375.569183
 21
7274167.489078
 31
0.0
210
0.0
220
0.0
230
1.0
 73
     3
  0
TEXT
  8
10
  6
CONTINUOUS
 62
   134
  5
10D
 10
932493.191
 20
7274149.783
 30
0.0
 40
13.999
  1
9
 50
358.1981
  7
ROMANS
 11
932493.631183
 21
7274163.775078
 31
0.0
210
0.0
220
0.0
230
1.0
 73
     3
  0
TEXT
  8
10
  6
CONTINUOUS
 62
   134
  5
10E
 10
933194.894
 20
7274798.716
 30
0.0
 40
13.999
  1
1
 50
358.1981
  7
ROMANS
 11
933195.334183
 21
7274812.708078
 31
0.0
210
0.0
220
0.0
230
1.0
 73
     3
  0
TEXT
  8
10
  6
CONTINUOUS
 62
   134
  5
10F
 10
933145.256
 20
7274799.148
 30
0.0
 40
13.999
  1
2
 50
358.1981
  7
ROMANS
 11
933145.696183
 21
7274813.140078
 31
0.0
210
0.0
220
0.0
230
1.0
 73
     3
  0
TEXT
  8
10
  6
CONTINUOUS
 62
   134
  5
110
 10
933094.596
 20
7274803.0
 30
0.0
 40
13.999
  1
3
 50
358.1981
  7
ROMANS
 11
933095.036183
 21
7274816.992078
 31
0.0
210
0.0
220
0.0
230
1.0
 73
     3
  0
TEXT
  8
10
  6
CONTINUOUS
 62
   134
  5
111
 10
933043.793
 20
7274802.34
 30
0.0
 40
13.999
  1
4
 50
358.1981
  7
ROMANS
 11
933044.233183
 21
7274816.332078
 31
0.0
210
0.0
220
0.0
230
1.0
 73
     3
  0
TEXT
  8
10
  6
CONTINUOUS
 62
   134
  5
112
 10
932996.446
 20
7274803.83
 30
0.0
 40
13.999
  1
5
 50
358.1981
  7
ROMANS
 11
932996.886183
 21
7274817.822078
 31
0.0
210
0.0
220
0.0
230
1.0
 73
     3
  0
TEXT
  8
10
  6
CONTINUOUS
 62
   134
  5
113
 10
932946.878
 20
7274806.519
 30
0.0
 40
13.999
  1
6
 50
358.1981
  7
ROMANS
 11
932947.318183
 21
7274820.511078
 31
0.0
210
0.0
220
0.0
230
1.0
 73
     3
  0
TEXT
  8
10
  6
CONTINUOUS
 62
   134
  5
114
 10
932897.167
 20
7274804.696
 30
0.0
 40
13.999
  1
7
 50
358.1981
  7
ROMANS
 11
932897.607183
 21
7274818.688078
 31
0.0
210
0.0
220
0.0
230
1.0
 73
     3
  0
TEXT
  8
10
  6
CONTINUOUS
 62
   134
  5
115
 10
932847.529
 20
7274805.129
 30
0.0
 40
13.999
  1
8
 50
358.1981
  7
ROMANS
 11
932847.969183
 21
7274819.121078
 31
0.0
210
0.0
220
0.0
230
1.0
 73
     3
  0
TEXT
  8
10
  6
CONTINUOUS
 62
   134
  5
116
 10
932795.706
 20
7274807.887
 30
0.0
 40
13.999
  1
9
 50
358.1981
  7
ROMANS
 11
932796.146183
 21
7274821.879078
 31
0.0
210
0.0
220
0.0
230
1.0
 73
     3
  0
TEXT
  8
10
  6
CONTINUOUS
 62
   134
  5
117
 10
932737.049
 20
7274808.605
 30
0.0
 40
13.999
  1
10
 50
358.1981
  7
ROMANS
 11
932737.489183
 21
7274822.597078
 31
0.0
210
0.0
220
0.0
230
1.0
 73
     3
  0
TEXT
  8
10
  6
CONTINUOUS
 62
   134
  5
118
 10
932690.791
 20
7274808.931
 30
0.0
 40
13.999
  1
11
 50
358.1981
  7
ROMANS
 11
932691.231183
 21
7274822.923078
 31
0.0
210
0.0
220
0.0
230
1.0
 73
     3
  0
TEXT
  8
10
  6
CONTINUOUS
 62
   134
  5
119
 10
932638.933
 20
7274810.563
 30
0.0
 40
13.999
  1
12
 50
358.1981
  7
ROMANS
 11
932639.373183
 21
7274824.555078
 31
0.0
210
0.0
220
0.0
230
1.0
 73
     3
  0
TEXT
  8
10
  6
CONTINUOUS
 62
   134
  5
11A
 10
932632.067
 20
7274664.041
 30
0.0
 40
13.999
  1
13
 50
358.1981
  7
ROMANS
 11
932632.507183
 21
7274678.033078
 31
0.0
210
0.0
220
0.0
230
1.0
 73
     3
  0
TEXT
  8
10
  6
CONTINUOUS
 62
   134
  5
11B
 10
932680.543
 20
7274662.517
 30
0.0
 40
13.999
  1
14
 50
358.1981
  7
ROMANS
 11
932680.983183
 21
7274676.509078
 31
0.0
210
0.0
220
0.0
230
1.0
 73
     3
  0
TEXT
  8
10
  6
CONTINUOUS
 62
   134
  5
11C
 10
932731.274
 20
7274660.92
 30
0.0
 40
13.999
  1
15
 50
358.1981
  7
ROMANS
 11
932731.714183
 21
7274674.912078
 31
0.0
210
0.0
220
0.0
230
1.0
 73
     3
  0
TEXT
  8
10
  6
CONTINUOUS
 62
   134
  5
11D
 10
932780.912
 20
7274660.487
 30
0.0
 40
13.999
  1
16
 50
358.1981
  7
ROMANS
 11
932781.352183
 21
7274674.479078
 31
0.0
210
0.0
220
0.0
230
1.0
 73
     3
  0
TEXT
  8
10
  6
CONTINUOUS
 62
   134
  5
11E
 10
932831.573
 20
7274656.636
 30
0.0
 40
13.999
  1
17
 50
358.1981
  7
ROMANS
 11
932832.013183
 21
7274670.628078
 31
0.0
210
0.0
220
0.0
230
1.0
 73
     3
  0
TEXT
  8
10
  6
CONTINUOUS
 62
   134
  5
11F
 10
932881.248
 20
7274657.331
 30
0.0
 40
13.999
  1
18
 50
358.1981
  7
ROMANS
 11
932881.688183
 21
7274671.323078
 31
0.0
210
0.0
220
0.0
230
1.0
 73
     3
  0
TEXT
  8
10
  6
CONTINUOUS
 62
   134
  5
120
 10
932930.851
 20
7274655.77
 30
0.0
 40
13.999
  1
19
 50
358.1981
  7
ROMANS
 11
932931.291183
 21
7274669.762078
 31
0.0
210
0.0
220
0.0
230
1.0
 73
     3
  0
TEXT
  8
10
  6
CONTINUOUS
 62
   134
  5
121
 10
932982.673
 20
7274653.011
 30
0.0
 40
13.999
  1
20
 50
358.1981
  7
ROMANS
 11
932983.113183
 21
7274667.003078
 31
0.0
210
0.0
220
0.0
230
1.0
 73
     3
  0
TEXT
  8
10
  6
CONTINUOUS
 62
   134
  5
122
 10
933035.658
 20
7274651.344
 30
0.0
 40
13.999
  1
21
 50
358.1981
  7
ROMANS
 11
933036.098183
 21
7274665.336078
 31
0.0
210
0.0
220
0.0
230
1.0
 73
     3
  0
TEXT
  8
10
  6
CONTINUOUS
 62
   134
  5
123
 10
933081.914
 20
7274651.017
 30
0.0
 40
13.999
  1
22
 50
358.1981
  7
ROMANS
 11
933082.354183
 21
7274665.009078
 31
0.0
210
0.0
220
0.0
230
1.0
 73
     3
  0
TEXT
  8
10
  6
CONTINUOUS
 62
   134
  5
124
 10
933133.737
 20
7274648.258
 30
0.0
 40
13.999
  1
23
 50
358.1981
  7
ROMANS
 11
933134.177183
 21
7274662.250078
 31
0.0
210
0.0
220
0.0
230
1.0
 73
     3
  0
TEXT
  8
10
  6
CONTINUOUS
 62
   134
  5
125
 10
933183.306
 20
7274645.571
 30
0.0
 40
13.999
  1
24
 50
358.1981
  7
ROMANS
 11
933183.746183
 21
7274659.563078
 31
0.0
210
0.0
220
0.0
230
1.0
 73
     3
  0
TEXT
  8
10
  6
CONTINUOUS
 62
   134
  5
126
 10
933184.153
 20
7274457.285
 30
0.0
 40
13.999
  1
1
 50
358.1981
  7
ROMANS
 11
933184.593183
 21
7274471.277078
 31
0.0
210
0.0
220
0.0
230
1.0
 73
     3
  0
TEXT
  8
10
  6
CONTINUOUS
 62
   134
  5
127
 10
933134.514
 20
7274457.717
 30
0.0
 40
13.999
  1
2
 50
358.1981
  7
ROMANS
 11
933134.954183
 21
7274471.709078
 31
0.0
210
0.0
220
0.0
230
1.0
 73
     3
  0
TEXT
  8
10
  6
CONTINUOUS
 62
   134
  5
128
 10
933083.855
 20
7274461.569
 30
0.0
 40
13.999
  1
3
 50
358.1981
  7
ROMANS
 11
933084.295183
 21
7274475.561078
 31
0.0
210
0.0
220
0.0
230
1.0
 73
     3
  0
TEXT
  8
10
  6
CONTINUOUS
 62
   134
  5
129
 10
933033.053
 20
7274460.909
 30
0.0
 40
13.999
  1
4
 50
358.1981
  7
ROMANS
 11
933033.493183
 21
7274474.901078
 31
0.0
210
0.0
220
0.0
230
1.0
 73
     3
  0
TEXT
  8
10
  6
CONTINUOUS
 62
   134
  5
12A
 10
932985.705
 20
7274462.398
 30
0.0
 40
13.999
  1
5
 50
358.1981
  7
ROMANS
 11
932986.145183
 21
7274476.390078
 31
0.0
210
0.0
220
0.0
230
1.0
 73
     3
  0
TEXT
  8
10
  6
CONTINUOUS
 62
   134
  5
12B
 10
932936.136
 20
7274465.088
 30
0.0
 40
13.999
  1
6
 50
358.1981
  7
ROMANS
 11
932936.576183
 21
7274479.080078
 31
0.0
210
0.0
220
0.0
230
1.0
 73
     3
  0
TEXT
  8
10
  6
CONTINUOUS
 62
   134
  5
12C
 10
932886.426
 20
7274463.264
 30
0.0
 40
13.999
  1
7
 50
358.1981
  7
ROMANS
 11
932886.866183
 21
7274477.256078
 31
0.0
210
0.0
220
0.0
230
1.0
 73
     3
  0
TEXT
  8
10
  6
CONTINUOUS
 62
   134
  5
12D
 10
932836.787
 20
7274463.697
 30
0.0
 40
13.999
  1
8
 50
358.1981
  7
ROMANS
 11
932837.227183
 21
7274477.689078
 31
0.0
210
0.0
220
0.0
230
1.0
 73
     3
  0
TEXT
  8
10
  6
CONTINUOUS
 62
   134
  5
12E
 10
932784.964
 20
7274466.456
 30
0.0
 40
13.999
  1
9
 50
358.1981
  7
ROMANS
 11
932785.404183
 21
7274480.448078
 31
0.0
210
0.0
220
0.0
230
1.0
 73
     3
  0
TEXT
  8
10
  6
CONTINUOUS
 62
   134
  5
12F
 10
932726.307
 20
7274467.173
 30
0.0
 40
13.999
  1
10
 50
358.1981
  7
ROMANS
 11
932726.747183
 21
7274481.165078
 31
0.0
210
0.0
220
0.0
230
1.0
 73
     3
  0
TEXT
  8
10
  6
CONTINUOUS
 62
   134
  5
130
 10
932680.049
 20
7274467.5
 30
0.0
 40
13.999
  1
11
 50
358.1981
  7
ROMANS
 11
932680.489183
 21
7274481.492078
 31
0.0
210
0.0
220
0.0
230
1.0
 73
     3
  0
TEXT
  8
10
  6
CONTINUOUS
 62
   134
  5
131
 10
932628.192
 20
7274469.132
 30
0.0
 40
13.999
  1
12
 50
358.1981
  7
ROMANS
 11
932628.632183
 21
7274483.124078
 31
0.0
210
0.0
220
0.0
230
1.0
 73
     3
  0
TEXT
  8
10
  6
CONTINUOUS
 62
   134
  5
132
 10
932623.049
 20
7274328.358
 30
0.0
 40
13.999
  1
13
 50
358.1981
  7
ROMANS
 11
932623.489183
 21
7274342.350078
 31
0.0
210
0.0
220
0.0
230
1.0
 73
     3
  0
TEXT
  8
10
  6
CONTINUOUS
 62
   134
  5
133
 10
932672.261
 20
7274323.675
 30
0.0
 40
13.999
  1
14
 50
358.1981
  7
ROMANS
 11
932672.701183
 21
7274337.667078
 31
0.0
210
0.0
220
0.0
230
1.0
 73
     3
  0
TEXT
  8
10
  6
CONTINUOUS
 62
   134
  5
134
 10
932709.856
 20
7274323.275
 30
0.0
 40
13.999
  1
15A
 50
358.1981
  7
ROMANS
 11
932710.296183
 21
7274337.267078
 31
0.0
210
0.0
220
0.0
230
1.0
 73
     3
  0
TEXT
  8
10
  6
CONTINUOUS
 62
   134
  5
135
 10
932772.029
 20
7274310.248
 30
0.0
 40
13.999
  1
16A
 50
88.1981
  7
ROMANS
 11
932758.036922
 21
7274310.688183
 31
0.0
210
0.0
220
0.0
230
1.0
 73
     3
  0
TEXT
  8
10
  6
CONTINUOUS
 62
   134
  5
136
 10
932797.883
 20
7274310.218
 30
0.0
 40
13.999
  1
16B
 50
88.1981
  7
ROMANS
 11
932783.890922
 21
7274310.658183
 31
0.0
210
0.0
220
0.0
230
1.0
 73
     3
  0
TEXT
  8
10
  6
CONTINUOUS
 62
   134
  5
137
 10
933198.633
 20
7274297.611
 30
0.0
 40
13.999
  1
24A
 50
88.1981
  7
ROMANS
 11
933184.640922
 21
7274298.051183
 31
0.0
210
0.0
220
0.0
230
1.0
 73
     3
  0
TEXT
  8
10
  6
CONTINUOUS
 62
   134
  5
138
 10
932822.197
 20
7274311.021
 30
0.0
 40
13.999
  1
17A
 50
88.1981
  7
ROMANS
 11
932808.204922
 21
7274311.461183
 31
0.0
210
0.0
220
0.0
230
1.0
 73
     3
  0
TEXT
  8
10
  6
CONTINUOUS
 62
   134
  5
139
 10
932847.219
 20
7274309.45
 30
0.0
 40
13.999
  1
17B
 50
88.1981
  7
ROMANS
 11
932833.226922
 21
7274309.890183
 31
0.0
210
0.0
220
0.0
230
1.0
 73
     3
  0
TEXT
  8
10
  6
CONTINUOUS
 62
   134
  5
13A
 10
932871.433
 20
7274307.121
 30
0.0
 40
13.999
  1
18A
 50
88.1981
  7
ROMANS
 11
932857.440922
 21
7274307.561183
 31
0.0
210
0.0
220
0.0
230
1.0
 73
     3
  0
TEXT
  8
10
  6
CONTINUOUS
 62
   134
  5
13B
 10
932898.854
 20
7274307.041
 30
0.0
 40
13.999
  1
18B
 50
88.1981
  7
ROMANS
 11
932884.861922
 21
7274307.481183
 31
0.0
210
0.0
220
0.0
230
1.0
 73
     3
  0
TEXT
  8
10
  6
CONTINUOUS
 62
   134
  5
13C
 10
932929.379
 20
7274306.081
 30
0.0
 40
13.999
  1
19A
 50
88.1981
  7
ROMANS
 11
932915.386922
 21
7274306.521183
 31
0.0
210
0.0
220
0.0
230
1.0
 73
     3
  0
TEXT
  8
10
  6
CONTINUOUS
 62
   134
  5
13D
 10
932955.967
 20
7274304.462
 30
0.0
 40
13.999
  1
19B
 50
88.1981
  7
ROMANS
 11
932941.974922
 21
7274304.902183
 31
0.0
210
0.0
220
0.0
230
1.0
 73
     3
  0
TEXT
  8
10
  6
CONTINUOUS
 62
   134
  5
13E
 10
932980.28
 20
7274305.263
 30
0.0
 40
13.999
  1
20A
 50
88.1981
  7
ROMANS
 11
932966.287922
 21
7274305.703183
 31
0.0
210
0.0
220
0.0
230
1.0
 73
     3
  0
TEXT
  8
10
  6
CONTINUOUS
 62
   134
  5
13F
 10
933006.868
 20
7274303.644
 30
0.0
 40
13.999
  1
20B
 50
88.1981
  7
ROMANS
 11
932992.875922
 21
7274304.084183
 31
0.0
210
0.0
220
0.0
230
1.0
 73
     3
  0
TEXT
  8
10
  6
CONTINUOUS
 62
   134
  5
140
 10
933034.288
 20
7274303.564
 30
0.0
 40
13.999
  1
21A
 50
88.1981
  7
ROMANS
 11
933020.295922
 21
7274304.004183
 31
0.0
210
0.0
220
0.0
230
1.0
 73
     3
  0
TEXT
  8
10
  6
CONTINUOUS
 62
   134
  5
141
 10
933064.789
 20
7274301.822
 30
0.0
 40
13.999
  1
21B
 50
88.1981
  7
ROMANS
 11
933050.796922
 21
7274302.262183
 31
0.0
210
0.0
220
0.0
230
1.0
 73
     3
  0
TEXT
  8
10
  6
CONTINUOUS
 62
   134
  5
142
 10
933090.619
 20
7274301.008
 30
0.0
 40
13.999
  1
22A
 50
88.1981
  7
ROMANS
 11
933076.626922
 21
7274301.448183
 31
0.0
210
0.0
220
0.0
230
1.0
 73
     3
  0
TEXT
  8
10
  6
CONTINUOUS
 62
   134
  5
143
 10
933117.206
 20
7274299.389
 30
0.0
 40
13.999
  1
22B
 50
88.1981
  7
ROMANS
 11
933103.213922
 21
7274299.829183
 31
0.0
210
0.0
220
0.0
230
1.0
 73
     3
  0
TEXT
  8
10
  6
CONTINUOUS
 62
   134
  5
144
 10
933142.253
 20
7274298.6
 30
0.0
 40
13.999
  1
23A
 50
88.1981
  7
ROMANS
 11
933128.260922
 21
7274299.040183
 31
0.0
210
0.0
220
0.0
230
1.0
 73
     3
  0
TEXT
  8
10
  6
CONTINUOUS
 62
   134
  5
145
 10
933167.299
 20
7274297.814
 30
0.0
 40
13.999
  1
23B
 50
88.1981
  7
ROMANS
 11
933153.306922
 21
7274298.254183
 31
0.0
210
0.0
220
0.0
230
1.0
 73
     3
  0
TEXT
  8
10
  6
CONTINUOUS
 62
   134
  5
146
 10
933176.059
 20
7274128.488
 30
0.0
 40
13.999
  1
1
 50
358.1981
  7
ROMANS
 11
933176.499183
 21
7274142.480078
 31
0.0
210
0.0
220
0.0
230
1.0
 73
     3
  0
TEXT
  8
10
  6
CONTINUOUS
 62
   134
  5
147
 10
933125.183
 20
7274130.088
 30
0.0
 40
13.999
  1
2
 50
358.1981
  7
ROMANS
 11
933125.623183
 21
7274144.080078
 31
0.0
210
0.0
220
0.0
230
1.0
 73
     3
  0
TEXT
  8
10
  6
CONTINUOUS
 62
   134
  5
148
 10
933073.523
 20
7274131.712
 30
0.0
 40
13.999
  1
3
 50
358.1981
  7
ROMANS
 11
933073.963183
 21
7274145.704078
 31
0.0
210
0.0
220
0.0
230
1.0
 73
     3
  0
TEXT
  8
10
  6
CONTINUOUS
 62
   134
  5
149
 10
933021.89
 20
7274134.12
 30
0.0
 40
13.999
  1
4
 50
358.1981
  7
ROMANS
 11
933022.330183
 21
7274148.112078
 31
0.0
210
0.0
220
0.0
230
1.0
 73
     3
  0
TEXT
  8
10
  6
CONTINUOUS
 62
   134
  5
14A
 10
932974.926
 20
7274135.598
 30
0.0
 40
13.999
  1
5
 50
358.1981
  7
ROMANS
 11
932975.366183
 21
7274149.590078
 31
0.0
210
0.0
220
0.0
230
1.0
 73
     3
  0
TEXT
  8
10
  6
CONTINUOUS
 62
   134
  5
14B
 10
932924.784
 20
7274135.609
 30
0.0
 40
13.999
  1
6
 50
358.1981
  7
ROMANS
 11
932925.224183
 21
7274149.601078
 31
0.0
210
0.0
220
0.0
230
1.0
 73
     3
  0
TEXT
  8
10
  6
CONTINUOUS
 62
   134
  5
14C
 10
932875.448
 20
7274136.376
 30
0.0
 40
13.999
  1
7
 50
358.1981
  7
ROMANS
 11
932875.888183
 21
7274150.368078
 31
0.0
210
0.0
220
0.0
230
1.0
 73
     3
  0
TEXT
  8
10
  6
CONTINUOUS
 62
   134
  5
14D
 10
932823.763
 20
7274137.218
 30
0.0
 40
13.999
  1
8
 50
358.1981
  7
ROMANS
 11
932824.203183
 21
7274151.210078
 31
0.0
210
0.0
220
0.0
230
1.0
 73
     3
  0
TEXT
  8
10
  6
CONTINUOUS
 62
   134
  5
14E
 10
932774.477
 20
7274139.552
 30
0.0
 40
13.999
  1
9
 50
358.1981
  7
ROMANS
 11
932774.917183
 21
7274153.544078
 31
0.0
210
0.0
220
0.0
230
1.0
 73
     3
  0
TEXT
  8
10
  6
CONTINUOUS
 62
   134
  5
14F
 10
932715.724
 20
7274139.834
 30
0.0
 40
13.999
  1
10
 50
358.1981
  7
ROMANS
 11
932716.164183
 21
7274153.826078
 31
0.0
210
0.0
220
0.0
230
1.0
 73
     3
  0
TEXT
  8
10
  6
CONTINUOUS
 62
   134
  5
150
 10
932667.245
 20
7274142.926
 30
0.0
 40
13.999
  1
11
 50
358.1981
  7
ROMANS
 11
932667.685183
 21
7274156.918078
 31
0.0
210
0.0
220
0.0
230
1.0
 73
     3
  0
TEXT
  8
10
  6
CONTINUOUS
 62
   134
  5
151
 10
932617.102
 20
7274142.937
 30
0.0
 40
13.999
  1
12
 50
358.1981
  7
ROMANS
 11
932617.542183
 21
7274156.929078
 31
0.0
210
0.0
220
0.0
230
1.0
 73
     3
  0
TEXT
  8
10
  6
CONTINUOUS
 62
   134
  5
152
 10
932654.505
 20
7273931.726
 30
0.0
 40
13.999
  1
13
 50
358.1981
  7
ROMANS
 11
932654.945183
 21
7273945.718078
 31
0.0
210
0.0
220
0.0
230
1.0
 73
     3
  0
TEXT
  8
10
  6
CONTINUOUS
 62
   134
  5
153
 10
932789.124
 20
7273929.264
 30
0.0
 40
13.999
  1
14
 50
358.1981
  7
ROMANS
 11
932789.564183
 21
7273943.256078
 31
0.0
210
0.0
220
0.0
230
1.0
 73
     3
  0
TEXT
  8
10
  6
CONTINUOUS
 62
   134
  5
154
 10
932872.34
 20
7273926.646
 30
0.0
 40
13.999
  1
15
 50
358.1981
  7
ROMANS
 11
932872.780183
 21
7273940.638078
 31
0.0
210
0.0
220
0.0
230
1.0
 73
     3
  0
TEXT
  8
10
  6
CONTINUOUS
 62
   134
  5
155
 10
932981.75
 20
7273998.547
 30
0.0
 40
13.999
  1
16
 50
358.1981
  7
ROMANS
 11
932982.190183
 21
7274012.539078
 31
0.0
210
0.0
220
0.0
230
1.0
 73
     3
  0
TEXT
  8
10
  6
CONTINUOUS
 62
   134
  5
156
 10
931810.801
 20
7275686.025
 30
0.0
 40
13.999
  1
11
 50
358.1981
  7
ROMANS
 11
931811.241183
 21
7275700.017078
 31
0.0
210
0.0
220
0.0
230
1.0
 73
     3
  0
TEXT
  8
10
  6
CONTINUOUS
 62
   134
  5
157
 10
932026.346
 20
7275677.887
 30
0.0
 40
13.999
  1
16
 50
358.1981
  7
ROMANS
 11
932026.786183
 21
7275691.879078
 31
0.0
210
0.0
220
0.0
230
1.0
 73
     3
  0
TEXT
  8
10
  6
CONTINUOUS
 62
   134
  5
158
 10
932262.314
 20
7275671.822
 30
0.0
 40
13.999
  1
15
 50
358.1981
  7
ROMANS
 11
932262.754183
 21
7275685.814078
 31
0.0
210
0.0
220
0.0
230
1.0
 73
     3
  0
TEXT
  8
10
  6
CONTINUOUS
 62
   134
  5
159
 10
932233.887
 20
7275501.663
 30
0.0
 40
13.999
  1
14
 50
358.1981
  7
ROMANS
 11
932234.327183
 21
7275515.655078
 31
0.0
210
0.0
220
0.0
230
1.0
 73
     3
  0
TEXT
  8
10
  6
CONTINUOUS
 62
   134
  5
15A
 10
932017.116
 20
7275513.913
 30
0.0
 40
13.999
  1
13
 50
358.1981
  7
ROMANS
 11
932017.556183
 21
7275527.905078
 31
0.0
210
0.0
220
0.0
230
1.0
 73
     3
  0
TEXT
  8
10
  6
CONTINUOUS
 62
   134
  5
15B
 10
931808.395
 20
7275523.194
 30
0.0
 40
13.999
  1
12
 50
358.1981
  7
ROMANS
 11
931808.835183
 21
7275537.186078
 31
0.0
210
0.0
220
0.0
230
1.0
 73
     3
  0
TEXT
  8
10
  6
CONTINUOUS
 62
   134
  5
15C
 10
931790.389
 20
7275949.094
 30
0.0
 40
13.999
  1
10
 50
358.1981
  7
ROMANS
 11
931790.829183
 21
7275963.086078
 31
0.0
210
0.0
220
0.0
230
1.0
 73
     3
  0
TEXT
  8
10
  6
CONTINUOUS
 62
   134
  5
15D
 10
931805.105
 20
7276178.332
 30
0.0
 40
13.999
  1
9
 50
358.1981
  7
ROMANS
 11
931805.545183
 21
7276192.324078
 31
0.0
210
0.0
220
0.0
230
1.0
 73
     3
  0
TEXT
  8
10
  6
CONTINUOUS
 62
   134
  5
15E
 10
931947.973
 20
7276297.37
 30
0.0
 40
13.999
  1
8
 50
358.1981
  7
ROMANS
 11
931948.413183
 21
7276311.362078
 31
0.0
210
0.0
220
0.0
230
1.0
 73
     3
  0
TEXT
  8
10
  6
CONTINUOUS
 62
   134
  5
15F
 10
932189.943
 20
7276308.348
 30
0.0
 40
13.999
  1
7
 50
358.1981
  7
ROMANS
 11
932190.383183
 21
7276322.340078
 31
0.0
210
0.0
220
0.0
230
1.0
 73
     3
  0
TEXT
  8
10
  6
CONTINUOUS
 62
   134
  5
160
 10
932491.404
 20
7276241.025
 30
0.0
 40
13.999
  1
6
 50
358.1981
  7
ROMANS
 11
932491.844183
 21
7276255.017078
 31
0.0
210
0.0
220
0.0
230
1.0
 73
     3
  0
TEXT
  8
10
  6
CONTINUOUS
 62
   134
  5
161
 10
932530.158
 20
7275963.003
 30
0.0
 40
13.999
  1
5
 50
358.1981
  7
ROMANS
 11
932530.598183
 21
7275976.995078
 31
0.0
210
0.0
220
0.0
230
1.0
 73
     3
  0
TEXT
  8
10
  6
CONTINUOUS
 62
   134
  5
162
 10
932518.616
 20
7275661.778
 30
0.0
 40
13.999
  1
4
 50
358.1981
  7
ROMANS
 11
932519.056183
 21
7275675.770078
 31
0.0
210
0.0
220
0.0
230
1.0
 73
     3
  0
TEXT
  8
10
  6
CONTINUOUS
 62
   134
  5
163
 10
932062.621
 20
7276068.603
 30
0.0
 40
13.999
  1
19
 50
358.1981
  7
ROMANS
 11
932063.061183
 21
7276082.595078
 31
0.0
210
0.0
220
0.0
230
1.0
 73
     3
  0
TEXT
  8
10
  6
CONTINUOUS
 62
   134
  5
164
 10
932272.996
 20
7276059.919
 30
0.0
 40
13.999
  1
18
 50
358.1981
  7
ROMANS
 11
932273.436183
 21
7276073.911078
 31
0.0
210
0.0
220
0.0
230
1.0
 73
     3
  0
TEXT
  8
10
  6
CONTINUOUS
 62
   134
  5
165
 10
932046.982
 20
7275899.708
 30
0.0
 40
13.999
  1
20
 50
358.1981
  7
ROMANS
 11
932047.422183
 21
7275913.700078
 31
0.0
210
0.0
220
0.0
230
1.0
 73
     3
  0
TEXT
  8
10
  6
CONTINUOUS
 62
   134
  5
166
 10
932267.802
 20
7275894.827
 30
0.0
 40
13.999
  1
17
 50
358.1981
  7
ROMANS
 11
932268.242183
 21
7275908.819078
 31
0.0
210
0.0
220
0.0
230
1.0
 73
     3
  0
TEXT
  8
10
  6
CONTINUOUS
 62
   134
  5
167
 10
932719.947
 20
7276253.083
 30
0.0
 40
13.999
  1
21
 50
358.1981
  7
ROMANS
 11
932720.387183
 21
7276267.075078
 31
0.0
210
0.0
220
0.0
230
1.0
 73
     3
  0
TEXT
  8
10
  6
CONTINUOUS
 62
   134
  5
168
 10
932990.137
 20
7276246.12
 30
0.0
 40
13.999
  1
28
 50
358.1981
  7
ROMANS
 11
932990.577183
 21
7276260.112078
 31
0.0
210
0.0
220
0.0
230
1.0
 73
     3
  0
TEXT
  8
10
  6
CONTINUOUS
 62
   134
  5
169
 10
932686.476
 20
7275628.659
 30
0.0
 40
13.999
  1
24
 50
358.1981
  7
ROMANS
 11
932686.916183
 21
7275642.651078
 31
0.0
210
0.0
220
0.0
230
1.0
 73
     3
  0
TEXT
  8
10
  6
CONTINUOUS
 62
   134
  5
16A
 10
932710.404
 20
7276047.453
 30
0.0
 40
13.999
  1
22
 50
358.1981
  7
ROMANS
 11
932710.844183
 21
7276061.445078
 31
0.0
210
0.0
220
0.0
230
1.0
 73
     3
  0
TEXT
  8
10
  6
CONTINUOUS
 62
   134
  5
16B
 10
932700.476
 20
7275829.54
 30
0.0
 40
13.999
  1
23
 50
358.1981
  7
ROMANS
 11
932700.916183
 21
7275843.532078
 31
0.0
210
0.0
220
0.0
230
1.0
 73
     3
  0
TEXT
  8
10
  6
CONTINUOUS
 62
   134
  5
16C
 10
932973.881
 20
7275827.085
 30
0.0
 40
13.999
  1
26
 50
358.1981
  7
ROMANS
 11
932974.321183
 21
7275841.077078
 31
0.0
210
0.0
220
0.0
230
1.0
 73
     3
  0
TEXT
  8
10
  6
CONTINUOUS
 62
   134
  5
16D
 10
932986.686
 20
7276038.762
 30
0.0
 40
13.999
  1
27
 50
358.1981
  7
ROMANS
 11
932987.126183
 21
7276052.754078
 31
0.0
210
0.0
220
0.0
230
1.0
 73
     3
  0
POLYLINE
  8
6
  6
CONTINUOUS
 62
     7
  5
16E
 66
     1
 10
0.0
 20
0.0
 30
0.0
  0
VERTEX
  8
6
  6
CONTINUOUS
 62
     7
  5
16F
 10
936864.777
 20
7275385.545
 30
0.0
  0
VERTEX
  8
6
  6
CONTINUOUS
 62
     7
  5
170
 10
936815.84
 20
7274089.657
 30
0.0
  0
VERTEX
  8
6
  6
CONTINUOUS
 62
     7
  5
171
 10
936793.593
 20
7273934.573
 30
0.0
  0
VERTEX
  8
6
  6
CONTINUOUS
 62
     7
  5
172
 10
936785.938
 20
7273726.927
 30
0.0
  0
SEQEND
  8
6
  6
CONTINUOUS
 62
     7
  5
173
  0
ARC
  8
6
  6
CONTINUOUS
 62
     7
  5
174
 10
936770.94843
 20
7273727.48005
 30
0.0
 40
15.0
 50
267.8888
 51
357.8888
210
0.0
220
0.0
230
1.0
  0
TEXT
  8
10
  6
CONTINUOUS
 62
   134
  5
175
 10
932961.076
 20
7275615.411
 30
0.0
 40
13.999
  1
25
 50
358.1981
  7
ROMANS
 11
932961.516183
 21
7275629.403078
 31
0.0
210
0.0
220
0.0
230
1.0
 73
     3
  0
TEXT
  8
10
  6
CONTINUOUS
 62
   134
  5
176
 10
932432.071
 20
7278271.144
 30
0.0
 40
13.999
  1
UTT PROPERTY
 50
358.4786
  7
ROMANS
 11
932432.442678
 21
7278285.138065
 31
0.0
210
0.0
220
0.0
230
1.0
 73
     3
  0
TEXT
  8
10
  6
CONTINUOUS
 62
   134
  5
177
 10
932599.678
 20
7275403.969
 30
0.0
 40
13.999
  1
UNSUBDIVIDED
 50
358.1981
  7
ROMANS
 11
932600.118183
 21
7275417.961078
 31
0.0
210
0.0
220
0.0
230
1.0
 73
     3
  0
TEXT
  8
11
  6
CONTINUOUS
 62
     7
  5
179
 10
931676.147
 20
7273810.387
 30
0.0
 40
8.0
  1
101.1
 50
88.1981
  7
ROMANS
210
0.0
220
0.0
230
1.0
  0
TEXT
  8
11
  6
CONTINUOUS
 62
     7
  5
17A
 10
936717.867
 20
7273668.972
 30
0.0
 40
8.0
  1
70'
 50
87.8888
  7
ROMANS
210
0.0
220
0.0
230
1.0
  0
TEXT
  8
11
  6
CONTINUOUS
 62
     7
  5
17B
 10
931881.088
 20
7274224.65
 30
0.0
 40
8.0
  1
449.1'
 50
358.1981
  7
ROMANS
210
0.0
220
0.0
230
1.0
  0
TEXT
  8
11
  6
CONTINUOUS
 62
     7
  5
17C
 10
931700.589
 20
7273999.275
 30
0.0
 40
8.0
  1
124.81
 50
358.1981
  7
ROMANS
210
0.0
220
0.0
230
1.0
  0
TEXT
  8
11
  6
CONTINUOUS
 62
     7
  5
17D
 10
932055.779
 20
7273986.837
 30
0.0
 40
8.0
  1
150'
 50
358.1981
  7
ROMANS
210
0.0
220
0.0
230
1.0
  0
TEXT
  8
11
  6
CONTINUOUS
 62
     7
  5
17E
 10
931865.017
 20
7273878.783
 30
0.0
 40
8.0
  1
204.6'
 50
358.1981
  7
ROMANS
210
0.0
220
0.0
230
1.0
  0
TEXT
  8
11
  6
CONTINUOUS
 62
     7
  5
17F
 10
932038.141
 20
7273875.635
 30
0.0
 40
8.0
  1
135.19'
 50
358.1981
  7
ROMANS
210
0.0
220
0.0
230
1.0
  0
TEXT
  8
11
  6
CONTINUOUS
 62
     7
  5
180
 10
931694.901
 20
7273882.408
 30
0.0
 40
8.0
  1
109.81'
 50
358.1981
  7
ROMANS
210
0.0
220
0.0
230
1.0
  0
TEXT
  8
11
  6
CONTINUOUS
 62
     7
  5
181
 10
931703.539
 20
7274296.031
 30
0.0
 40
8.0
  1
85'
 50
358.1981
  7
ROMANS
210
0.0
220
0.0
230
1.0
  0
TEXT
  8
11
  6
CONTINUOUS
 62
     7
  5
182
 10
931713.159
 20
7274601.786
 30
0.0
 40
8.0
  1
85'
 50
358.1981
  7
ROMANS
210
0.0
220
0.0
230
1.0
  0
TEXT
  8
11
  6
CONTINUOUS
 62
     7
  5
183
 10
931801.499
 20
7274596.478
 30
0.0
 40
8.0
  1
100'
 50
358.1981
  7
ROMANS
210
0.0
220
0.0
230
1.0
  0
TEXT
  8
11
  6
CONTINUOUS
 62
     7
  5
184
 10
931792.0
 20
7274294.512
 30
0.0
 40
8.0
  1
100'
 50
358.1981
  7
ROMANS
210
0.0
220
0.0
230
1.0
  0
TEXT
  8
11
  6
CONTINUOUS
 62
     7
  5
185
 10
932095.153
 20
7274284.976
 30
0.0
 40
8.0
  1
100'
 50
358.1981
  7
ROMANS
210
0.0
220
0.0
230
1.0
  0
TEXT
  8
11
  6
CONTINUOUS
 62
     7
  5
186
 10
932103.43
 20
7274588.245
 30
0.0
 40
8.0
  1
100'
 50
358.1981
  7
ROMANS
210
0.0
220
0.0
230
1.0
  0
TEXT
  8
11
  6
CONTINUOUS
 62
     7
  5
187
 10
931905.078
 20
7274593.22
 30
0.0
 40
8.0
  1
100'
 50
358.1981
  7
ROMANS
210
0.0
220
0.0
230
1.0
  0
TEXT
  8
11
  6
CONTINUOUS
 62
     7
  5
188
 10
932001.037
 20
7274588.936
 30
0.0
 40
8.0
  1
100'
 50
358.1981
  7
ROMANS
210
0.0
220
0.0
230
1.0
  0
TEXT
  8
11
  6
CONTINUOUS
 62
     7
  5
189
 10
931990.313
 20
7274288.274
 30
0.0
 40
8.0
  1
100'
 50
358.1981
  7
ROMANS
210
0.0
220
0.0
230
1.0
  0
TEXT
  8
11
  6
CONTINUOUS
 62
     7
  5
18A
 10
931891.788
 20
7274291.373
 30
0.0
 40
8.0
  1
100'
 50
358.1981
  7
ROMANS
210
0.0
220
0.0
230
1.0
  0
TEXT
  8
11
  6
CONTINUOUS
 62
     7
  5
18B
 10
932385.541
 20
7274271.583
 30
0.0
 40
8.0
  1
100'
 50
358.1981
  7
ROMANS
210
0.0
220
0.0
230
1.0
  0
TEXT
  8
11
  6
CONTINUOUS
 62
     7
  5
18C
 10
932392.689
 20
7274579.144
 30
0.0
 40
8.0
  1
100'
 50
358.1981
  7
ROMANS
210
0.0
220
0.0
230
1.0
  0
TEXT
  8
11
  6
CONTINUOUS
 62
     7
  5
18D
 10
932251.243
 20
7274213.737
 30
0.0
 40
8.0
  1
110'
 50
358.1981
  7
ROMANS
210
0.0
220
0.0
230
1.0
  0
TEXT
  8
11
  6
CONTINUOUS
 62
     7
  5
18E
 10
932377.866
 20
7274210.501
 30
0.0
 40
8.0
  1
132'
 50
358.1981
  7
ROMANS
210
0.0
220
0.0
230
1.0
  0
TEXT
  8
11
  6
CONTINUOUS
 62
     7
  5
18F
 10
932491.502
 20
7274205.431
 30
0.0
 40
8.0
  1
87'
 50
358.1981
  7
ROMANS
210
0.0
220
0.0
230
1.0
  0
TEXT
  8
11
  6
CONTINUOUS
 62
     7
  5
190
 10
932240.677
 20
7274069.772
 30
0.0
 40
8.0
  1
125'
 50
358.1981
  7
ROMANS
210
0.0
220
0.0
230
1.0
  0
TEXT
  8
11
  6
CONTINUOUS
 62
     7
  5
191
 10
932197.222
 20
7274095.168
 30
0.0
 40
8.0
  1
20'
 50
358.1981
  7
ROMANS
210
0.0
220
0.0
230
1.0
  0
TEXT
  8
11
  6
CONTINUOUS
 62
     7
  5
192
 10
932512.968
 20
7274083.971
 30
0.0
 40
8.0
  1
20'
 50
358.1981
  7
ROMANS
210
0.0
220
0.0
230
1.0
  0
TEXT
  8
11
  6
CONTINUOUS
 62
     7
  5
193
 10
932501.944
 20
7273854.141
 30
0.0
 40
8.0
  1
44'
 50
358.1981
  7
ROMANS
210
0.0
220
0.0
230
1.0
  0
TEXT
  8
11
  6
CONTINUOUS
 62
     7
  5
194
 10
932313.657
 20
7273857.535
 30
0.0
 40
8.0
  1
25'
 50
358.1981
  7
ROMANS
210
0.0
220
0.0
230
1.0
  0
TEXT
  8
11
  6
CONTINUOUS
 62
     7
  5
195
 10
932338.644
 20
7273856.749
 30
0.0
 40
8.0
  1
25'
 50
358.1981
  7
ROMANS
210
0.0
220
0.0
230
1.0
  0
TEXT
  8
11
  6
CONTINUOUS
 62
     7
  5
196
 10
932363.632
 20
7273855.963
 30
0.0
 40
8.0
  1
25'
 50
358.1981
  7
ROMANS
210
0.0
220
0.0
230
1.0
  0
TEXT
  8
11
  6
CONTINUOUS
 62
     7
  5
197
 10
932388.619
 20
7273855.178
 30
0.0
 40
8.0
  1
25'
 50
358.1981
  7
ROMANS
210
0.0
220
0.0
230
1.0
  0
TEXT
  8
11
  6
CONTINUOUS
 62
     7
  5
198
 10
932413.608
 20
7273854.391
 30
0.0
 40
8.0
  1
25'
 50
358.1981
  7
ROMANS
210
0.0
220
0.0
230
1.0
  0
TEXT
  8
11
  6
CONTINUOUS
 62
     7
  5
199
 10
932438.595
 20
7273853.605
 30
0.0
 40
8.0
  1
25'
 50
358.1981
  7
ROMANS
210
0.0
220
0.0
230
1.0
  0
TEXT
  8
11
  6
CONTINUOUS
 62
     7
  5
19A
 10
932463.583
 20
7273852.819
 30
0.0
 40
8.0
  1
25'
 50
358.1981
  7
ROMANS
210
0.0
220
0.0
230
1.0
  0
TEXT
  8
11
  6
CONTINUOUS
 62
     7
  5
19B
 10
932231.871
 20
7273870.226
 30
0.0
 40
8.0
  1
109.86'
 50
358.1981
  7
ROMANS
210
0.0
220
0.0
230
1.0
  0
TEXT
  8
11
  6
CONTINUOUS
 62
     7
  5
19C
 10
932482.843
 20
7274269.787
 30
0.0
 40
8.0
  1
100'
 50
358.1981
  7
ROMANS
210
0.0
220
0.0
230
1.0
  0
TEXT
  8
11
  6
CONTINUOUS
 62
     7
  5
19D
 10
932304.932
 20
7274274.12
 30
0.0
 40
8.0
  1
72'
 50
358.1981
  7
ROMANS
210
0.0
220
0.0
230
1.0
  0
TEXT
  8
11
  6
CONTINUOUS
 62
     7
  5
19E
 10
932234.206
 20
7274276.63
 30
0.0
 40
8.0
  1
72'
 50
358.1981
  7
ROMANS
210
0.0
220
0.0
230
1.0
  0
TEXT
  8
11
  6
CONTINUOUS
 62
     7
  5
19F
 10
932242.376
 20
7274583.872
 30
0.0
 40
8.0
  1
72'
 50
358.1981
  7
ROMANS
210
0.0
220
0.0
230
1.0
  0
TEXT
  8
11
  6
CONTINUOUS
 62
     7
  5
1A0
 10
932311.768
 20
7274579.161
 30
0.0
 40
8.0
  1
72'
 50
358.1981
  7
ROMANS
210
0.0
220
0.0
230
1.0
  0
TEXT
  8
11
  6
CONTINUOUS
 62
     7
  5
1A1
 10
932475.976
 20
7274573.995
 30
0.0
 40
8.0
  1
50'
 50
358.1981
  7
ROMANS
210
0.0
220
0.0
230
1.0
  0
TEXT
  8
11
  6
CONTINUOUS
 62
     7
  5
1A2
 10
932521.49
 20
7274573.827
 30
0.0
 40
8.0
  1
35'
 50
358.1981
  7
ROMANS
210
0.0
220
0.0
230
1.0
  0
TEXT
  8
11
  6
CONTINUOUS
 62
     7
  5
1A3
 10
932555.816
 20
7273864.397
 30
0.0
 40
8.0
  1
60'
 50
358.1981
  7
ROMANS
210
0.0
220
0.0
230
1.0
  0
TEXT
  8
11
  6
CONTINUOUS
 62
     7
  5
1A4
 10
932578.773
 20
7274531.767
 30
0.0
 40
8.0
  1
60'
 50
358.1981
  7
ROMANS
210
0.0
220
0.0
230
1.0
  0
TEXT
  8
11
  6
CONTINUOUS
 62
     7
  5
1A5
 10
932172.602
 20
7274295.186
 30
0.0
 40
8.0
  1
50'
 50
358.1981
  7
ROMANS
210
0.0
220
0.0
230
1.0
  0
TEXT
  8
11
  6
CONTINUOUS
 62
     7
  5
1A6
 10
932149.729
 20
7274193.136
 30
0.0
 40
8.0
  1
50.35'
 50
358.1981
  7
ROMANS
210
0.0
220
0.0
230
1.0
  0
TEXT
  8
11
  6
CONTINUOUS
 62
     7
  5
1A7
 10
932145.097
 20
7273896.022
 30
0.0
 40
8.0
  1
50.35'
 50
358.1981
  7
ROMANS
210
0.0
220
0.0
230
1.0
  0
TEXT
  8
11
  6
CONTINUOUS
 62
     7
  5
1A8
 10
931686.796
 20
7274447.056
 30
0.0
 40
8.0
  1
15'
 50
358.1981
  7
ROMANS
210
0.0
220
0.0
230
1.0
  0
TEXT
  8
11
  6
CONTINUOUS
 62
     7
  5
1A9
 10
932524.218
 20
7274419.447
 30
0.0
 40
8.0
  1
15'
 50
358.1981
  7
ROMANS
210
0.0
220
0.0
230
1.0
  0
TEXT
  8
11
  6
CONTINUOUS
 62
     7
  5
1AA
 10
932620.248
 20
7274402.604
 30
0.0
 40
8.0
  1
15'
 50
358.1981
  7
ROMANS
210
0.0
220
0.0
230
1.0
  0
TEXT
  8
10
  6
CONTINUOUS
 62
   134
  5
1AC
 10
931900.027
 20
7274431.562
 30
0.0
 40
24.0
  1
5
 50
358.1981
  7
ROMANC
210
0.0
220
0.0
230
1.0
  0
TEXT
  8
10
  6
CONTINUOUS
 62
   134
  5
1AD
 10
932366.019
 20
7274416.901
 30
0.0
 40
24.0
  1
6
 50
358.1981
  7
ROMANC
210
0.0
220
0.0
230
1.0
  0
TEXT
  8
10
  6
CONTINUOUS
 62
   134
  5
1AE
 10
931919.179
 20
7274806.407
 30
0.0
 40
24.0
  1
3
 50
358.1981
  7
ROMANC
210
0.0
220
0.0
230
1.0
  0
TEXT
  8
10
  6
CONTINUOUS
 62
   134
  5
1AF
 10
932378.13
 20
7274798.531
 30
0.0
 40
24.0
  1
4
 50
358.1981
  7
ROMANC
210
0.0
220
0.0
230
1.0
  0
TEXT
  8
10
  6
CONTINUOUS
 62
   134
  5
1B0
 10
932382.237
 20
7275187.527
 30
0.0
 40
24.0
  1
2
 50
358.1981
  7
ROMANC
210
0.0
220
0.0
230
1.0
  0
TEXT
  8
10
  6
CONTINUOUS
 62
   134
  5
1B1
 10
931923.285
 20
7275195.403
 30
0.0
 40
24.0
  1
1
 50
358.1981
  7
ROMANC
210
0.0
220
0.0
230
1.0
  0
TEXT
  8
10
  6
CONTINUOUS
 62
   134
  5
1B2
 10
932916.144
 20
7274722.639
 30
0.0
 40
24.0
  1
5
 50
358.1981
  7
ROMANC
210
0.0
220
0.0
230
1.0
  0
TEXT
  8
10
  6
CONTINUOUS
 62
   134
  5
1B3
 10
932889.139
 20
7274385.565
 30
0.0
 40
24.0
  1
6
 50
358.1981
  7
ROMANC
210
0.0
220
0.0
230
1.0
  0
TEXT
  8
10
  6
CONTINUOUS
 62
   134
  5
1B4
 10
932883.578
 20
7274063.265
 30
0.0
 40
24.0
  1
7
 50
358.1981
  7
ROMANC
210
0.0
220
0.0
230
1.0
  0
TEXT
  8
11
  6
CONTINUOUS
 62
     7
  5
1B5
 10
931671.821
 20
7273919.33
 30
0.0
 40
8.0
  1
115.25'
 50
88.1981
  7
ROMANS
210
0.0
220
0.0
230
1.0
  0
TEXT
  8
11
  6
CONTINUOUS
 62
     7
  5
1B6
 10
932135.242
 20
7273915.004
 30
0.0
 40
8.0
  1
110.18'
 50
88.1981
  7
ROMANS
210
0.0
220
0.0
230
1.0
  0
TEXT
  8
11
  6
CONTINUOUS
 62
     7
  5
1B7
 10
932140.363
 20
7274077.766
 30
0.0
 40
8.0
  1
217.23'
 50
88.1981
  7
ROMANS
210
0.0
220
0.0
230
1.0
  0
TEXT
  8
11
  6
CONTINUOUS
 62
     7
  5
1B8
 10
931774.956
 20
7273905.18
 30
0.0
 40
8.0
  1
129.03'
 50
88.1981
  7
ROMANS
210
0.0
220
0.0
230
1.0
  0
TEXT
  8
11
  6
CONTINUOUS
 62
     7
  5
1B9
 10
931984.681
 20
7273902.937
 30
0.0
 40
8.0
  1
126.7'
 50
88.1981
  7
ROMANS
210
0.0
220
0.0
230
1.0
  0
TEXT
  8
11
  6
CONTINUOUS
 62
     7
  5
1BA
 10
932107.994
 20
7273810.168
 30
0.0
 40
8.0
  1
105.9'
 50
88.1981
  7
ROMANS
210
0.0
220
0.0
230
1.0
  0
TEXT
  8
11
  6
CONTINUOUS
 62
     7
  5
1BB
 10
932517.558
 20
7273789.105
 30
0.0
 40
8.0
  1
100'
 50
88.1981
  7
ROMANS
210
0.0
220
0.0
230
1.0
  0
TEXT
  8
11
  6
CONTINUOUS
 62
     7
  5
1BC
 10
932205.11
 20
7273962.247
 30
0.0
 40
8.0
  1
207.84'
 50
88.1981
  7
ROMANS
210
0.0
220
0.0
230
1.0
  0
TEXT
  8
11
  6
CONTINUOUS
 62
     7
  5
1BD
 10
932308.337
 20
7273994.443
 30
0.0
 40
8.0
  1
221.72'
 50
88.1981
  7
ROMANS
210
0.0
220
0.0
230
1.0
  0
TEXT
  8
11
  6
CONTINUOUS
 62
     7
  5
1BE
 10
932335.654
 20
7273996.31
 30
0.0
 40
8.0
  1
230.62'
 50
88.1981
  7
ROMANS
210
0.0
220
0.0
230
1.0
  0
TEXT
  8
11
  6
CONTINUOUS
 62
     7
  5
1BF
 10
932530.172
 20
7273941.115
 30
0.0
 40
8.0
  1
230.62'
 50
88.1981
  7
ROMANS
210
0.0
220
0.0
230
1.0
  0
TEXT
  8
11
  6
CONTINUOUS
 62
     7
  5
1C0
 10
932541.076
 20
7274136.726
 30
0.0
 40
8.0
  1
114.55'
 50
88.1981
  7
ROMANS
210
0.0
220
0.0
230
1.0
  0
TEXT
  8
11
  6
CONTINUOUS
 62
     7
  5
1C1
 10
932212.125
 20
7274141.971
 30
0.0
 40
8.0
  1
99.55'
 50
88.1981
  7
ROMANS
210
0.0
220
0.0
230
1.0
  0
TEXT
  8
11
  6
CONTINUOUS
 62
     7
  5
1C2
 10
931696.93
 20
7274258.28
 30
0.0
 40
8.0
  1
50'
 50
88.1981
  7
ROMANS
210
0.0
220
0.0
230
1.0
  0
TEXT
  8
11
  6
CONTINUOUS
 62
     7
  5
1C3
 10
932233.545
 20
7274246.851
 30
0.0
 40
8.0
  1
50'
 50
88.1981
  7
ROMANS
210
0.0
220
0.0
230
1.0
  0
TEXT
  8
11
  6
CONTINUOUS
 62
     7
  5
1C4
 10
932611.973
 20
7274228.74
 30
0.0
 40
8.0
  1
50'
 50
88.1981
  7
ROMANS
210
0.0
220
0.0
230
1.0
  0
TEXT
  8
11
  6
CONTINUOUS
 62
     7
  5
1C5
 10
931629.104
 20
7273918.109
 30
0.0
 40
8.0
  1
45'
 50
358.1981
  7
ROMANS
210
0.0
220
0.0
230
1.0
  0
TEXT
  8
11
  6
CONTINUOUS
 62
     7
  5
1C6
 10
931657.382
 20
7274717.557
 30
0.0
 40
8.0
  1
45'
 50
358.1981
  7
ROMANS
210
0.0
220
0.0
230
1.0
  0
TEXT
  8
11
  6
CONTINUOUS
 62
     7
  5
1C7
 10
931675.686
 20
7274085.521
 30
0.0
 40
8.0
  1
217.28'
 50
88.1981
  7
ROMANS
210
0.0
220
0.0
230
1.0
  0
TEXT
  8
11
  6
CONTINUOUS
 62
     7
  5
1C8
 10
932605.68
 20
7273940.647
 30
0.0
 40
8.0
  1
252.3'
 50
88.1981
  7
ROMANS
210
0.0
220
0.0
230
1.0
  0
TEXT
  8
11
  6
CONTINUOUS
 62
     7
  5
1C9
 10
932613.258
 20
7274132.095
 30
0.0
 40
8.0
  1
114.55'
 50
88.1981
  7
ROMANS
210
0.0
220
0.0
230
1.0
  0
TEXT
  8
11
  6
CONTINUOUS
 62
     7
  5
1CA
 10
932621.996
 20
7274316.512
 30
0.0
 40
8.0
  1
138.3'
 50
88.1981
  7
ROMANS
210
0.0
220
0.0
230
1.0
  0
TEXT
  8
11
  6
CONTINUOUS
 62
     7
  5
1CB
 10
932625.133
 20
7274459.552
 30
0.0
 40
8.0
  1
138.3'
 50
88.1981
  7
ROMANS
210
0.0
220
0.0
230
1.0
  0
TEXT
  8
11
  6
CONTINUOUS
 62
     7
  5
1CC
 10
932550.494
 20
7274487.712
 30
0.0
 40
8.0
  1
142.5'
 50
88.1981
  7
ROMANS
210
0.0
220
0.0
230
1.0
  0
TEXT
  8
11
  6
CONTINUOUS
 62
     7
  5
1CD
 10
932226.58
 20
7274501.991
 30
0.0
 40
8.0
  1
157.5'
 50
88.1981
  7
ROMANS
210
0.0
220
0.0
230
1.0
  0
TEXT
  8
11
  6
CONTINUOUS
 62
     7
  5
1CE
 10
932153.057
 20
7274504.304
 30
0.0
 40
8.0
  1
157.5'
 50
88.1981
  7
ROMANS
210
0.0
220
0.0
230
1.0
  0
TEXT
  8
11
  6
CONTINUOUS
 62
     7
  5
1CF
 10
931690.264
 20
7274522.953
 30
0.0
 40
8.0
  1
157.5'
 50
88.1981
  7
ROMANS
210
0.0
220
0.0
230
1.0
  0
TEXT
  8
11
  6
CONTINUOUS
 62
     7
  5
1D0
 10
932219.862
 20
7274331.802
 30
0.0
 40
8.0
  1
152.5'
 50
88.1981
  7
ROMANS
210
0.0
220
0.0
230
1.0
  0
TEXT
  8
11
  6
CONTINUOUS
 62
     7
  5
1D1
 10
932545.182
 20
7274318.84
 30
0.0
 40
8.0
  1
152.5'
 50
88.1981
  7
ROMANS
210
0.0
220
0.0
230
1.0
  0
TEXT
  8
11
  6
CONTINUOUS
 62
     7
  5
1D2
 10
932149.02
 20
7274332.667
 30
0.0
 40
8.0
  1
152.5'
 50
88.1981
  7
ROMANS
210
0.0
220
0.0
230
1.0
  0
TEXT
  8
11
  6
CONTINUOUS
 62
     7
  5
1D3
 10
931680.432
 20
7274329.671
 30
0.0
 40
8.0
  1
152.5'
 50
88.1981
  7
ROMANS
210
0.0
220
0.0
230
1.0
  0
TEXT
  8
11
  6
CONTINUOUS
 62
     7
  5
1D4
 10
931689.986
 20
7274636.044
 30
0.0
 40
8.0
  1
50'
 50
88.1981
  7
ROMANS
210
0.0
220
0.0
230
1.0
  0
TEXT
  8
11
  6
CONTINUOUS
 62
     7
  5
1D5
 10
932505.122
 20
7274605.013
 30
0.0
 40
8.0
  1
50'
 50
88.1981
  7
ROMANS
210
0.0
220
0.0
230
1.0
  0
TEXT
  8
11
  6
CONTINUOUS
 62
     7
  5
1D6
 10
932630.161
 20
7274571.114
 30
0.0
 40
8.0
  1
50'
 50
88.1981
  7
ROMANS
210
0.0
220
0.0
230
1.0
  0
TEXT
  8
11
  6
CONTINUOUS
 62
     7
  5
1D7
 10
932244.069
 20
7274112.117
 30
0.0
 40
8.0
  1
125'
 50
358.1981
  7
ROMANS
210
0.0
220
0.0
230
1.0
  0
TEXT
  8
11
  6
CONTINUOUS
 62
     7
  5
1D8
 10
931723.728
 20
7274976.933
 30
0.0
 40
8.0
  1
85'
 50
358.1981
  7
ROMANS
210
0.0
220
0.0
230
1.0
  0
TEXT
  8
11
  6
CONTINUOUS
 62
     7
  5
1D9
 10
931715.35
 20
7274673.444
 30
0.0
 40
8.0
  1
85'
 50
358.1981
  7
ROMANS
210
0.0
220
0.0
230
1.0
  0
TEXT
  8
11
  6
CONTINUOUS
 62
     7
  5
1DA
 10
931812.482
 20
7274976.477
 30
0.0
 40
8.0
  1
100'
 50
358.1981
  7
ROMANS
210
0.0
220
0.0
230
1.0
  0
TEXT
  8
11
  6
CONTINUOUS
 62
     7
  5
1DB
 10
931911.662
 20
7274973.357
 30
0.0
 40
8.0
  1
100'
 50
358.1981
  7
ROMANS
210
0.0
220
0.0
230
1.0
  0
TEXT
  8
11
  6
CONTINUOUS
 62
     7
  5
1DC
 10
932014.344
 20
7274970.127
 30
0.0
 40
8.0
  1
100'
 50
358.1981
  7
ROMANS
210
0.0
220
0.0
230
1.0
  0
TEXT
  8
11
  6
CONTINUOUS
 62
     7
  5
1DD
 10
932115.858
 20
7274966.933
 30
0.0
 40
8.0
  1
100'
 50
358.1981
  7
ROMANS
210
0.0
220
0.0
230
1.0
  0
TEXT
  8
11
  6
CONTINUOUS
 62
     7
  5
1DE
 10
932106.275
 20
7274662.314
 30
0.0
 40
8.0
  1
100'
 50
358.1981
  7
ROMANS
210
0.0
220
0.0
230
1.0
  0
TEXT
  8
11
  6
CONTINUOUS
 62
     7
  5
1DF
 10
932003.595
 20
7274665.545
 30
0.0
 40
8.0
  1
100'
 50
358.1981
  7
ROMANS
210
0.0
220
0.0
230
1.0
  0
TEXT
  8
11
  6
CONTINUOUS
 62
     7
  5
1E0
 10
931904.413
 20
7274668.665
 30
0.0
 40
8.0
  1
100'
 50
358.1981
  7
ROMANS
210
0.0
220
0.0
230
1.0
  0
TEXT
  8
11
  6
CONTINUOUS
 62
     7
  5
1E1
 10
931806.399
 20
7274671.749
 30
0.0
 40
8.0
  1
100'
 50
358.1981
  7
ROMANS
210
0.0
220
0.0
230
1.0
  0
TEXT
  8
11
  6
CONTINUOUS
 62
     7
  5
1E2
 10
932250.008
 20
7274961.545
 30
0.0
 40
8.0
  1
72'
 50
358.1981
  7
ROMANS
210
0.0
220
0.0
230
1.0
  0
TEXT
  8
11
  6
CONTINUOUS
 62
     7
  5
1E3
 10
932240.387
 20
7274655.758
 30
0.0
 40
8.0
  1
72'
 50
358.1981
  7
ROMANS
210
0.0
220
0.0
230
1.0
  0
TEXT
  8
11
  6
CONTINUOUS
 62
     7
  5
1E4
 10
932316.231
 20
7274653.371
 30
0.0
 40
8.0
  1
72'
 50
358.1981
  7
ROMANS
210
0.0
220
0.0
230
1.0
  0
TEXT
  8
11
  6
CONTINUOUS
 62
     7
  5
1E5
 10
932325.851
 20
7274959.158
 30
0.0
 40
8.0
  1
72'
 50
358.1981
  7
ROMANS
210
0.0
220
0.0
230
1.0
  0
TEXT
  8
11
  6
CONTINUOUS
 62
     7
  5
1E6
 10
932406.364
 20
7274956.626
 30
0.0
 40
8.0
  1
100'
 50
358.1981
  7
ROMANS
210
0.0
220
0.0
230
1.0
  0
TEXT
  8
11
  6
CONTINUOUS
 62
     7
  5
1E7
 10
932396.818
 20
7274653.175
 30
0.0
 40
8.0
  1
100'
 50
358.1981
  7
ROMANS
210
0.0
220
0.0
230
1.0
  0
TEXT
  8
11
  6
CONTINUOUS
 62
     7
  5
1E8
 10
932498.331
 20
7274649.98
 30
0.0
 40
8.0
  1
100'
 50
358.1981
  7
ROMANS
210
0.0
220
0.0
230
1.0
  0
TEXT
  8
11
  6
CONTINUOUS
 62
     7
  5
1E9
 10
932486.875
 20
7274954.092
 30
0.0
 40
8.0
  1
50'
 50
358.1981
  7
ROMANS
210
0.0
220
0.0
230
1.0
  0
TEXT
  8
11
  6
CONTINUOUS
 62
     7
  5
1EA
 10
932531.179
 20
7274951.532
 30
0.0
 40
8.0
  1
35'
 50
358.1981
  7
ROMANS
210
0.0
220
0.0
230
1.0
  0
TEXT
  8
11
  6
CONTINUOUS
 62
     7
  5
1EB
 10
932194.86
 20
7275064.921
 30
0.0
 40
8.0
  1
50'
 50
358.1981
  7
ROMANS
210
0.0
220
0.0
230
1.0
  0
TEXT
  8
11
  6
CONTINUOUS
 62
     7
  5
1EC
 10
932182.524
 20
7274672.767
 30
0.0
 40
8.0
  1
50'
 50
358.1981
  7
ROMANS
210
0.0
220
0.0
230
1.0
  0
TEXT
  8
11
  6
CONTINUOUS
 62
     7
  5
1ED
 10
931728.485
 20
7275053.89
 30
0.0
 40
8.0
  1
85'
 50
358.1981
  7
ROMANS
210
0.0
220
0.0
230
1.0
  0
TEXT
  8
11
  6
CONTINUOUS
 62
     7
  5
1EE
 10
931815.998
 20
7275051.137
 30
0.0
 40
8.0
  1
100'
 50
358.1981
  7
ROMANS
210
0.0
220
0.0
230
1.0
  0
TEXT
  8
11
  6
CONTINUOUS
 62
     7
  5
1EF
 10
931917.513
 20
7275047.944
 30
0.0
 40
8.0
  1
100'
 50
358.1981
  7
ROMANS
210
0.0
220
0.0
230
1.0
  0
TEXT
  8
11
  6
CONTINUOUS
 62
     7
  5
1F0
 10
932017.86
 20
7275044.786
 30
0.0
 40
8.0
  1
100'
 50
358.1981
  7
ROMANS
210
0.0
220
0.0
230
1.0
  0
TEXT
  8
11
  6
CONTINUOUS
 62
     7
  5
1F1
 10
932119.376
 20
7275041.592
 30
0.0
 40
8.0
  1
100'
 50
358.1981
  7
ROMANS
210
0.0
220
0.0
230
1.0
  0
TEXT
  8
11
  6
CONTINUOUS
 62
     7
  5
1F2
 10
932254.728
 20
7275037.335
 30
0.0
 40
8.0
  1
72'
 50
358.1981
  7
ROMANS
210
0.0
220
0.0
230
1.0
  0
TEXT
  8
11
  6
CONTINUOUS
 62
     7
  5
1F3
 10
932328.239
 20
7275035.022
 30
0.0
 40
8.0
  1
72'
 50
358.1981
  7
ROMANS
210
0.0
220
0.0
230
1.0
  0
TEXT
  8
11
  6
CONTINUOUS
 62
     7
  5
1F4
 10
932407.584
 20
7275032.527
 30
0.0
 40
8.0
  1
100'
 50
358.1981
  7
ROMANS
210
0.0
220
0.0
230
1.0
  0
TEXT
  8
11
  6
CONTINUOUS
 62
     7
  5
1F5
 10
932507.931
 20
7275029.369
 30
0.0
 40
8.0
  1
100'
 50
358.1981
  7
ROMANS
210
0.0
220
0.0
230
1.0
  0
TEXT
  8
11
  6
CONTINUOUS
 62
     7
  5
1F6
 10
932565.269
 20
7275075.29
 30
0.0
 40
8.0
  1
158.33'
 50
88.1981
  7
ROMANS
210
0.0
220
0.0
230
1.0
  0
TEXT
  8
11
  6
CONTINUOUS
 62
     7
  5
1F7
 10
932246.722
 20
7275085.312
 30
0.0
 40
8.0
  1
158.33'
 50
88.1981
  7
ROMANS
210
0.0
220
0.0
230
1.0
  0
TEXT
  8
11
  6
CONTINUOUS
 62
     7
  5
1F8
 10
932172.045
 20
7275087.661
 30
0.0
 40
8.0
  1
158.33'
 50
88.1981
  7
ROMANS
210
0.0
220
0.0
230
1.0
  0
TEXT
  8
11
  6
CONTINUOUS
 62
     7
  5
1F9
 10
931711.145
 20
7275102.161
 30
0.0
 40
8.0
  1
158.33'
 50
88.1981
  7
ROMANS
210
0.0
220
0.0
230
1.0
  0
TEXT
  8
11
  6
CONTINUOUS
 62
     7
  5
1FA
 10
931709.52
 20
7275013.423
 30
0.0
 40
8.0
  1
50'
 50
88.1981
  7
ROMANS
210
0.0
220
0.0
230
1.0
  0
TEXT
  8
11
  6
CONTINUOUS
 62
     7
  5
1FB
 10
932544.974
 20
7274987.14
 30
0.0
 40
8.0
  1
50'
 50
88.1981
  7
ROMANS
210
0.0
220
0.0
230
1.0
  0
TEXT
  8
11
  6
CONTINUOUS
 62
     7
  5
1FC
 10
931689.82
 20
7274827.291
 30
0.0
 40
8.0
  1
15'
 50
358.1981
  7
ROMANS
210
0.0
220
0.0
230
1.0
  0
TEXT
  8
11
  6
CONTINUOUS
 62
     7
  5
1FD
 10
932140.22
 20
7274813.122
 30
0.0
 40
8.0
  1
15'
 50
358.1981
  7
ROMANS
210
0.0
220
0.0
230
1.0
  0
TEXT
  8
11
  6
CONTINUOUS
 62
     7
  5
1FE
 10
932519.441
 20
7274801.192
 30
0.0
 40
8.0
  1
15'
 50
358.1981
  7
ROMANS
210
0.0
220
0.0
230
1.0
  0
TEXT
  8
11
  6
CONTINUOUS
 62
     7
  5
1FF
 10
932531.732
 20
7274820.667
 30
0.0
 40
8.0
  1
50'
 50
358.1981
  7
ROMANS
210
0.0
220
0.0
230
1.0
  0
TEXT
  8
11
  6
CONTINUOUS
 62
     7
  5
200
 10
932650.606
 20
7274058.552
 30
0.0
 40
8.0
  1
147.4'
 50
358.1981
  7
ROMANS
210
0.0
220
0.0
230
1.0
  0
TEXT
  8
11
  6
CONTINUOUS
 62
     7
  5
201
 10
933063.271
 20
7274044.571
 30
0.0
 40
8.0
  1
347.5'
 50
358.1981
  7
ROMANS
210
0.0
220
0.0
230
1.0
  0
TEXT
  8
11
  6
CONTINUOUS
 62
     7
  5
202
 10
932622.316
 20
7274197.087
 30
0.0
 40
8.0
  1
50'
 50
358.1981
  7
ROMANS
210
0.0
220
0.0
230
1.0
  0
TEXT
  8
11
  6
CONTINUOUS
 62
     7
  5
203
 10
932623.926
 20
7274269.558
 30
0.0
 40
8.0
  1
50'
 50
358.1981
  7
ROMANS
210
0.0
220
0.0
230
1.0
  0
TEXT
  8
11
  6
CONTINUOUS
 62
     7
  5
204
 10
932673.143
 20
7274268.009
 30
0.0
 40
8.0
  1
50'
 50
358.1981
  7
ROMANS
210
0.0
220
0.0
230
1.0
  0
TEXT
  8
11
  6
CONTINUOUS
 62
     7
  5
205
 10
932672.291
 20
7274195.514
 30
0.0
 40
8.0
  1
50'
 50
358.1981
  7
ROMANS
210
0.0
220
0.0
230
1.0
  0
TEXT
  8
11
  6
CONTINUOUS
 62
     7
  5
206
 10
932722.267
 20
7274193.942
 30
0.0
 40
8.0
  1
50'
 50
358.1981
  7
ROMANS
210
0.0
220
0.0
230
1.0
  0
TEXT
  8
11
  6
CONTINUOUS
 62
     7
  5
207
 10
932772.242
 20
7274192.37
 30
0.0
 40
8.0
  1
50'
 50
358.1981
  7
ROMANS
210
0.0
220
0.0
230
1.0
  0
TEXT
  8
11
  6
CONTINUOUS
 62
     7
  5
208
 10
932822.217
 20
7274190.797
 30
0.0
 40
8.0
  1
50'
 50
358.1981
  7
ROMANS
210
0.0
220
0.0
230
1.0
  0
TEXT
  8
11
  6
CONTINUOUS
 62
     7
  5
209
 10
932872.192
 20
7274189.226
 30
0.0
 40
8.0
  1
50'
 50
358.1981
  7
ROMANS
210
0.0
220
0.0
230
1.0
  0
TEXT
  8
11
  6
CONTINUOUS
 62
     7
  5
20A
 10
932922.168
 20
7274187.653
 30
0.0
 40
8.0
  1
50'
 50
358.1981
  7
ROMANS
210
0.0
220
0.0
230
1.0
  0
TEXT
  8
11
  6
CONTINUOUS
 62
     7
  5
20B
 10
932972.143
 20
7274186.081
 30
0.0
 40
8.0
  1
50'
 50
358.1981
  7
ROMANS
210
0.0
220
0.0
230
1.0
  0
TEXT
  8
11
  6
CONTINUOUS
 62
     7
  5
20C
 10
933022.118
 20
7274184.51
 30
0.0
 40
8.0
  1
50'
 50
358.1981
  7
ROMANS
210
0.0
220
0.0
230
1.0
  0
TEXT
  8
11
  6
CONTINUOUS
 62
     7
  5
20D
 10
933072.094
 20
7274182.937
 30
0.0
 40
8.0
  1
50'
 50
358.1981
  7
ROMANS
210
0.0
220
0.0
230
1.0
  0
TEXT
  8
11
  6
CONTINUOUS
 62
     7
  5
20E
 10
933122.069
 20
7274181.364
 30
0.0
 40
8.0
  1
50'
 50
358.1981
  7
ROMANS
210
0.0
220
0.0
230
1.0
  0
TEXT
  8
11
  6
CONTINUOUS
 62
     7
  5
20F
 10
933172.044
 20
7274179.793
 30
0.0
 40
8.0
  1
50'
 50
358.1981
  7
ROMANS
210
0.0
220
0.0
230
1.0
  0
TEXT
  8
11
  6
CONTINUOUS
 62
     7
  5
210
 10
932721.302
 20
7274265.467
 30
0.0
 40
8.0
  1
45'
 50
358.1981
  7
ROMANS
210
0.0
220
0.0
230
1.0
  0
TEXT
  8
11
  6
CONTINUOUS
 62
     7
  5
211
 10
932756.197
 20
7274265.397
 30
0.0
 40
8.0
  1
25'
 50
358.1981
  7
ROMANS
210
0.0
220
0.0
230
1.0
  0
TEXT
  8
11
  6
CONTINUOUS
 62
     7
  5
212
 10
932780.805
 20
7274264.623
 30
0.0
 40
8.0
  1
25'
 50
358.1981
  7
ROMANS
210
0.0
220
0.0
230
1.0
  0
TEXT
  8
11
  6
CONTINUOUS
 62
     7
  5
213
 10
932806.439
 20
7274263.817
 30
0.0
 40
8.0
  1
25'
 50
358.1981
  7
ROMANS
210
0.0
220
0.0
230
1.0
  0
TEXT
  8
11
  6
CONTINUOUS
 62
     7
  5
214
 10
932831.048
 20
7274263.042
 30
0.0
 40
8.0
  1
25'
 50
358.1981
  7
ROMANS
210
0.0
220
0.0
230
1.0
  0
TEXT
  8
11
  6
CONTINUOUS
 62
     7
  5
215
 10
932854.63
 20
7274262.3
 30
0.0
 40
8.0
  1
25'
 50
358.1981
  7
ROMANS
210
0.0
220
0.0
230
1.0
  0
TEXT
  8
11
  6
CONTINUOUS
 62
     7
  5
216
 10
932940.76
 20
7274259.591
 30
0.0
 40
8.0
  1
25'
 50
358.1981
  7
ROMANS
210
0.0
220
0.0
230
1.0
  0
TEXT
  8
11
  6
CONTINUOUS
 62
     7
  5
217
 10
932966.394
 20
7274258.785
 30
0.0
 40
8.0
  1
25'
 50
358.1981
  7
ROMANS
210
0.0
220
0.0
230
1.0
  0
TEXT
  8
11
  6
CONTINUOUS
 62
     7
  5
218
 10
932991.003
 20
7274258.01
 30
0.0
 40
8.0
  1
25'
 50
358.1981
  7
ROMANS
210
0.0
220
0.0
230
1.0
  0
TEXT
  8
11
  6
CONTINUOUS
 62
     7
  5
219
 10
933075.081
 20
7274255.365
 30
0.0
 40
8.0
  1
25'
 50
358.1981
  7
ROMANS
210
0.0
220
0.0
230
1.0
  0
TEXT
  8
11
  6
CONTINUOUS
 62
     7
  5
21A
 10
933100.716
 20
7274254.559
 30
0.0
 40
8.0
  1
25'
 50
358.1981
  7
ROMANS
210
0.0
220
0.0
230
1.0
  0
TEXT
  8
11
  6
CONTINUOUS
 62
     7
  5
21B
 10
933127.375
 20
7274253.72
 30
0.0
 40
8.0
  1
25'
 50
358.1981
  7
ROMANS
210
0.0
220
0.0
230
1.0
  0
TEXT
  8
11
  6
CONTINUOUS
 62
     7
  5
21C
 10
933150.958
 20
7274252.978
 30
0.0
 40
8.0
  1
25'
 50
358.1981
  7
ROMANS
210
0.0
220
0.0
230
1.0
  0
TEXT
  8
11
  6
CONTINUOUS
 62
     7
  5
21D
 10
932884.365
 20
7274261.364
 30
0.0
 40
8.0
  1
30'
 50
358.1981
  7
ROMANS
210
0.0
220
0.0
230
1.0
  0
TEXT
  8
11
  6
CONTINUOUS
 62
     7
  5
21E
 10
932913.076
 20
7274260.461
 30
0.0
 40
8.0
  1
30'
 50
358.1981
  7
ROMANS
210
0.0
220
0.0
230
1.0
  0
TEXT
  8
11
  6
CONTINUOUS
 62
     7
  5
21F
 10
933018.687
 20
7274257.14
 30
0.0
 40
8.0
  1
30'
 50
358.1981
  7
ROMANS
210
0.0
220
0.0
230
1.0
  0
TEXT
  8
11
  6
CONTINUOUS
 62
     7
  5
220
 10
933047.398
 20
7274256.235
 30
0.0
 40
8.0
  1
30'
 50
358.1981
  7
ROMANS
210
0.0
220
0.0
230
1.0
  0
TEXT
  8
11
  6
CONTINUOUS
 62
     7
  5
221
 10
933175.567
 20
7274252.204
 30
0.0
 40
8.0
  1
20'
 50
358.1981
  7
ROMANS
210
0.0
220
0.0
230
1.0
  0
TEXT
  8
11
  6
CONTINUOUS
 62
     7
  5
222
 10
933185.365
 20
7274367.904
 30
0.0
 40
8.0
  1
35'
 50
358.1981
  7
ROMANS
210
0.0
220
0.0
230
1.0
  0
TEXT
  8
11
  6
CONTINUOUS
 62
     7
  5
223
 10
933199.951
 20
7274113.638
 30
0.0
 40
8.0
  1
114.55'
 50
88.1981
  7
ROMANS
210
0.0
220
0.0
230
1.0
  0
TEXT
  8
11
  6
CONTINUOUS
 62
     7
  5
224
 10
932741.09
 20
7273934.138
 30
0.0
 40
8.0
  1
266.43'
 50
88.1981
  7
ROMANS
210
0.0
220
0.0
230
1.0
  0
TEXT
  8
11
  6
CONTINUOUS
 62
     7
  5
225
 10
933232.932
 20
7274266.874
 30
0.0
 40
8.0
  1
60'
 50
358.1981
  7
ROMANS
210
0.0
220
0.0
230
1.0
  0
TEXT
  8
11
  6
CONTINUOUS
 62
     7
  5
226
 10
933170.864
 20
7274063.719
 30
0.0
 40
8.0
  1
20'
 50
358.1981
  7
ROMANS
210
0.0
220
0.0
230
1.0
  0
TEXT
  8
11
  6
CONTINUOUS
 62
     7
  5
227
 10
933207.718
 20
7274450.896
 30
0.0
 40
8.0
  1
138.3'
 50
88.1981
  7
ROMANS
210
0.0
220
0.0
230
1.0
  0
TEXT
  8
11
  6
CONTINUOUS
 62
     7
  5
228
 10
933185.76
 20
7274384.813
 30
0.0
 40
8.0
  1
15'
 50
358.1981
  7
ROMANS
210
0.0
220
0.0
230
1.0
  0
TEXT
  8
11
  6
CONTINUOUS
 62
     7
  5
229
 10
933196.58
 20
7274728.746
 30
0.0
 40
8.0
  1
15'
 50
358.1981
  7
ROMANS
210
0.0
220
0.0
230
1.0
  0
TEXT
  8
11
  6
CONTINUOUS
 62
     7
  5
22A
 10
932627.823
 20
7274746.639
 30
0.0
 40
8.0
  1
15'
 50
358.1981
  7
ROMANS
210
0.0
220
0.0
230
1.0
  0
TEXT
  8
11
  6
CONTINUOUS
 62
     7
  5
22B
 10
932630.376
 20
7274539.079
 30
0.0
 40
8.0
  1
50'
 50
358.1981
  7
ROMANS
210
0.0
220
0.0
230
1.0
  0
TEXT
  8
11
  6
CONTINUOUS
 62
     7
  5
22C
 10
932680.352
 20
7274537.508
 30
0.0
 40
8.0
  1
50'
 50
358.1981
  7
ROMANS
210
0.0
220
0.0
230
1.0
  0
TEXT
  8
11
  6
CONTINUOUS
 62
     7
  5
22D
 10
932730.327
 20
7274535.935
 30
0.0
 40
8.0
  1
50'
 50
358.1981
  7
ROMANS
210
0.0
220
0.0
230
1.0
  0
TEXT
  8
11
  6
CONTINUOUS
 62
     7
  5
22E
 10
932780.303
 20
7274534.362
 30
0.0
 40
8.0
  1
50'
 50
358.1981
  7
ROMANS
210
0.0
220
0.0
230
1.0
  0
TEXT
  8
11
  6
CONTINUOUS
 62
     7
  5
22F
 10
932830.278
 20
7274532.791
 30
0.0
 40
8.0
  1
50'
 50
358.1981
  7
ROMANS
210
0.0
220
0.0
230
1.0
  0
TEXT
  8
11
  6
CONTINUOUS
 62
     7
  5
230
 10
932880.253
 20
7274531.218
 30
0.0
 40
8.0
  1
50'
 50
358.1981
  7
ROMANS
210
0.0
220
0.0
230
1.0
  0
TEXT
  8
11
  6
CONTINUOUS
 62
     7
  5
231
 10
932930.228
 20
7274529.646
 30
0.0
 40
8.0
  1
50'
 50
358.1981
  7
ROMANS
210
0.0
220
0.0
230
1.0
  0
TEXT
  8
11
  6
CONTINUOUS
 62
     7
  5
232
 10
932980.203
 20
7274528.075
 30
0.0
 40
8.0
  1
50'
 50
358.1981
  7
ROMANS
210
0.0
220
0.0
230
1.0
  0
TEXT
  8
11
  6
CONTINUOUS
 62
     7
  5
233
 10
933030.179
 20
7274526.502
 30
0.0
 40
8.0
  1
50'
 50
358.1981
  7
ROMANS
210
0.0
220
0.0
230
1.0
  0
TEXT
  8
11
  6
CONTINUOUS
 62
     7
  5
234
 10
933080.154
 20
7274524.929
 30
0.0
 40
8.0
  1
50'
 50
358.1981
  7
ROMANS
210
0.0
220
0.0
230
1.0
  0
TEXT
  8
11
  6
CONTINUOUS
 62
     7
  5
235
 10
933130.129
 20
7274523.358
 30
0.0
 40
8.0
  1
50'
 50
358.1981
  7
ROMANS
210
0.0
220
0.0
230
1.0
  0
TEXT
  8
11
  6
CONTINUOUS
 62
     7
  5
236
 10
933180.106
 20
7274521.785
 30
0.0
 40
8.0
  1
50'
 50
358.1981
  7
ROMANS
210
0.0
220
0.0
230
1.0
  0
TEXT
  8
11
  6
CONTINUOUS
 62
     7
  5
237
 10
932634.038
 20
7274608.243
 30
0.0
 40
8.0
  1
50'
 50
358.1981
  7
ROMANS
210
0.0
220
0.0
230
1.0
  0
TEXT
  8
11
  6
CONTINUOUS
 62
     7
  5
238
 10
932642.607
 20
7274880.677
 30
0.0
 40
8.0
  1
50'
 50
358.1981
  7
ROMANS
210
0.0
220
0.0
230
1.0
  0
TEXT
  8
11
  6
CONTINUOUS
 62
     7
  5
239
 10
932692.582
 20
7274879.105
 30
0.0
 40
8.0
  1
50'
 50
358.1981
  7
ROMANS
210
0.0
220
0.0
230
1.0
  0
TEXT
  8
11
  6
CONTINUOUS
 62
     7
  5
23A
 10
932742.559
 20
7274877.532
 30
0.0
 40
8.0
  1
50'
 50
358.1981
  7
ROMANS
210
0.0
220
0.0
230
1.0
  0
TEXT
  8
11
  6
CONTINUOUS
 62
     7
  5
23B
 10
932792.534
 20
7274875.96
 30
0.0
 40
8.0
  1
50'
 50
358.1981
  7
ROMANS
210
0.0
220
0.0
230
1.0
  0
TEXT
  8
11
  6
CONTINUOUS
 62
     7
  5
23C
 10
932842.509
 20
7274874.388
 30
0.0
 40
8.0
  1
50'
 50
358.1981
  7
ROMANS
210
0.0
220
0.0
230
1.0
  0
TEXT
  8
11
  6
CONTINUOUS
 62
     7
  5
23D
 10
932892.485
 20
7274872.815
 30
0.0
 40
8.0
  1
50'
 50
358.1981
  7
ROMANS
210
0.0
220
0.0
230
1.0
  0
TEXT
  8
11
  6
CONTINUOUS
 62
     7
  5
23E
 10
932942.459
 20
7274871.244
 30
0.0
 40
8.0
  1
50'
 50
358.1981
  7
ROMANS
210
0.0
220
0.0
230
1.0
  0
TEXT
  8
11
  6
CONTINUOUS
 62
     7
  5
23F
 10
932992.434
 20
7274869.672
 30
0.0
 40
8.0
  1
50'
 50
358.1981
  7
ROMANS
210
0.0
220
0.0
230
1.0
  0
TEXT
  8
11
  6
CONTINUOUS
 62
     7
  5
240
 10
933042.409
 20
7274868.099
 30
0.0
 40
8.0
  1
50'
 50
358.1981
  7
ROMANS
210
0.0
220
0.0
230
1.0
  0
TEXT
  8
11
  6
CONTINUOUS
 62
     7
  5
241
 10
933092.385
 20
7274866.528
 30
0.0
 40
8.0
  1
50'
 50
358.1981
  7
ROMANS
210
0.0
220
0.0
230
1.0
  0
TEXT
  8
11
  6
CONTINUOUS
 62
     7
  5
242
 10
933142.361
 20
7274864.955
 30
0.0
 40
8.0
  1
50'
 50
358.1981
  7
ROMANS
210
0.0
220
0.0
230
1.0
  0
TEXT
  8
11
  6
CONTINUOUS
 62
     7
  5
243
 10
933192.336
 20
7274863.382
 30
0.0
 40
8.0
  1
50'
 50
358.1981
  7
ROMANS
210
0.0
220
0.0
230
1.0
  0
TEXT
  8
11
  6
CONTINUOUS
 62
     7
  5
244
 10
932684.012
 20
7274606.67
 30
0.0
 40
8.0
  1
50'
 50
358.1981
  7
ROMANS
210
0.0
220
0.0
230
1.0
  0
TEXT
  8
11
  6
CONTINUOUS
 62
     7
  5
245
 10
932733.987
 20
7274605.097
 30
0.0
 40
8.0
  1
50'
 50
358.1981
  7
ROMANS
210
0.0
220
0.0
230
1.0
  0
TEXT
  8
11
  6
CONTINUOUS
 62
     7
  5
246
 10
932783.963
 20
7274603.526
 30
0.0
 40
8.0
  1
50'
 50
358.1981
  7
ROMANS
210
0.0
220
0.0
230
1.0
  0
TEXT
  8
11
  6
CONTINUOUS
 62
     7
  5
247
 10
932833.938
 20
7274601.953
 30
0.0
 40
8.0
  1
50'
 50
358.1981
  7
ROMANS
210
0.0
220
0.0
230
1.0
  0
TEXT
  8
11
  6
CONTINUOUS
 62
     7
  5
248
 10
932883.913
 20
7274600.381
 30
0.0
 40
8.0
  1
50'
 50
358.1981
  7
ROMANS
210
0.0
220
0.0
230
1.0
  0
TEXT
  8
11
  6
CONTINUOUS
 62
     7
  5
249
 10
932933.889
 20
7274598.81
 30
0.0
 40
8.0
  1
50'
 50
358.1981
  7
ROMANS
210
0.0
220
0.0
230
1.0
  0
TEXT
  8
11
  6
CONTINUOUS
 62
     7
  5
24A
 10
932983.865
 20
7274597.237
 30
0.0
 40
8.0
  1
50'
 50
358.1981
  7
ROMANS
210
0.0
220
0.0
230
1.0
  0
TEXT
  8
11
  6
CONTINUOUS
 62
     7
  5
24B
 10
933033.84
 20
7274595.666
 30
0.0
 40
8.0
  1
50'
 50
358.1981
  7
ROMANS
210
0.0
220
0.0
230
1.0
  0
TEXT
  8
11
  6
CONTINUOUS
 62
     7
  5
24C
 10
933083.814
 20
7274594.093
 30
0.0
 40
8.0
  1
50'
 50
358.1981
  7
ROMANS
210
0.0
220
0.0
230
1.0
  0
TEXT
  8
11
  6
CONTINUOUS
 62
     7
  5
24D
 10
933133.79
 20
7274592.52
 30
0.0
 40
8.0
  1
50'
 50
358.1981
  7
ROMANS
210
0.0
220
0.0
230
1.0
  0
TEXT
  8
11
  6
CONTINUOUS
 62
     7
  5
24E
 10
933183.765
 20
7274590.949
 30
0.0
 40
8.0
  1
50'
 50
358.1981
  7
ROMANS
210
0.0
220
0.0
230
1.0
  0
TEXT
  8
11
  6
CONTINUOUS
 62
     7
  5
24F
 10
932631.704
 20
7274654.972
 30
0.0
 40
8.0
  1
138.3'
 50
88.1981
  7
ROMANS
210
0.0
220
0.0
230
1.0
  0
TEXT
  8
11
  6
CONTINUOUS
 62
     7
  5
250
 10
932636.361
 20
7274802.986
 30
0.0
 40
8.0
  1
138.3'
 50
88.1981
  7
ROMANS
210
0.0
220
0.0
230
1.0
  0
TEXT
  8
11
  6
CONTINUOUS
 62
     7
  5
251
 10
933218.657
 20
7274785.74
 30
0.0
 40
8.0
  1
138.3'
 50
88.1981
  7
ROMANS
210
0.0
220
0.0
230
1.0
  0
TEXT
  8
11
  6
CONTINUOUS
 62
     7
  5
252
 10
933213.832
 20
7274632.362
 30
0.0
 40
8.0
  1
138.3'
 50
88.1981
  7
ROMANS
210
0.0
220
0.0
230
1.0
  0
TEXT
  8
11
  6
CONTINUOUS
 62
     7
  5
253
 10
933184.181
 20
7274556.648
 30
0.0
 40
8.0
  1
50'
 50
88.1981
  7
ROMANS
210
0.0
220
0.0
230
1.0
  0
TEXT
  8
11
  6
CONTINUOUS
 62
     7
  5
254
 10
933168.705
 20
7274207.47
 30
0.0
 40
8.0
  1
50'
 50
88.1981
  7
ROMANS
210
0.0
220
0.0
230
1.0
  0
TEXT
  8
11
  6
CONTINUOUS
 62
     7
  5
255
 10
933221.607
 20
7274894.837
 30
0.0
 40
8.0
  1
50'
 50
88.1981
  7
ROMANS
210
0.0
220
0.0
230
1.0
  0
TEXT
  8
11
  6
CONTINUOUS
 62
     7
  5
256
 10
932637.803
 20
7274914.632
 30
0.0
 40
8.0
  1
50'
 50
88.1981
  7
ROMANS
210
0.0
220
0.0
230
1.0
  0
TEXT
  8
11
  6
CONTINUOUS
 62
     7
  5
257
 10
931703.932
 20
7274896.038
 30
0.0
 40
8.0
  1
157.5'
 50
88.1981
  7
ROMANS
210
0.0
220
0.0
230
1.0
  0
TEXT
  8
11
  6
CONTINUOUS
 62
     7
  5
258
 10
932171.228
 20
7274901.292
 30
0.0
 40
8.0
  1
157.5'
 50
88.1981
  7
ROMANS
210
0.0
220
0.0
230
1.0
  0
TEXT
  8
11
  6
CONTINUOUS
 62
     7
  5
259
 10
932157.449
 20
7274710.729
 30
0.0
 40
8.0
  1
157.5'
 50
88.1981
  7
ROMANS
210
0.0
220
0.0
230
1.0
  0
TEXT
  8
11
  6
CONTINUOUS
 62
     7
  5
25A
 10
931697.04
 20
7274730.244
 30
0.0
 40
8.0
  1
157.5'
 50
88.1981
  7
ROMANS
210
0.0
220
0.0
230
1.0
  0
TEXT
  8
11
  6
CONTINUOUS
 62
     7
  5
25B
 10
932233.499
 20
7274900.047
 30
0.0
 40
8.0
  1
157.5'
 50
88.1981
  7
ROMANS
210
0.0
220
0.0
230
1.0
  0
TEXT
  8
11
  6
CONTINUOUS
 62
     7
  5
25C
 10
932227.765
 20
7274689.19
 30
0.0
 40
8.0
  1
157.5'
 50
88.1981
  7
ROMANS
210
0.0
220
0.0
230
1.0
  0
TEXT
  8
11
  6
CONTINUOUS
 62
     7
  5
25D
 10
932552.805
 20
7274701.645
 30
0.0
 40
8.0
  1
157.5'
 50
88.1981
  7
ROMANS
210
0.0
220
0.0
230
1.0
  0
TEXT
  8
11
  6
CONTINUOUS
 62
     7
  5
25E
 10
932561.372
 20
7274867.385
 30
0.0
 40
8.0
  1
142.5'
 50
88.1981
  7
ROMANS
210
0.0
220
0.0
230
1.0
  0
TEXT
  8
15
  6
CONTINUOUS
 62
    30
  5
260
 10
931706.62
 20
7274693.43
 30
0.0
 40
50.0
  1
COWAN
 50
28.1981
  7
ROMANC
 72
     4
 11
931817.975715
 21
7274781.500226
 31
0.0
210
0.0
220
0.0
230
1.0
  0
TEXT
  8
19
  6
CONTINUOUS
 62
     1
  5
262
 10
931924.89
 20
7275919.229
 30
0.0
 40
24.0
  1
GREEK
 50
88.1981
  7
ROMANC
 72
     4
 11
931914.931015
 21
7275984.295323
 31
0.0
210
0.0
220
0.0
230
1.0
  0
TEXT
  8
15
  6
CONTINUOUS
 62
    30
  5
263
 10
931941.298
 20
7275523.07
 30
0.0
 40
40.0
  1
FRATERNITY
 50
28.1981
  7
ROMANC
 72
     4
 11
932116.704255
 21
7275639.807775
 31
0.0
210
0.0
220
0.0
230
1.0
  0
TEXT
  8
11
  6
CONTINUOUS
 62
     7
  5
264
 10
931827.415
 20
7279021.779
 30
0.0
 40
8.0
  1
60'
 50
88.4786
  7
ROMANS
210
0.0
220
0.0
230
1.0
  0
TEXT
  8
19
  6
CONTINUOUS
 62
     1
  5
265
 10
933546.134
 20
7274426.111
 30
0.0
 40
24.0
  1

 50
43.1981
  7
ROMANC
 72
     4
 11
933546.134
 21
7274426.111
 31
0.0
210
0.0
220
0.0
230
1.0
  0
TEXT
  8
15
  6
CONTINUOUS
 62
    30
  5
266
 10
932575.367
 20
7274270.618
 30
0.0
 40
34.999
  1
LEFTWICH 
 50
28.1981
  7
ROMANC
 72
     4
 11
932713.057539
 21
7274364.297739
 31
0.0
210
0.0
220
0.0
230
1.0
  0
TEXT
  8
15
  6
CONTINUOUS
 62
    30
  5
267
 10
932760.263
 20
7274694.896
 30
0.0
 40
34.999
  1
C.C.
 50
28.1981
  7
ROMANC
 72
     4
 11
932793.888259
 21
7274732.780869
 31
0.0
210
0.0
220
0.0
230
1.0
  0
TEXT
  8
22
  6
CONTINUOUS
 62
     3
  5
269
 10
933896.35
 20
7274371.909
 30
0.0
 40
8.0
  1
20' UTILITY EASEMENT
 50
34.850731
  7
ROMANS
210
0.0
220
0.0
230
1.0
  0
TEXT
  8
10
  6
CONTINUOUS
 62
   134
  5
26A
 10
932356.284
 20
7274079.492
 30
0.0
 40
24.0
  1
11
 50
358.1981
  7
ROMANC
210
0.0
220
0.0
230
1.0
  0
TEXT
  8
19
  6
CONTINUOUS
 62
     1
  5
26B
 10
931679.879
 20
7274248.413
 30
0.0
 40
24.0
  1
18TH ST
 50
358.1981
  7
ROMANC
 72
     4
 11
931764.776512
 21
7274257.748107
 31
0.0
210
0.0
220
0.0
230
1.0
  0
TEXT
  8
19
  6
CONTINUOUS
 62
     1
  5
26C
 10
931722.423
 20
7274629.164
 30
0.0
 40
24.0
  1
17TH ST
 50
358.1981
  7
ROMANC
 72
     4
 11
931807.320512
 21
7274638.499107
 31
0.0
210
0.0
220
0.0
230
1.0
  0
TEXT
  8
19
  6
CONTINUOUS
 62
     1
  5
26D
 10
931736.883
 20
7275009.133
 30
0.0
 40
24.0
  1
16TH ST
 50
358.1981
  7
ROMANC
 72
     4
 11
931821.780512
 21
7275018.468107
 31
0.0
210
0.0
220
0.0
230
1.0
  0
TEXT
  8
19
  6
CONTINUOUS
 62
     1
  5
26E
 10
932724.743
 20
7274904.648
 30
0.0
 40
24.0
  1
16TH ST
 50
358.1981
  7
ROMANC
 72
     4
 11
932809.640512
 21
7274913.983107
 31
0.0
210
0.0
220
0.0
230
1.0
  0
TEXT
  8
19
  6
CONTINUOUS
 62
     1
  5
26F
 10
932724.552
 20
7274567.342
 30
0.0
 40
24.0
  1
17TH ST
 50
358.1981
  7
ROMANC
 72
     4
 11
932809.449512
 21
7274576.677107
 31
0.0
210
0.0
220
0.0
230
1.0
  0
TEXT
  8
19
  6
CONTINUOUS
 62
     1
  5
270
 10
932716.1
 20
7274222.075
 30
0.0
 40
24.0
  1
18TH ST
 50
358.1981
  7
ROMANC
 72
     4
 11
932800.997512
 21
7274231.410107
 31
0.0
210
0.0
220
0.0
230
1.0
  0
TEXT
  8
19
  6
CONTINUOUS
 62
     1
  5
271
 10
932636.058
 20
7275255.266
 30
0.0
 40
24.0
  1
15TH ST
 50
358.1981
  7
ROMANC
 72
     4
 11
932720.955512
 21
7275264.601107
 31
0.0
210
0.0
220
0.0
230
1.0
  0
TEXT
  8
19
  6
CONTINUOUS
 62
     1
  5
272
 10
931793.034
 20
7279019.498
 30
0.0
 40
24.0
  1
4TH ST
 50
358.4786
  7
ROMANC
 72
     4
 11
931869.951591
 21
7279029.459325
 31
0.0
210
0.0
220
0.0
230
1.0
  0
TEXT
  8
19
  6
CONTINUOUS
 62
     1
  5
273
 10
935090.333
 20
7273742.789
 30
0.0
 40
24.0
  1
(U.S. 62)               19TH ST
 50
358.4786
  7
ROMANC
 72
     4
 11
935355.288281
 21
7273747.756104
 31
0.0
210
0.0
220
0.0
230
1.0
  0
TEXT
  8
19
  6
CONTINUOUS
 62
     1
  5
274
 10
932867.43
 20
7273754.789
 30
0.0
 40
24.0
  1
(U.S. 62)               19TH ST
 50
358.4786
  7
ROMANC
 72
     4
 11
933132.385281
 21
7273759.756104
 31
0.0
210
0.0
220
0.0
230
1.0
  0
TEXT
  8
19
  6
CONTINUOUS
 62
     1
  5
275
 10
931708.14
 20
7276065.795
 30
0.0
 40
24.0
  1
QUAKER AVE
 50
88.1981
  7
ROMANC
 72
     4
 11
931700.391364
 21
7276201.121564
 31
0.0
210
0.0
220
0.0
230
1.0
  0
TEXT
  8
19
  6
CONTINUOUS
 62
     1
  5
276
 10
932848.039
 20
7275554.571
 30
0.0
 40
24.0
  1
ORLANDO AVE
 50
88.1981
  7
ROMANC
 72
     4
 11
932840.608199
 21
7275700.000566
 31
0.0
210
0.0
220
0.0
230
1.0
  0
TEXT
  8
19
  6
CONTINUOUS
 62
     1
  5
277
 10
931742.518
 20
7278423.629
 30
0.0
 40
24.0
  1
QUAKER AVE
 50
88.4786
  7
ROMANC
 72
     4
 11
931734.106948
 21
7278558.916008
 31
0.0
210
0.0
220
0.0
230
1.0
  0
TEXT
  8
10
  6
CONTINUOUS
 62
   134
  5
278
 10
931888.284
 20
7274031.603
 30
0.0
 40
24.0
  1
7
 50
358.1981
  7
ROMANC
210
0.0
220
0.0
230
1.0
  0
TEXT
  8
19
  6
CONTINUOUS
 62
     1
  5
279
 10
933249.23
 20
7274296.74
 30
0.0
 40
24.0
  1
NORFOLK AVE
 50
88.1981
  7
ROMANC
 72
     4
 11
933241.858691
 21
7274444.06063
 31
0.0
210
0.0
220
0.0
230
1.0
  0
TEXT
  8
15
  6
CONTINUOUS
 62
    30
  5
27A
 10
933387.344
 20
7274780.55
 30
0.0
 40
34.999
  1
CARILLON
 50
28.1981
  7
ROMANC
 72
     4
 11
933503.662551
 21
7274862.771092
 31
0.0
210
0.0
220
0.0
230
1.0
  0
TEXT
  8
19
  6
CONTINUOUS
 62
     1
  5
27B
 10
933546.128
 20
7274426.112
 30
0.0
 40
24.0
  1

 50
43.1981
  7
ROMANC
 72
     4
 11
933546.128
 21
7274426.112
 31
0.0
210
0.0
220
0.0
230
1.0
  0
TEXT
  8
15
  6
CONTINUOUS
 62
    30
  5
27C
 10
933387.338
 20
7274780.552
 30
0.0
 40
34.999
  1
CARILLON
 50
28.1981
  7
ROMANC
 72
     4
 11
933503.656551
 21
7274862.773092
 31
0.0
210
0.0
220
0.0
230
1.0
  0
LINE
  8
6
  6
CONTINUOUS
 62
     7
  5
27D
 10
933287.945
 20
7275269.209
 30
0.0
 11
932859.348
 21
7275287.356
 31
0.0
  0
LINE
  8
6
  6
CONTINUOUS
 62
     7
  5
27E
 10
932855.278
 20
7275229.986
 30
0.0
 11
932636.25
 21
7275236.876
 31
0.0
  0
LINE
  8
6
  6
CONTINUOUS
 62
     7
  5
27F
 10
932636.25
 20
7275236.876
 30
0.0
 11
932627.081
 21
7274945.422
 31
0.0
  0
LINE
  8
6
  6
CONTINUOUS
 62
     7
  5
280
 10
932627.081
 20
7274945.422
 30
0.0
 11
933286.762
 21
7274924.859
 31
0.0
  0
LINE
  8
6
  6
CONTINUOUS
 62
     7
  5
281
 10
933286.762
 20
7274924.859
 30
0.0
 11
933261.99
 21
7274141.091
 31
0.0
  0
LINE
  8
6
  6
CONTINUOUS
 62
     7
  5
282
 10
933261.99
 20
7274141.091
 30
0.0
 11
933314.304
 21
7274109.371
 31
0.0
  0
LINE
  8
6
  6
CONTINUOUS
 62
     7
  5
283
 10
933314.304
 20
7274109.371
 30
0.0
 11
933780.08
 21
7274371.194
 31
0.0
  0
ARC
  8
6
  6
CONTINUOUS
 62
     7
  5
284
 10
931217.438948
 20
7279472.055164
 30
0.0
 40
5708.407154
 50
296.674672
 51
301.674722
210
0.0
220
0.0
230
1.0
  0
LINE
  8
6
  6
CONTINUOUS
 62
     7
  5
285
 10
934295.533
 20
7275227.051
 30
0.0
 11
933287.945
 21
7275269.209
 31
0.0
  0
LINE
  8
21
  6
DASHDOT
 62
     7
  5
287
 10
934274.067
 20
7275207.932
 30
0.0
 11
933287.109
 21
7275249.226
 31
0.0
  0
ARC
  8
21
  6
DASHDOT
 62
     7
  5
288
 10
930983.783834
 20
7279345.707496
 30
0.0
 40
5686.58
 50
299.341411
 51
304.341461
210
0.0
220
0.0
230
1.0
  0
LINE
  8
21
  6
DASHDOT
 62
     7
  5
289
 10
933314.687
 20
7274132.529
 30
0.0
 11
933770.279
 21
7274388.629
 31
0.0
  0
LINE
  8
21
  6
DASHDOT
 62
     7
  5
28A
 10
933262.716
 20
7274164.04
 30
0.0
 11
933314.687
 21
7274132.529
 31
0.0
  0
LINE
  8
21
  6
DASHDOT
 62
     7
  5
28B
 10
932631.312
 20
7275081.155
 30
0.0
 11
933054.147
 21
7275067.976
 31
0.0
  0
LINE
  8
21
  6
DASHDOT
 62
     7
  5
28C
 10
933054.772
 20
7275087.843
 30
0.0
 11
932631.981
 21
7275101.144
 31
0.0
  0
LINE
  8
21
  6
DASHDOT
 62
     7
  5
28D
 10
933060.151
 20
7275258.836
 30
0.0
 11
933054.772
 21
7275087.843
 31
0.0
  0
LINE
  8
21
  6
DASHDOT
 62
     7
  5
28E
 10
933054.147
 20
7275067.976
 30
0.0
 11
933049.874
 21
7274932.12
 31
0.0
  0
LINE
  8
21
  6
DASHDOT
 62
     7
  5
28F
 10
933287.099
 20
7275249.226
 30
0.0
 11
933080.135
 21
7275257.988
 31
0.0
  0
LINE
  8
21
  6
DASHDOT
 62
     7
  5
290
 10
933060.151
 20
7275258.836
 30
0.0
 11
932858.503
 21
7275267.375
 31
0.0
  0
LINE
  8
21
  6
DASHDOT
 62
     7
  5
291
 10
933070.338
 20
7274946.613
 30
0.0
 11
933267.239
 21
7274940.476
 31
0.0
  0
LINE
  8
21
  6
DASHDOT
 62
     7
  5
292
 10
933070.967
 20
7274966.603
 30
0.0
 11
933287.852
 21
7274959.843
 31
0.0
  0
LINE
  8
21
  6
DASHDOT
 62
     7
  5
293
 10
933286.762
 20
7274924.859
 30
0.0
 11
933287.852
 21
7274959.843
 31
0.0
  0
LINE
  8
21
  6
DASHDOT
 62
     7
  5
294
 10
933266.771
 20
7274925.483
 30
0.0
 11
933267.239
 21
7274940.476
 31
0.0
  0
LINE
  8
21
  6
DASHDOT
 62
     7
  5
295
 10
933080.135
 20
7275257.988
 30
0.0
 11
933070.967
 21
7274966.603
 31
0.0
  0
LINE
  8
21
  6
DASHDOT
 62
     7
  5
296
 10
933070.338
 20
7274946.613
 30
0.0
 11
933069.862
 21
7274931.491
 31
0.0
  0
TEXT
  8
22
  6
CONTINUOUS
 62
     3
  5
298
 10
932953.231
 20
7275265.365
 30
0.0
 40
8.0
  1
20' UUE
 50
357.57525
  7
txt
210
0.0
220
0.0
230
1.0
  0
TEXT
  8
22
  6
CONTINUOUS
 62
     3
  5
299
 10
933421.974
 20
7275245.585
 30
0.0
 40
8.0
  1
20' UUE
 50
357.604206
  7
txt
210
0.0
220
0.0
230
1.0
  0
TEXT
  8
22
  6
CONTINUOUS
 62
     3
  5
29A
 10
933170.26
 20
7274945.5
 30
0.0
 40
8.0
  1
20' UUE
 50
358.214678
  7
txt
210
0.0
220
0.0
230
1.0
  0
TEXT
  8
22
  6
CONTINUOUS
 62
     3
  5
29B
 10
932769.426
 20
7275078.851
 30
0.0
 40
8.0
  1
20' UUE
 50
358.214758
  7
txt
210
0.0
220
0.0
230
1.0
  0
TEXT
  8
22
  6
CONTINUOUS
 62
     3
  5
29C
 10
933474.393
 20
7274210.832
 30
0.0
 40
8.0
  1
20' UUE
 50
29.341406
  7
txt
 11
933470.4729
 21
7274217.805723
 31
0.0
210
0.0
220
0.0
230
1.0
 73
     3
  0
TEXT
  8
11
  6
CONTINUOUS
 62
     7
  5
29D
 10
933058.678
 20
7275268.906
 30
0.0
 40
8.0
  1
428.98'
 50
357.575286
  7
txt
 11
933059.016453
 21
7275276.898837
 31
0.0
210
0.0
220
0.0
230
1.0
 73
     3
  0
TEXT
  8
11
  6
CONTINUOUS
 62
     7
  5
29E
 10
933708.094
 20
7275241.621
 30
0.0
 40
8.0
  1
1008.47'
 50
357.604206
  7
txt
 11
933708.428419
 21
7275249.614007
 31
0.0
210
0.0
220
0.0
230
1.0
 73
     3
  0
TEXT
  8
11
  6
CONTINUOUS
 62
     7
  5
29F
 10
932754.363
 20
7275223.156
 30
0.0
 40
8.0
  1
221.30'
 50
358.1981
  7
txt
 11
932754.614551
 21
7275231.152044
 31
0.0
210
0.0
220
0.0
230
1.0
 73
     3
  0
TEXT
  8
11
  6
CONTINUOUS
 62
     7
  5
2A0
 10
932647.557
 20
7275132.411
 30
0.0
 40
8.0
  1
291.60'
 50
88.1981
  7
txt
210
0.0
220
0.0
230
1.0
  0
TEXT
  8
11
  6
CONTINUOUS
 62
     7
  5
2A1
 10
933293.056
 20
7274629.947
 30
0.0
 40
8.0
  1
784.16'
 50
88.1981
  7
txt
210
0.0
220
0.0
230
1.0
  0
TEXT
  8
11
  6
CONTINUOUS
 62
     7
  5
2A2
 10
933581.399
 20
7274261.806
 30
0.0
 40
8.0
  1
534.32'
 50
29.341417
  7
txt
210
0.0
220
0.0
230
1.0
  0
TEXT
  8
11
  6
CONTINUOUS
 62
     7
  5
2A3
 10
933872.385
 20
7274426.54
 30
0.0
 40
8.0
  1
CH=497.84'
 50
30.422028
  7
txt
210
0.0
220
0.0
230
1.0
  0
TEXT
  8
11
  6
CONTINUOUS
 62
     7
  5
2A4
 10
932931.174
 20
7274937.943
 30
0.0
 40
8.0
  1
660.00'
 50
358.214767
  7
txt
210
0.0
220
0.0
230
1.0
  0
LINE
  8
6
  6
CONTINUOUS
 62
     7
  5
2A5
 10
933287.914
 20
7275269.645
 30
0.0
 11
934295.533
 21
7275227.051
 31
0.0
  0
TEXT
  8
11
  6
CONTINUOUS
 62
     7
  5
2A6
 10
932606.919
 20
7274081.461
 30
0.0
 40
8.0
  1
20.7'
 50
358.1981
  7
ROMANS
210
0.0
220
0.0
230
1.0
  0
LINE
  8
7
  6
CONTINUOUS
 62
     7
  5
2A7
 10
931956.398
 20
7275375.486
 30
0.0
 11
931951.504
 21
7275219.948
 31
0.0
  0
LINE
  8
6
  6
CONTINUOUS
 62
     7
  5
2A8
 10
932180.023
 20
7275328.257
 30
0.0
 11
932176.393
 21
7275212.874
 31
0.0
  0
LINE
  8
6
  6
CONTINUOUS
 62
     7
  5
2A9
 10
932236.366
 20
7275338.303
 30
0.0
 11
932232.365
 21
7275211.113
 31
0.0
  0
LINE
  8
7
  6
CONTINUOUS
 62
     7
  5
2AA
 10
932329.661
 20
7275377.049
 30
0.0
 11
932324.35
 21
7275208.22
 31
0.0
  0
LINE
  8
6
  6
CONTINUOUS
 62
     7
  5
2AB
 10
931721.651
 20
7275387.259
 30
0.0
 11
931871.577
 21
7275382.543
 31
0.0
  0
LINE
  8
6
  6
CONTINUOUS
 62
     7
  5
2AC
 10
931706.186
 20
7275372.738
 30
0.0
 11
931701.627
 21
7275227.81
 31
0.0
  0
LINE
  8
6
  6
CONTINUOUS
 62
     7
  5
2AD
 10
931723.538
 20
7275447.229
 30
0.0
 11
931873.465
 21
7275442.512
 31
0.0
  0
ARC
  8
6
  6
CONTINUOUS
 62
     7
  5
2AE
 10
931721.179653
 20
7275372.266104
 30
0.0
 40
15.0
 50
88.1981
 51
178.1981
210
0.0
220
0.0
230
1.0
  0
ARC
  8
6
  6
CONTINUOUS
 62
     7
  5
2AF
 10
931724.009604
 20
7275462.2216
 30
0.0
 40
15.0
 50
178.1981
 51
268.1981
210
0.0
220
0.0
230
1.0
  0
LINE
  8
6
  6
CONTINUOUS
 62
     7
  5
2B0
 10
931701.627
 20
7275227.81
 30
0.0
 11
932176.393
 21
7275212.874
 31
0.0
  0
LINE
  8
6
  6
CONTINUOUS
 62
     7
  5
2B1
 10
932232.365
 20
7275211.113
 30
0.0
 11
932573.197
 21
7275200.39
 31
0.0
  0
ARC
  8
6
  6
CONTINUOUS
 62
     7
  5
2B2
 10
931845.609505
 20
7274557.110464
 30
0.0
 40
825.840333
 50
75.750581
 51
88.1981
210
0.0
220
0.0
230
1.0
  0
ARC
  8
6
  6
CONTINUOUS
 62
     7
  5
2B3
 10
932159.648986
 20
7275793.697605
 30
0.0
 40
450.0
 50
255.750619
 51
270.663064
210
0.0
220
0.0
230
1.0
  0
ARC
  8
6
  6
CONTINUOUS
 62
     7
  5
2B4
 10
932159.648986
 20
7275793.697605
 30
0.0
 40
450.0
 50
281.374786
 51
292.198119
210
0.0
220
0.0
230
1.0
  0
ARC
  8
6
  6
CONTINUOUS
 62
     7
  5
2B5
 10
932165.030144
 20
7275328.728743
 30
0.0
 40
15.0
 50
358.1981
 51
90.663064
210
0.0
220
0.0
230
1.0
  0
ARC
  8
6
  6
CONTINUOUS
 62
     7
  5
2B6
 10
932251.359046
 20
7275337.831107
 30
0.0
 40
15.0
 50
101.374786
 51
178.1981
210
0.0
220
0.0
230
1.0
  0
ARC
  8
6
  6
CONTINUOUS
 62
     7
  5
2B7
 10
932250.047562
 20
7275572.161495
 30
0.0
 40
210.73
 50
292.198244
 51
7.198244
210
0.0
220
0.0
230
1.0
  0
ARC
  8
6
  6
CONTINUOUS
 62
     7
  5
2B8
 10
933636.294375
 20
7275747.242839
 30
0.0
 40
1186.529497
 50
169.1983
 51
187.198289
210
0.0
220
0.0
230
1.0
  0
ARC
  8
6
  6
CONTINUOUS
 62
     7
  5
2B9
 10
932263.791996
 20
7276009.104101
 30
0.0
 40
210.73
 50
349.198236
 51
60.325908
210
0.0
220
0.0
230
1.0
  0
ARC
  8
6
  6
CONTINUOUS
 62
     7
  5
2BA
 10
932159.646569
 20
7275793.689187
 30
0.0
 40
450.0
 50
73.454153
 51
112.198017
210
0.0
220
0.0
230
1.0
  0
ARC
  8
6
  6
CONTINUOUS
 62
     7
  5
2BB
 10
932051.3856
 20
7276059.001675
 30
0.0
 40
163.45
 50
112.198067
 51
178.198067
210
0.0
220
0.0
230
1.0
  0
LINE
  8
6
  6
CONTINUOUS
 62
     7
  5
2BC
 10
931888.016
 20
7276064.142
 30
0.0
 11
931881.2
 21
7275847.469
 31
0.0
  0
LINE
  8
7
  6
CONTINUOUS
 62
     7
  5
2BD
 10
931713.734
 20
7275612.619
 30
0.0
 11
932399.59
 21
7275591.043
 31
0.0
  0
LINE
  8
6
  6
CONTINUOUS
 62
     7
  5
2BE
 10
931733.914
 20
7275777.066
 30
0.0
 11
932375.248
 21
7275756.89
 31
0.0
  0
LINE
  8
6
  6
CONTINUOUS
 62
     7
  5
2BF
 10
931735.801
 20
7275837.035
 30
0.0
 11
931865.735
 21
7275832.948
 31
0.0
  0
LINE
  8
6
  6
CONTINUOUS
 62
     7
  5
2C0
 10
931718.451
 20
7275762.545
 30
0.0
 11
931709.017
 21
7275462.693
 31
0.0
  0
ARC
  8
6
  6
CONTINUOUS
 62
     7
  5
2C1
 10
931736.272727
 20
7275852.028752
 30
0.0
 40
15.0
 50
178.1981
 51
268.1981
210
0.0
220
0.0
230
1.0
  0
ARC
  8
6
  6
CONTINUOUS
 62
     7
  5
2C2
 10
931733.442775
 20
7275762.073256
 30
0.0
 40
15.0
 50
88.1981
 51
178.1981
210
0.0
220
0.0
230
1.0
  0
ARC
  8
6
  6
CONTINUOUS
 62
     7
  5
2C3
 10
931845.609505
 20
7274557.110464
 30
0.0
 40
885.840333
 50
75.750581
 51
88.1981
210
0.0
220
0.0
230
1.0
  0
ARC
  8
6
  6
CONTINUOUS
 62
     7
  5
2C4
 10
932159.648986
 20
7275793.697605
 30
0.0
 40
390.0
 50
255.750619
 51
292.178075
210
0.0
220
0.0
230
1.0
  0
ARC
  8
6
  6
CONTINUOUS
 62
     7
  5
2C5
 10
932250.047562
 20
7275572.161495
 30
0.0
 40
150.73
 50
292.198244
 51
7.198244
210
0.0
220
0.0
230
1.0
  0
ARC
  8
6
  6
CONTINUOUS
 62
     7
  5
2C6
 10
932263.791996
 20
7276009.104101
 30
0.0
 40
150.73
 50
349.198236
 51
64.198236
210
0.0
220
0.0
230
1.0
  0
ARC
  8
6
  6
CONTINUOUS
 62
     7
  5
2C7
 10
932159.646569
 20
7275793.689187
 30
0.0
 40
390.0
 50
64.198017
 51
112.198017
210
0.0
220
0.0
230
1.0
  0
ARC
  8
6
  6
CONTINUOUS
 62
     7
  5
2C8
 10
932051.3856
 20
7276059.001675
 30
0.0
 40
103.45
 50
112.198067
 51
178.198067
210
0.0
220
0.0
230
1.0
  0
LINE
  8
6
  6
CONTINUOUS
 62
     7
  5
2C9
 10
931947.987
 20
7276062.255
 30
0.0
 11
931941.17
 21
7275845.583
 31
0.0
  0
ARC
  8
6
  6
CONTINUOUS
 62
     7
  5
2CA
 10
933636.294375
 20
7275747.242839
 30
0.0
 40
1246.529497
 50
169.1983
 51
176.154325
210
0.0
220
0.0
230
1.0
  0
ARC
  8
6
  6
CONTINUOUS
 62
     7
  5
2CB
 10
933636.294375
 20
7275747.242839
 30
0.0
 40
1246.529497
 50
180.242786
 51
187.198289
210
0.0
220
0.0
230
1.0
  0
ARC
  8
6
  6
CONTINUOUS
 62
     7
  5
2CC
 10
932374.776204
 20
7275741.897252
 30
0.0
 40
15.0
 50
0.242786
 51
88.1981
210
0.0
220
0.0
230
1.0
  0
ARC
  8
6
  6
CONTINUOUS
 62
     7
  5
2CD
 10
931866.207444
 20
7275847.941076
 30
0.0
 40
15.0
 50
268.1981
 51
358.1981
210
0.0
220
0.0
230
1.0
  0
LINE
  8
6
  6
CONTINUOUS
 62
     7
  5
2CE
 10
931955.691
 20
7275830.119
 30
0.0
 11
932377.134
 21
7275816.86
 31
0.0
  0
ARC
  8
6
  6
CONTINUOUS
 62
     7
  5
2CF
 10
932377.605442
 20
7275831.852771
 30
0.0
 40
15.0
 50
268.1981
 51
356.154325
210
0.0
220
0.0
230
1.0
  0
ARC
  8
6
  6
CONTINUOUS
 62
     7
  5
2D0
 10
931956.162941
 20
7275845.111125
 30
0.0
 40
15.0
 50
178.1981
 51
268.1981
210
0.0
220
0.0
230
1.0
  0
LINE
  8
7
  6
CONTINUOUS
 62
     7
  5
2D1
 10
932171.91
 20
7276183.497
 30
0.0
 11
932160.589
 21
7275823.672
 31
0.0
  0
LINE
  8
7
  6
CONTINUOUS
 62
     7
  5
2D2
 10
931945.887
 20
7275995.509
 30
0.0
 11
932411.85
 21
7275980.849
 31
0.0
  0
LINE
  8
7
  6
CONTINUOUS
 62
     7
  5
2D3
 10
931938.813
 20
7275770.62
 30
0.0
 11
931928.383
 21
7275439.075
 31
0.0
  0
LINE
  8
7
  6
CONTINUOUS
 62
     7
  5
2D4
 10
932158.705
 20
7275763.703
 30
0.0
 11
932147.385
 21
7275403.89
 31
0.0
  0
LINE
  8
7
  6
CONTINUOUS
 62
     7
  5
2D5
 10
931738.291
 20
7276393.233
 30
0.0
 11
931951.168
 21
7276189.729
 31
0.0
  0
LINE
  8
7
  6
CONTINUOUS
 62
     7
  5
2D6
 10
931888.482
 20
7276072.352
 30
0.0
 11
931728.355
 21
7276077.39
 31
0.0
  0
LINE
  8
7
  6
CONTINUOUS
 62
     7
  5
2D7
 10
932038.143
 20
7276383.8
 30
0.0
 11
932068.893
 21
7276234.442
 31
0.0
  0
LINE
  8
7
  6
CONTINUOUS
 62
     7
  5
2D8
 10
932582.053
 20
7275481.921
 30
0.0
 11
932453.4
 21
7275516.887
 31
0.0
  0
LINE
  8
7
  6
CONTINUOUS
 62
     7
  5
2D9
 10
932592.849
 20
7275825.082
 30
0.0
 11
932452.619
 21
7275829.493
 31
0.0
  0
LINE
  8
7
  6
CONTINUOUS
 62
     7
  5
2DA
 10
932603.741
 20
7276171.29
 30
0.0
 11
932453.869
 21
7276099.59
 31
0.0
  0
ARC
  8
6
  6
CONTINUOUS
 62
     7
  5
2DB
 10
932002.956197
 20
7276384.77362
 30
0.0
 40
398.59
 50
334.271444
 51
358.217217
210
0.0
220
0.0
230
1.0
  0
ARC
  8
6
  6
CONTINUOUS
 62
     7
  5
2DC
 10
932002.956197
 20
7276384.77362
 30
0.0
 40
338.59
 50
333.311108
 51
358.217217
210
0.0
220
0.0
230
1.0
  0
ARC
  8
6
  6
CONTINUOUS
 62
     7
  5
2DD
 10
932292.070431
 20
7276239.434541
 30
0.0
 40
15.0
 50
253.454153
 51
333.311111
210
0.0
220
0.0
230
1.0
  0
ARC
  8
6
  6
CONTINUOUS
 62
     7
  5
2DE
 10
932375.543207
 20
7276205.230845
 30
0.0
 40
15.0
 50
154.271444
 51
240.325908
210
0.0
220
0.0
230
1.0
  0
LINE
  8
6
  6
CONTINUOUS
 62
     7
  5
2DF
 10
932609.86
 20
7276365.814
 30
0.0
 11
932401.353
 21
7276372.373
 31
0.0
  0
LINE
  8
6
  6
CONTINUOUS
 62
     7
  5
2E0
 10
932341.383
 20
7276374.26
 30
0.0
 11
931728.296
 21
7276393.547
 31
0.0
  0
LINE
  8
6
  6
CONTINUOUS
 62
     7
  5
2E1
 10
932609.86
 20
7276365.814
 30
0.0
 11
932815.772
 21
7276359.336
 31
0.0
  0
LINE
  8
6
  6
CONTINUOUS
 62
     7
  5
2E2
 10
932890.731
 20
7276356.978
 30
0.0
 11
933111.453
 21
7276350.034
 31
0.0
  0
LINE
  8
6
  6
CONTINUOUS
 62
     7
  5
2E3
 10
933111.453
 20
7276350.034
 30
0.0
 11
933085.008
 21
7275509.45
 31
0.0
  0
LINE
  8
6
  6
CONTINUOUS
 62
     7
  5
2E4
 10
933085.008
 20
7275509.45
 30
0.0
 11
932864.287
 21
7275516.394
 31
0.0
  0
LINE
  8
6
  6
CONTINUOUS
 62
     7
  5
2E5
 10
932890.731
 20
7276356.978
 30
0.0
 11
932855.278
 21
7275229.986
 31
0.0
  0
LINE
  8
6
  6
CONTINUOUS
 62
     7
  5
2E6
 10
932797.236
 20
7275293.12
 30
0.0
 11
932576.402
 21
7275302.272
 31
0.0
  0
LINE
  8
6
  6
CONTINUOUS
 62
     7
  5
2E7
 10
932797.236
 20
7275293.12
 30
0.0
 11
932830.292
 21
7276343.872
 31
0.0
  0
LINE
  8
6
  6
CONTINUOUS
 62
     7
  5
2E8
 10
932804.318
 20
7275518.238
 30
0.0
 11
932583.417
 21
7275525.187
 31
0.0
  0
ARC
  8
6
  6
CONTINUOUS
 62
     7
  5
2E9
 10
932815.299579
 20
7276344.343376
 30
0.0
 40
15.0
 50
358.1981
 51
88.1981
210
0.0
220
0.0
230
1.0
  0
LINE
  8
6
  6
CONTINUOUS
 62
     7
  5
2EA
 10
932832.647
 20
7276418.834
 30
0.0
 11
932403.24
 21
7276432.344
 31
0.0
  0
ARC
  8
6
  6
CONTINUOUS
 62
     7
  5
2EB
 10
932401.353262
 20
7276372.373325
 30
0.0
 40
60.0
 50
88.1981
 51
178.217217
210
0.0
220
0.0
230
1.0
  0
ARC
  8
6
  6
CONTINUOUS
 62
     7
  5
2EC
 10
932830.760822
 20
7276358.864395
 30
0.0
 40
60.0
 50
358.1981
 51
88.1981
210
0.0
220
0.0
230
1.0
  0
LINE
  8
7
  6
CONTINUOUS
 62
     7
  5
2ED
 10
932810.93
 20
7275728.384
 30
0.0
 11
932590.029
 21
7275735.333
 31
0.0
  0
LINE
  8
7
  6
CONTINUOUS
 62
     7
  5
2EE
 10
932817.541
 20
7275938.531
 30
0.0
 11
932596.64
 21
7275945.479
 31
0.0
  0
LINE
  8
7
  6
CONTINUOUS
 62
     7
  5
2EF
 10
932824.151
 20
7276148.676
 30
0.0
 11
932603.25
 21
7276155.626
 31
0.0
  0
LINE
  8
7
  6
CONTINUOUS
 62
     7
  5
2F0
 10
933091.618
 20
7275719.596
 30
0.0
 11
932870.898
 21
7275726.539
 31
0.0
  0
LINE
  8
7
  6
CONTINUOUS
 62
     7
  5
2F1
 10
933098.23
 20
7275929.742
 30
0.0
 11
932877.509
 21
7275936.685
 31
0.0
  0
LINE
  8
7
  6
CONTINUOUS
 62
     7
  5
2F2
 10
933104.841
 20
7276139.887
 30
0.0
 11
932884.12
 21
7276146.831
 31
0.0
  0
LINE
  8
21
  6
DASHDOT
 62
     7
  5
2F3
 10
931888.796
 20
7276082.347
 30
0.0
 11
931728.669
 21
7276087.384
 31
0.0
  0
LINE
  8
21
  6
DASHDOT
 62
     7
  5
2F4
 10
931888.168
 20
7276062.356
 30
0.0
 11
931728.041
 21
7276067.394
 31
0.0
  0
LINE
  8
21
  6
DASHDOT
 62
     7
  5
2F5
 10
932340.754
 20
7276354.27
 30
0.0
 11
931737.662
 21
7276373.242
 31
0.0
  0
LINE
  8
21
  6
DASHDOT
 62
     7
  5
2F6
 10
932589.241
 20
7276346.453
 30
0.0
 11
932400.724
 21
7276352.383
 31
0.0
  0
LINE
  8
21
  6
DASHDOT
 62
     7
  5
2F7
 10
932553.206
 20
7275201.019
 30
0.0
 11
932589.241
 21
7276346.453
 31
0.0
  0
LINE
  8
21
  6
DASHDOT
 62
     7
  5
2F8
 10
931946.202
 20
7276005.504
 30
0.0
 11
932176.088
 21
7275998.271
 31
0.0
  0
LINE
  8
21
  6
DASHDOT
 62
     7
  5
2F9
 10
931945.572
 20
7275985.513
 30
0.0
 11
932155.468
 21
7275978.911
 31
0.0
  0
LINE
  8
21
  6
DASHDOT
 62
     7
  5
2FA
 10
932155.468
 20
7275978.911
 30
0.0
 11
932150.595
 21
7275823.987
 31
0.0
  0
LINE
  8
21
  6
DASHDOT
 62
     7
  5
2FB
 10
932176.088
 20
7275998.271
 30
0.0
 11
932170.585
 21
7275823.358
 31
0.0
  0
LINE
  8
21
  6
DASHDOT
 62
     7
  5
2FC
 10
931714.049
 20
7275622.614
 30
0.0
 11
932143.836
 21
7275609.093
 31
0.0
  0
LINE
  8
21
  6
DASHDOT
 62
     7
  5
2FD
 10
931713.42
 20
7275602.624
 30
0.0
 11
932163.197
 21
7275588.474
 31
0.0
  0
LINE
  8
21
  6
DASHDOT
 62
     7
  5
2FE
 10
932148.709
 20
7275764.017
 30
0.0
 11
932143.836
 21
7275609.093
 31
0.0
  0
LINE
  8
21
  6
DASHDOT
 62
     7
  5
2FF
 10
932168.699
 20
7275763.388
 30
0.0
 11
932163.197
 21
7275588.474
 31
0.0
  0
LINE
  8
21
  6
DASHDOT
 62
     7
  5
300
 10
932583.496
 20
7276163.821
 30
0.0
 11
932453.006
 21
7276101.393
 31
0.0
  0
LINE
  8
21
  6
DASHDOT
 62
     7
  5
301
 10
932562.278
 20
7275489.368
 30
0.0
 11
932453.925
 21
7275518.818
 31
0.0
  0
LINE
  8
21
  6
DASHDOT
 62
     7
  5
302
 10
932573.173
 20
7275835.706
 30
0.0
 11
932452.934
 21
7275839.487
 31
0.0
  0
LINE
  8
21
  6
DASHDOT
 62
     7
  5
303
 10
932572.545
 20
7275815.715
 30
0.0
 11
932452.305
 21
7275819.499
 31
0.0
  0
LINE
  8
21
  6
DASHDOT
 62
     7
  5
304
 10
932619.226
 20
7276345.51
 30
0.0
 11
932830.135
 21
7276338.874
 31
0.0
  0
LINE
  8
21
  6
DASHDOT
 62
     7
  5
305
 10
932890.103
 20
7276336.987
 30
0.0
 11
933080.838
 21
7276330.987
 31
0.0
  0
LINE
  8
21
  6
DASHDOT
 62
     7
  5
306
 10
933090.518
 20
7276320.678
 30
0.0
 11
933065.961
 21
7275540.064
 31
0.0
  0
LINE
  8
21
  6
DASHDOT
 62
     7
  5
307
 10
933055.651
 20
7275530.384
 30
0.0
 11
932864.915
 21
7275536.383
 31
0.0
  0
LINE
  8
21
  6
DASHDOT
 62
     7
  5
308
 10
932804.947
 20
7275538.229
 30
0.0
 11
932594.041
 21
7275544.863
 31
0.0
  0
LINE
  8
21
  6
DASHDOT
 62
     7
  5
309
 10
933090.518
 20
7276320.678
 30
0.0
 11
933080.838
 21
7276330.987
 31
0.0
  0
LINE
  8
21
  6
DASHDOT
 62
     7
  5
30A
 10
933065.961
 20
7275540.064
 30
0.0
 11
933055.651
 21
7275530.384
 31
0.0
  0
LINE
  8
21
  6
DASHDOT
 62
     7
  5
30B
 10
932823.994
 20
7276143.678
 30
0.0
 11
932603.094
 21
7276150.629
 31
0.0
  0
LINE
  8
21
  6
DASHDOT
 62
     7
  5
30C
 10
933084.694
 20
7276135.52
 30
0.0
 11
932883.962
 21
7276141.835
 31
0.0
  0
LINE
  8
21
  6
DASHDOT
 62
     7
  5
30D
 10
932810.772
 20
7275723.387
 30
0.0
 11
932589.871
 21
7275730.336
 31
0.0
  0
LINE
  8
21
  6
DASHDOT
 62
     7
  5
30E
 10
932811.086
 20
7275733.382
 30
0.0
 11
932590.185
 21
7275740.331
 31
0.0
  0
LINE
  8
21
  6
DASHDOT
 62
     7
  5
30F
 10
933091.776
 20
7275724.593
 30
0.0
 11
932871.056
 21
7275731.537
 31
0.0
  0
LINE
  8
21
  6
DASHDOT
 62
     7
  5
310
 10
933091.462
 20
7275714.599
 30
0.0
 11
932870.741
 21
7275721.542
 31
0.0
  0
LINE
  8
21
  6
DASHDOT
 62
     7
  5
311
 10
932619.226
 20
7276345.51
 30
0.0
 11
932608.505
 21
7276332.317
 31
0.0
  0
LINE
  8
21
  6
DASHDOT
 62
     7
  5
312
 10
932594.041
 20
7275544.863
 30
0.0
 11
932585.881
 21
7275555.687
 31
0.0
  0
TEXT
  8
22
  6
CONTINUOUS
 62
     3
  5
313
 10
931802.68
 20
7276373.198
 30
0.0
 40
8.0
  1
20' UUE
 50
358.1981
  7
txt
 72
     1
 11
931824.93499
 21
7276372.49787
 31
0.0
210
0.0
220
0.0
230
1.0
  0
TEXT
  8
22
  6
CONTINUOUS
 62
     3
  5
314
 10
932515.953
 20
7276350.758
 30
0.0
 40
8.0
  1
20' UUE
 50
358.1981
  7
txt
 72
     1
 11
932538.20799
 21
7276350.05787
 31
0.0
210
0.0
220
0.0
230
1.0
  0
TEXT
  8
22
  6
CONTINUOUS
 62
     3
  5
315
 10
932647.773
 20
7276346.612
 30
0.0
 40
8.0
  1
20' UUE
 50
358.1981
  7
txt
 72
     1
 11
932670.02799
 21
7276345.91187
 31
0.0
210
0.0
220
0.0
230
1.0
  0
TEXT
  8
22
  6
CONTINUOUS
 62
     3
  5
316
 10
932891.911
 20
7276338.932
 30
0.0
 40
8.0
  1
20' UUE
 50
358.1981
  7
txt
 72
     1
 11
932914.16599
 21
7276338.23187
 31
0.0
210
0.0
220
0.0
230
1.0
  0
TEXT
  8
22
  6
CONTINUOUS
 62
     3
  5
317
 10
932606.317
 20
7275534.472
 30
0.0
 40
8.0
  1
20' UUE
 50
358.1981
  7
txt
 72
     1
 11
932628.823541
 21
7275541.767914
 31
0.0
210
0.0
220
0.0
230
1.0
 73
     3
  0
TEXT
  8
22
  6
CONTINUOUS
 62
     3
  5
318
 10
933001.779
 20
7275522.073
 30
0.0
 40
8.0
  1
20' UUE
 50
358.1981
  7
txt
 72
     1
 11
933024.285541
 21
7275529.368914
 31
0.0
210
0.0
220
0.0
230
1.0
 73
     3
  0
TEXT
  8
22
  6
CONTINUOUS
 62
     3
  5
319
 10
933097.981
 20
7276148.212
 30
0.0
 40
8.0
  1
20' UUE
 50
88.1981
  7
txt
 72
     1
 11
933098.68113
 21
7276170.46699
 31
0.0
210
0.0
220
0.0
230
1.0
  0
TEXT
  8
22
  6
CONTINUOUS
 62
     3
  5
31A
 10
933082.642
 20
7275660.596
 30
0.0
 40
8.0
  1
20' UUE
 50
88.1981
  7
txt
 72
     1
 11
933083.34213
 21
7275682.85099
 31
0.0
210
0.0
220
0.0
230
1.0
  0
TEXT
  8
22
  6
CONTINUOUS
 62
     3
  5
31B
 10
932572.8
 20
7275427.163
 30
0.0
 40
8.0
  1
20' UUE
 50
88.1981
  7
txt
 72
     1
 11
932573.50013
 21
7275449.41799
 31
0.0
210
0.0
220
0.0
230
1.0
  0
TEXT
  8
22
  6
CONTINUOUS
 62
     3
  5
31C
 10
932596.208
 20
7276171.228
 30
0.0
 40
8.0
  1
20' UUE
 50
88.1981
  7
txt
 72
     1
 11
932596.90813
 21
7276193.48299
 31
0.0
210
0.0
220
0.0
230
1.0
  0
TEXT
  8
22
  6
CONTINUOUS
 62
     3
  5
31D
 10
932185.556
 20
7275873.211
 30
0.0
 40
8.0
  1
20' UUE
 50
88.1981
  7
txt
 72
     1
 11
932186.25613
 21
7275895.46599
 31
0.0
210
0.0
220
0.0
230
1.0
  0
TEXT
  8
22
  6
CONTINUOUS
 62
     3
  5
31E
 10
932178.569
 20
7275651.074
 30
0.0
 40
8.0
  1
20' UUE
 50
88.1981
  7
txt
 72
     1
 11
932179.26913
 21
7275673.32899
 31
0.0
210
0.0
220
0.0
230
1.0
  0
TEXT
  8
22
  6
CONTINUOUS
 62
     3
  5
31F
 10
931747.645
 20
7276088.788
 30
0.0
 40
6.0
  1
20' UUE
 50
358.1981
  7
txt
 72
     1
 11
931763.934941
 21
7276088.275527
 31
0.0
210
0.0
220
0.0
230
1.0
  0
TEXT
  8
22
  6
CONTINUOUS
 62
     3
  5
320
 10
931975.536
 20
7276007.057
 30
0.0
 40
6.0
  1
20' UUE
 50
358.1981
  7
txt
 72
     4
 11
931991.920273
 21
7276009.543044
 31
0.0
210
0.0
220
0.0
230
1.0
  0
TEXT
  8
22
  6
CONTINUOUS
 62
     3
  5
321
 10
931725.253
 20
7275624.263
 30
0.0
 40
8.0
  1
20' UUE
 50
358.1981
  7
txt
 72
     1
 11
931747.50799
 21
7275623.56287
 31
0.0
210
0.0
220
0.0
230
1.0
  0
TEXT
  8
22
  6
CONTINUOUS
 62
     3
  5
322
 10
932451.49
 20
7275841.535
 30
0.0
 40
8.0
  1
20' UUE
 50
358.1981
  7
txt
 72
     1
 11
932473.74499
 21
7275840.83487
 31
0.0
210
0.0
220
0.0
230
1.0
  0
TEXT
  8
22
  6
CONTINUOUS
 62
     3
  5
323
 10
932459.033
 20
7276106.493
 30
0.0
 40
8.0
  1
2' UUE-LPL
 50
25.567022
  7
txt
 72
     1
 11
932489.032608
 21
7276120.845179
 31
0.0
210
0.0
220
0.0
230
1.0
  0
TEXT
  8
22
  6
CONTINUOUS
 62
     3
  5
324
 10
932464.45
 20
7275518.03
 30
0.0
 40
8.0
  1
2' UUE-LPL
 50
344.794658
  7
txt
 72
     1
 11
932496.541775
 21
7275509.307645
 31
0.0
210
0.0
220
0.0
230
1.0
  0
TEXT
  8
22
  6
CONTINUOUS
 62
     3
  5
325
 10
932600.779
 20
7275719.988
 30
0.0
 40
8.0
  1
5' UUE-LPL
 50
358.1981
  7
txt
 72
     1
 11
932634.270107
 21
7275726.938346
 31
0.0
210
0.0
220
0.0
230
1.0
 73
     3
  0
TEXT
  8
22
  6
CONTINUOUS
 62
     3
  5
326
 10
932877.451
 20
7275711.326
 30
0.0
 40
8.0
  1
5' UUE-LPL
 50
358.1981
  7
txt
 72
     1
 11
932910.942107
 21
7275718.276346
 31
0.0
210
0.0
220
0.0
230
1.0
 73
     3
  0
TEXT
  8
22
  6
CONTINUOUS
 62
     3
  5
327
 10
932899.541
 20
7276131.339
 30
0.0
 40
8.0
  1
5' UUE-LPL
 50
358.1981
  7
txt
 72
     1
 11
932933.032107
 21
7276138.289346
 31
0.0
210
0.0
220
0.0
230
1.0
 73
     3
  0
TEXT
  8
22
  6
CONTINUOUS
 62
     3
  5
328
 10
932626.415
 20
7276139.89
 30
0.0
 40
8.0
  1
5' UUE-LPL
 50
358.1981
  7
txt
 72
     1
 11
932659.906107
 21
7276146.840346
 31
0.0
210
0.0
220
0.0
230
1.0
 73
     3
  0
TEXT
  8
22
  6
CONTINUOUS
 62
     3
  5
329
 10
932610.339
 20
7275741.699
 30
0.0
 40
8.0
  1
5' UUE-SPS
 50
358.1981
  7
txt
 72
     1
 11
932643.578556
 21
7275740.653302
 31
0.0
210
0.0
220
0.0
230
1.0
  0
TEXT
  8
22
  6
CONTINUOUS
 62
     3
  5
32A
 10
932881.689
 20
7275733.203
 30
0.0
 40
8.0
  1
5' UUE-SPS
 50
358.1981
  7
txt
 72
     1
 11
932914.928556
 21
7275732.157302
 31
0.0
210
0.0
220
0.0
230
1.0
  0
TEXT
  8
11
  6
CONTINUOUS
 62
     7
  5
32B
 10
932962.618
 20
7276146.364
 30
0.0
 40
8.0
  1
220.83'
 50
358.1981
  7
txt
 72
     1
 11
932984.746053
 21
7276145.667863
 31
0.0
210
0.0
220
0.0
230
1.0
  0
TEXT
  8
11
  6
CONTINUOUS
 62
     7
  5
32C
 10
932957.781
 20
7275936.161
 30
0.0
 40
8.0
  1
220.83'
 50
358.1981
  7
txt
 72
     1
 11
932979.909053
 21
7275935.464863
 31
0.0
210
0.0
220
0.0
230
1.0
  0
TEXT
  8
11
  6
CONTINUOUS
 62
     7
  5
32D
 10
932997.282
 20
7275724.565
 30
0.0
 40
8.0
  1
220.83'
 50
358.1981
  7
txt
 72
     1
 11
933019.410053
 21
7275723.868863
 31
0.0
210
0.0
220
0.0
230
1.0
  0
TEXT
  8
11
  6
CONTINUOUS
 62
     7
  5
32E
 10
932937.464
 20
7275516.092
 30
0.0
 40
8.0
  1
220.83'
 50
358.1981
  7
txt
 72
     1
 11
932959.592053
 21
7275515.395863
 31
0.0
210
0.0
220
0.0
230
1.0
  0
TEXT
  8
11
  6
CONTINUOUS
 62
     7
  5
32F
 10
932968.852
 20
7276344.515
 30
0.0
 40
8.0
  1
222.34'
 50
358.1981
  7
txt
 72
     1
 11
932991.231604
 21
7276351.814908
 31
0.0
210
0.0
220
0.0
230
1.0
 73
     3
  0
TEXT
  8
11
  6
CONTINUOUS
 62
     7
  5
330
 10
932716.561
 20
7276352.452
 30
0.0
 40
8.0
  1
206.01'
 50
358.1981
  7
txt
 72
     1
 11
932737.618258
 21
7276359.793508
 31
0.0
210
0.0
220
0.0
230
1.0
 73
     3
  0
TEXT
  8
11
  6
CONTINUOUS
 62
     7
  5
331
 10
932690.301
 20
7276154.889
 30
0.0
 40
8.0
  1
221.01'
 50
358.1981
  7
txt
 72
     1
 11
932709.848329
 21
7276154.274052
 31
0.0
210
0.0
220
0.0
230
1.0
  0
TEXT
  8
11
  6
CONTINUOUS
 62
     7
  5
332
 10
932683.69
 20
7275944.742
 30
0.0
 40
8.0
  1
221.01'
 50
358.1981
  7
txt
 72
     1
 11
932703.237329
 21
7275944.127052
 31
0.0
210
0.0
220
0.0
230
1.0
  0
TEXT
  8
11
  6
CONTINUOUS
 62
     7
  5
333
 10
932728.51
 20
7275732.978
 30
0.0
 40
8.0
  1
221.01'
 50
358.1981
  7
txt
 72
     1
 11
932748.057329
 21
7275732.363052
 31
0.0
210
0.0
220
0.0
230
1.0
  0
TEXT
  8
11
  6
CONTINUOUS
 62
     7
  5
334
 10
932677.562
 20
7275524.227
 30
0.0
 40
8.0
  1
221.01'
 50
358.1981
  7
txt
 72
     1
 11
932697.109329
 21
7275523.612052
 31
0.0
210
0.0
220
0.0
230
1.0
  0
TEXT
  8
11
  6
CONTINUOUS
 62
     7
  5
335
 10
932882.721
 20
7275611.233
 30
0.0
 40
8.0
  1
210.25'
 50
88.1981
  7
txt
 72
     1
 11
932883.378523
 21
7275632.13366
 31
0.0
210
0.0
220
0.0
230
1.0
  0
TEXT
  8
11
  6
CONTINUOUS
 62
     7
  5
336
 10
932889.304
 20
7275820.534
 30
0.0
 40
8.0
  1
210.25'
 50
88.1981
  7
txt
 72
     1
 11
932889.961523
 21
7275841.43466
 31
0.0
210
0.0
220
0.0
230
1.0
  0
TEXT
  8
11
  6
CONTINUOUS
 62
     7
  5
337
 10
932895.554
 20
7276019.194
 30
0.0
 40
8.0
  1
210.25'
 50
88.1981
  7
txt
 72
     1
 11
932896.211523
 21
7276040.09466
 31
0.0
210
0.0
220
0.0
230
1.0
  0
TEXT
  8
11
  6
CONTINUOUS
 62
     7
  5
338
 10
932812.198
 20
7276021.816
 30
0.0
 40
8.0
  1
210.25'
 50
88.1981
  7
txt
 72
     1
 11
932812.855523
 21
7276042.71666
 31
0.0
210
0.0
220
0.0
230
1.0
  0
TEXT
  8
11
  6
CONTINUOUS
 62
     7
  5
339
 10
932806.06
 20
7275826.705
 30
0.0
 40
8.0
  1
210.25'
 50
88.1981
  7
txt
 72
     1
 11
932806.717523
 21
7275847.60566
 31
0.0
210
0.0
220
0.0
230
1.0
  0
TEXT
  8
11
  6
CONTINUOUS
 62
     7
  5
33A
 10
932799.42
 20
7275615.629
 30
0.0
 40
8.0
  1
210.25'
 50
88.1981
  7
txt
 72
     1
 11
932800.077523
 21
7275636.52966
 31
0.0
210
0.0
220
0.0
230
1.0
  0
TEXT
  8
11
  6
CONTINUOUS
 62
     7
  5
33B
 10
932792.462
 20
7275394.457
 30
0.0
 40
8.0
  1
225.23'
 50
88.1981
  7
txt
 72
     1
 11
932793.158137
 21
7275416.585053
 31
0.0
210
0.0
220
0.0
230
1.0
  0
TEXT
  8
11
  6
CONTINUOUS
 62
     7
  5
33C
 10
932875.814
 20
7275391.708
 30
0.0
 40
8.0
  1
225.87'
 50
88.1981
  7
txt
 72
     1
 11
932876.514099
 21
7275413.96199
 31
0.0
210
0.0
220
0.0
230
1.0
  0
TEXT
  8
11
  6
CONTINUOUS
 62
     7
  5
33D
 10
932902.753
 20
7276248.008
 30
0.0
 40
8.0
  1
195.25'
 50
88.1981
  7
txt
 72
     1
 11
932903.410523
 21
7276268.90866
 31
0.0
210
0.0
220
0.0
230
1.0
  0
TEXT
  8
11
  6
CONTINUOUS
 62
     7
  5
33E
 10
932819.397
 20
7276250.631
 30
0.0
 40
8.0
  1
195.25'
 50
88.1981
  7
txt
 72
     1
 11
932820.054523
 21
7276271.53166
 31
0.0
210
0.0
220
0.0
230
1.0
  0
TEXT
  8
11
  6
CONTINUOUS
 62
     7
  5
33F
 10
932414.172
 20
7275826.22
 30
0.0
 40
8.0
  1
60'
 50
358.1981
  7
txt
 72
     1
 11
932422.575842
 21
7275825.95562
 31
0.0
210
0.0
220
0.0
230
1.0
  0
TEXT
  8
11
  6
CONTINUOUS
 62
     7
  5
340
 10
932411.55
 20
7275742.855
 30
0.0
 40
8.0
  1
60'
 50
358.1981
  7
txt
 72
     1
 11
932419.953842
 21
7275742.59062
 31
0.0
210
0.0
220
0.0
230
1.0
  0
TEXT
  8
11
  6
CONTINUOUS
 62
     7
  5
341
 10
932365.181
 20
7276356.861
 30
0.0
 40
8.0
  1
60'
 50
358.1981
  7
txt
 72
     1
 11
932373.584842
 21
7276356.59662
 31
0.0
210
0.0
220
0.0
230
1.0
  0
TEXT
  8
11
  6
CONTINUOUS
 62
     7
  5
342
 10
932327.123
 20
7276216.406
 30
0.0
 40
8.0
  1
60'
 50
358.1981
  7
txt
 72
     1
 11
932335.526842
 21
7276216.14162
 31
0.0
210
0.0
220
0.0
230
1.0
  0
TEXT
  8
11
  6
CONTINUOUS
 62
     7
  5
343
 10
932851.071
 20
7276339.8
 30
0.0
 40
8.0
  1
60'
 50
358.1981
  7
txt
 72
     1
 11
932859.474842
 21
7276339.53562
 31
0.0
210
0.0
220
0.0
230
1.0
  0
TEXT
  8
11
  6
CONTINUOUS
 62
     7
  5
344
 10
932822.085
 20
7275305.594
 30
0.0
 40
8.0
  1
60'
 50
358.1981
  7
txt
 72
     1
 11
932830.488842
 21
7275305.32962
 31
0.0
210
0.0
220
0.0
230
1.0
  0
TEXT
  8
11
  6
CONTINUOUS
 62
     7
  5
345
 10
932666.995
 20
7275300.518
 30
0.0
 40
8.0
  1
221.02'
 50
357.627008
  7
txt
 72
     1
 11
932687.888068
 21
7275299.652187
 31
0.0
210
0.0
220
0.0
230
1.0
  0
TEXT
  8
11
  6
CONTINUOUS
 62
     7
  5
346
 10
932618.971
 20
7276252.733
 30
0.0
 40
8.0
  1
210.25'
 50
88.1981
  7
txt
 72
     1
 11
932619.628523
 21
7276273.63366
 31
0.0
210
0.0
220
0.0
230
1.0
  0
TEXT
  8
11
  6
CONTINUOUS
 62
     7
  5
347
 10
932318.919
 20
7276264.41
 30
0.0
 40
8.0
  1
CH=104.79'
 50
74.587192
  7
txt
 72
     1
 11
932327.439639
 21
7276295.316995
 31
0.0
210
0.0
220
0.0
230
1.0
  0
TEXT
  8
11
  6
CONTINUOUS
 62
     7
  5
348
 10
932390.22
 20
7276250.635
 30
0.0
 40
8.0
  1
CH=165.74'
 50
75.368425
  7
txt
 72
     1
 11
932390.553882
 21
7276283.5842
 31
0.0
210
0.0
220
0.0
230
1.0
 73
     3
  0
TEXT
  8
11
  6
CONTINUOUS
 62
     7
  5
349
 10
932388.535
 20
7276184.362
 30
0.0
 40
8.0
  1
CH=126.09'
 50
316.012414
  7
txt
 72
     1
 11
932411.533507
 21
7276162.162228
 31
0.0
210
0.0
220
0.0
230
1.0
  0
TEXT
  8
11
  6
CONTINUOUS
 62
     7
  5
34A
 10
932465.861
 20
7276082.245
 30
0.0
 40
8.0
  1
CH=131.53'
 50
281.751442
  7
txt
 72
     1
 11
932472.063456
 21
7276052.429305
 31
0.0
210
0.0
220
0.0
230
1.0
  0
TEXT
  8
11
  6
CONTINUOUS
 62
     7
  5
34B
 10
932468.395
 20
7275892.762
 30
0.0
 40
8.0
  1
CH=141.28'
 50
81.402569
  7
txt
 72
     1
 11
932465.075017
 21
7275924.317899
 31
0.0
210
0.0
220
0.0
230
1.0
 73
     3
  0
TEXT
  8
11
  6
CONTINUOUS
 62
     7
  5
34C
 10
932511.289
 20
7276115.974
 30
0.0
 40
8.0
  1
166.14'
 50
25.567167
  7
txt
 72
     1
 11
932525.307934
 21
7276131.549266
 31
0.0
210
0.0
220
0.0
230
1.0
 73
     3
  0
TEXT
  8
11
  6
CONTINUOUS
 62
     7
  5
34D
 10
932464.468
 20
7276360.382
 30
0.0
 40
8.0
  1
208.61'
 50
358.1981
  7
txt
 72
     1
 11
932485.525258
 21
7276367.723508
 31
0.0
210
0.0
220
0.0
230
1.0
 73
     3
  0
TEXT
  8
11
  6
CONTINUOUS
 62
     7
  5
34E
 10
932353.35
 20
7276121.92
 30
0.0
 40
8.0
  1
CH=181.52'
 50
309.247772
  7
txt
 72
     1
 11
932378.972263
 21
7276103.202146
 31
0.0
210
0.0
220
0.0
230
1.0
 73
     3
  0
TEXT
  8
11
  6
CONTINUOUS
 62
     7
  5
34F
 10
932203.624
 20
7276172.375
 30
0.0
 40
8.0
  1
CH=162.17'
 50
348.770306
  7
txt
 72
     1
 11
932235.206875
 21
7276174.260565
 31
0.0
210
0.0
220
0.0
230
1.0
 73
     3
  0
TEXT
  8
11
  6
CONTINUOUS
 62
     7
  5
350
 10
932392.803
 20
7275864.096
 30
0.0
 40
8.0
  1
CH=1151.23'
 50
83.11015
  7
txt
 72
     1
 11
932396.781146
 21
7275897.018524
 31
0.0
210
0.0
220
0.0
230
1.0
  0
TEXT
  8
11
  6
CONTINUOUS
 62
     7
  5
351
 10
932263.182
 20
7275987.527
 30
0.0
 40
8.0
  1
246.19'
 50
358.1981
  7
txt
 72
     1
 11
932283.987707
 21
7275986.872464
 31
0.0
210
0.0
220
0.0
230
1.0
  0
TEXT
  8
11
  6
CONTINUOUS
 62
     7
  5
352
 10
932249.996
 20
7275822.861
 30
0.0
 40
8.0
  1
216.65'
 50
358.1981
  7
txt
 72
     1
 11
932270.707753
 21
7275822.209419
 31
0.0
210
0.0
220
0.0
230
1.0
  0
TEXT
  8
11
  6
CONTINUOUS
 62
     7
  5
353
 10
932517.804
 20
7275829.444
 30
0.0
 40
8.0
  1
140.31'
 50
358.1981
  7
txt
 72
     1
 11
932537.225392
 21
7275828.833014
 31
0.0
210
0.0
220
0.0
230
1.0
  0
TEXT
  8
11
  6
CONTINUOUS
 62
     7
  5
354
 10
932603.365
 20
7276257.495
 30
0.0
 40
8.0
  1
194.62'
 50
88.1981
  7
txt
 72
     1
 11
932604.019536
 21
7276278.300707
 31
0.0
210
0.0
220
0.0
230
1.0
  0
TEXT
  8
11
  6
CONTINUOUS
 62
     7
  5
355
 10
932594.578
 20
7275978.155
 30
0.0
 40
8.0
  1
346.38'
 50
88.1981
  7
txt
 72
     1
 11
932595.267187
 21
7276000.062162
 31
0.0
210
0.0
220
0.0
230
1.0
  0
TEXT
  8
11
  6
CONTINUOUS
 62
     7
  5
356
 10
932583.457
 20
7275624.693
 30
0.0
 40
8.0
  1
343.33'
 50
88.1981
  7
txt
 72
     1
 11
932584.141251
 21
7275646.44324
 31
0.0
210
0.0
220
0.0
230
1.0
  0
TEXT
  8
11
  6
CONTINUOUS
 62
     7
  5
357
 10
932574.491
 20
7275339.709
 30
0.0
 40
8.0
  1
281.67'
 50
88.1981
  7
txt
 72
     1
 11
932575.145536
 21
7275360.514707
 31
0.0
210
0.0
220
0.0
230
1.0
  0
TEXT
  8
11
  6
CONTINUOUS
 62
     7
  5
358
 10
932410.346
 20
7275207.515
 30
0.0
 40
8.0
  1
248.97'
 50
358.1981
  7
txt
 72
     1
 11
932432.59999
 21
7275206.814901
 31
0.0
210
0.0
220
0.0
230
1.0
  0
TEXT
  8
11
  6
CONTINUOUS
 62
     7
  5
359
 10
932484.94
 20
7275497.954
 30
0.0
 40
8.0
  1
133.32'
 50
344.794872
  7
txt
 72
     1
 11
932506.852406
 21
7275500.28864
 31
0.0
210
0.0
220
0.0
230
1.0
 73
     3
  0
TEXT
  8
11
  6
CONTINUOUS
 62
     7
  5
35A
 10
932257.799
 20
7275343.326
 30
0.0
 40
8.0
  1
CH=84.88'
 50
15.960742
  7
txt
 72
     1
 11
932283.939842
 21
7275359.123148
 31
0.0
210
0.0
220
0.0
230
1.0
 73
     3
  0
TEXT
  8
11
  6
CONTINUOUS
 62
     7
  5
35B
 10
932385.613
 20
7275395.058
 30
0.0
 40
8.0
  1
CH=186.72'
 50
45.672514
  7
txt
 72
     1
 11
932402.225956
 21
7275423.514474
 31
0.0
210
0.0
220
0.0
230
1.0
 73
     3
  0
TEXT
  8
11
  6
CONTINUOUS
 62
     7
  5
35C
 10
932365.404
 20
7275472.999
 30
0.0
 40
8.0
  1
CH=183.52'
 50
61.435117
  7
txt
 72
     1
 11
932380.673359
 21
7275501.045872
 31
0.0
210
0.0
220
0.0
230
1.0
  0
TEXT
  8
11
  6
CONTINUOUS
 62
     7
  5
35D
 10
932217.868
 20
7275408.872
 30
0.0
 40
8.0
  1
CH=162.17'
 50
13.113706
  7
txt
 72
     1
 11
932247.680718
 21
7275415.817155
 31
0.0
210
0.0
220
0.0
230
1.0
  0
TEXT
  8
11
  6
CONTINUOUS
 62
     7
  5
35E
 10
932240.803
 20
7275598.039
 30
0.0
 40
8.0
  1
246.19'
 50
358.1981
  7
txt
 72
     1
 11
932261.608707
 21
7275597.384464
 31
0.0
210
0.0
220
0.0
230
1.0
  0
TEXT
  8
11
  6
CONTINUOUS
 62
     7
  5
35F
 10
932337.428
 20
7275271.55
 30
0.0
 40
8.0
  1
168.91'
 50
88.1981
  7
txt
 72
     1
 11
932338.039961
 21
7275291.002376
 31
0.0
210
0.0
220
0.0
230
1.0
  0
TEXT
  8
11
  6
CONTINUOUS
 62
     7
  5
360
 10
932245.83
 20
7275256.777
 30
0.0
 40
8.0
  1
127.24'
 50
88.1981
  7
txt
 72
     1
 11
932246.487523
 21
7275277.67766
 31
0.0
210
0.0
220
0.0
230
1.0
  0
TEXT
  8
11
  6
CONTINUOUS
 62
     7
  5
361
 10
932176.078
 20
7275260.452
 30
0.0
 40
8.0
  1
115.43'
 50
88.1981
  7
txt
 72
     1
 11
932176.688986
 21
7275279.873392
 31
0.0
210
0.0
220
0.0
230
1.0
  0
TEXT
  8
11
  6
CONTINUOUS
 62
     7
  5
362
 10
932148.446
 20
7275508.689
 30
0.0
 40
8.0
  1
195'
 50
88.1981
  7
txt
 72
     1
 11
932148.794556
 21
7275519.768519
 31
0.0
210
0.0
220
0.0
230
1.0
  0
TEXT
  8
11
  6
CONTINUOUS
 62
     7
  5
363
 10
932153.542
 20
7275670.667
 30
0.0
 40
8.0
  1
165'
 50
88.1981
  7
txt
 72
     1
 11
932153.8876
 21
7275681.652565
 31
0.0
210
0.0
220
0.0
230
1.0
  0
TEXT
  8
11
  6
CONTINUOUS
 62
     7
  5
364
 10
932258.858
 20
7275750.546
 30
0.0
 40
8.0
  1
216.65'
 50
358.1981
  7
txt
 72
     1
 11
932279.821305
 21
7275757.890464
 31
0.0
210
0.0
220
0.0
230
1.0
 73
     3
  0
TEXT
  8
11
  6
CONTINUOUS
 62
     7
  5
365
 10
932033.056
 20
7275757.65
 30
0.0
 40
8.0
  1
220'
 50
358.1981
  7
txt
 72
     1
 11
932045.7404
 21
7275765.254913
 31
0.0
210
0.0
220
0.0
230
1.0
 73
     3
  0
TEXT
  8
11
  6
CONTINUOUS
 62
     7
  5
366
 10
931812.532
 20
7275764.587
 30
0.0
 40
8.0
  1
205'
 50
358.1981
  7
txt
 72
     1
 11
931825.2164
 21
7275772.191913
 31
0.0
210
0.0
220
0.0
230
1.0
 73
     3
  0
TEXT
  8
11
  6
CONTINUOUS
 62
     7
  5
367
 10
932023.188
 20
7275604.884
 30
0.0
 40
8.0
  1
220'
 50
358.1981
  7
txt
 72
     1
 11
932035.620849
 21
7275604.492869
 31
0.0
210
0.0
220
0.0
230
1.0
  0
TEXT
  8
11
  6
CONTINUOUS
 62
     7
  5
368
 10
931796.593
 20
7275612.013
 30
0.0
 40
8.0
  1
220'
 50
358.1981
  7
txt
 72
     1
 11
931809.025849
 21
7275611.621869
 31
0.0
210
0.0
220
0.0
230
1.0
  0
TEXT
  8
11
  6
CONTINUOUS
 62
     7
  5
369
 10
931764.434
 20
7275447.943
 30
0.0
 40
8.0
  1
150'
 50
358.1981
  7
txt
 72
     1
 11
931775.513519
 21
7275447.594444
 31
0.0
210
0.0
220
0.0
230
1.0
  0
TEXT
  8
11
  6
CONTINUOUS
 62
     7
  5
36A
 10
931760.147
 20
7275376.043
 30
0.0
 40
8.0
  1
150'
 50
358.1981
  7
txt
 72
     1
 11
931771.47807
 21
7275383.690488
 31
0.0
210
0.0
220
0.0
230
1.0
 73
     3
  0
TEXT
  8
11
  6
CONTINUOUS
 62
     7
  5
36B
 10
931808.765
 20
7275226.44
 30
0.0
 40
8.0
  1
250'
 50
358.1981
  7
txt
 72
     1
 11
931821.197849
 21
7275226.048869
 31
0.0
210
0.0
220
0.0
230
1.0
  0
TEXT
  8
11
  6
CONTINUOUS
 62
     7
  5
36C
 10
932054.579
 20
7275218.707
 30
0.0
 40
8.0
  1
225'
 50
358.1981
  7
txt
 72
     1
 11
932067.011849
 21
7275218.315869
 31
0.0
210
0.0
220
0.0
230
1.0
  0
TEXT
  8
11
  6
CONTINUOUS
 62
     7
  5
36D
 10
931863.551
 20
7275447.335
 30
0.0
 40
8.0
  1
CH=55.02'
 50
356.096747
  7
txt
 72
     1
 11
931892.958628
 21
7275445.328512
 31
0.0
210
0.0
220
0.0
230
1.0
  0
TEXT
  8
11
  6
CONTINUOUS
 62
     7
  5
36E
 10
931962.547
 20
7275437.795
 30
0.0
 40
8.0
  1
CH=137.27'
 50
350.376539
  7
txt
 72
     1
 11
931994.031614
 21
7275432.456514
 31
0.0
210
0.0
220
0.0
230
1.0
  0
TEXT
  8
11
  6
CONTINUOUS
 62
     7
  5
36F
 10
932067.485
 20
7275415.659
 30
0.0
 40
8.0
  1
CH=84.56'
 50
350.629469
  7
txt
 72
     1
 11
932096.474928
 21
7275410.875067
 31
0.0
210
0.0
220
0.0
230
1.0
  0
TEXT
  8
11
  6
CONTINUOUS
 62
     7
  5
370
 10
931878.638
 20
7275372.722
 30
0.0
 40
8.0
  1
CH=85.11'
 50
355.801772
  7
txt
 72
     1
 11
931905.920831
 21
7275378.740846
 31
0.0
210
0.0
220
0.0
230
1.0
 73
     3
  0
TEXT
  8
11
  6
CONTINUOUS
 62
     7
  5
371
 10
931972.76
 20
7275363.472
 30
0.0
 40
8.0
  1
CH=94.21'
 50
349.064933
  7
txt
 72
     1
 11
932001.889936
 21
7275365.991911
 31
0.0
210
0.0
220
0.0
230
1.0
 73
     3
  0
TEXT
  8
11
  6
CONTINUOUS
 62
     7
  5
372
 10
932082.187
 20
7275339.234
 30
0.0
 40
8.0
  1
CH=116.79'
 50
354.134289
  7
txt
 72
     1
 11
932113.455303
 21
7275344.063754
 31
0.0
210
0.0
220
0.0
230
1.0
 73
     3
  0
TEXT
  8
11
  6
CONTINUOUS
 62
     7
  5
373
 10
931936.115
 20
7275679.533
 30
0.0
 40
8.0
  1
165'
 50
88.1981
  7
txt
 72
     1
 11
931936.4606
 21
7275690.518565
 31
0.0
210
0.0
220
0.0
230
1.0
  0
TEXT
  8
11
  6
CONTINUOUS
 62
     7
  5
374
 10
931928.672
 20
7275507.315
 30
0.0
 40
8.0
  1
166.71'
 50
88.1981
  7
txt
 72
     1
 11
931929.281006
 21
7275526.673423
 31
0.0
210
0.0
220
0.0
230
1.0
  0
TEXT
  8
11
  6
CONTINUOUS
 62
     7
  5
375
 10
931715.099
 20
7275297.483
 30
0.0
 40
8.0
  1
145'
 50
88.1981
  7
txt
 72
     1
 11
931715.447556
 21
7275308.562519
 31
0.0
210
0.0
220
0.0
230
1.0
  0
TEXT
  8
11
  6
CONTINUOUS
 62
     7
  5
376
 10
931722.515
 20
7275533.228
 30
0.0
 40
8.0
  1
150'
 50
88.1981
  7
txt
 72
     1
 11
931722.863556
 21
7275544.307519
 31
0.0
210
0.0
220
0.0
230
1.0
  0
TEXT
  8
11
  6
CONTINUOUS
 62
     7
  5
377
 10
931727.45
 20
7275690.055
 30
0.0
 40
8.0
  1
150'
 50
88.1981
  7
txt
 72
     1
 11
931727.798556
 21
7275701.134519
 31
0.0
210
0.0
220
0.0
230
1.0
  0
TEXT
  8
11
  6
CONTINUOUS
 62
     7
  5
378
 10
931736.236
 20
7275969.369
 30
0.0
 40
8.0
  1
225'
 50
88.1981
  7
txt
 72
     1
 11
931736.627131
 21
7275981.801849
 31
0.0
210
0.0
220
0.0
230
1.0
  0
TEXT
  8
11
  6
CONTINUOUS
 62
     7
  5
379
 10
931744.243
 20
7276223.889
 30
0.0
 40
8.0
  1
316'
 50
88.1981
  7
txt
 72
     1
 11
931744.584638
 21
7276234.748627
 31
0.0
210
0.0
220
0.0
230
1.0
  0
TEXT
  8
11
  6
CONTINUOUS
 62
     7
  5
37A
 10
931882.143
 20
7275940.194
 30
0.0
 40
8.0
  1
216.82'
 50
88.1981
  7
txt
 72
     1
 11
931882.797536
 21
7275960.999707
 31
0.0
210
0.0
220
0.0
230
1.0
  0
TEXT
  8
11
  6
CONTINUOUS
 62
     7
  5
37B
 10
931954.074
 20
7275909.181
 30
0.0
 40
8.0
  1
150'
 50
88.1981
  7
txt
 72
     1
 11
931954.422556
 21
7275920.260519
 31
0.0
210
0.0
220
0.0
230
1.0
  0
TEXT
  8
11
  6
CONTINUOUS
 62
     7
  5
37C
 10
931957.449
 20
7276016.461
 30
0.0
 40
8.0
  1
66.82'
 50
88.1981
  7
txt
 72
     1
 11
931958.019392
 21
7276034.59203
 31
0.0
210
0.0
220
0.0
230
1.0
  0
TEXT
  8
11
  6
CONTINUOUS
 62
     7
  5
37D
 10
932167.432
 20
7276092.872
 30
0.0
 40
8.0
  1
195'
 50
88.1981
  7
txt
 72
     1
 11
932167.780556
 21
7276103.951519
 31
0.0
210
0.0
220
0.0
230
1.0
  0
TEXT
  8
11
  6
CONTINUOUS
 62
     7
  5
37E
 10
932161.323
 20
7275898.704
 30
0.0
 40
8.0
  1
165'
 50
88.1981
  7
txt
 72
     1
 11
932161.6686
 21
7275909.689565
 31
0.0
210
0.0
220
0.0
230
1.0
  0
TEXT
  8
11
  6
CONTINUOUS
 62
     7
  5
37F
 10
931881.595
 20
7276378.72
 30
0.0
 40
8.0
  1
300'
 50
358.1981
  7
txt
 72
     1
 11
931894.153463
 21
7276386.328875
 31
0.0
210
0.0
220
0.0
230
1.0
 73
     3
  0
TEXT
  8
11
  6
CONTINUOUS
 62
     7
  5
380
 10
932172.466
 20
7276369.569
 30
0.0
 40
8.0
  1
303.39'
 50
358.1981
  7
txt
 72
     1
 11
932194.593729
 21
7276376.876831
 31
0.0
210
0.0
220
0.0
230
1.0
 73
     3
  0
TEXT
  8
11
  6
CONTINUOUS
 62
     7
  5
381
 10
931961.188
 20
7276090.244
 30
0.0
 40
8.0
  1
112.69'
 50
59.130839
  7
txt
 72
     1
 11
931964.30682
 21
7276111.053671
 31
0.0
210
0.0
220
0.0
230
1.0
 73
     3
  0
TEXT
  8
11
  6
CONTINUOUS
 62
     7
  5
382
 10
932048.478
 20
7276158.351
 30
0.0
 40
8.0
  1
CH=162.17'
 50
12.348717
  7
txt
 72
     1
 11
932076.669898
 21
7276172.712414
 31
0.0
210
0.0
220
0.0
230
1.0
 73
     3
  0
TEXT
  8
11
  6
CONTINUOUS
 62
     7
  5
383
 10
931892.247
 20
7276113.643
 30
0.0
 40
8.0
  1
CH=117.67'
 50
60.567581
  7
txt
 72
     1
 11
931907.289142
 21
7276140.303219
 31
0.0
210
0.0
220
0.0
230
1.0
  0
TEXT
  8
11
  6
CONTINUOUS
 62
     7
  5
384
 10
931944.53
 20
7276188.683
 30
0.0
 40
8.0
  1
CH=59.39'
 50
29.428242
  7
txt
 72
     1
 11
931970.093891
 21
7276203.104119
 31
0.0
210
0.0
220
0.0
230
1.0
  0
TEXT
  8
11
  6
CONTINUOUS
 62
     7
  5
385
 10
932003.558
 20
7276218.892
 30
0.0
 40
8.0
  1
CH=62.65'
 50
16.450306
  7
txt
 72
     1
 11
932031.647117
 21
7276227.185882
 31
0.0
210
0.0
220
0.0
230
1.0
  0
TEXT
  8
11
  6
CONTINUOUS
 62
     7
  5
386
 10
932147.427
 20
7276246.652
 30
0.0
 40
8.0
  1
CH=213.75'
 50
357.504092
  7
txt
 72
     1
 11
932179.330705
 21
7276245.261337
 31
0.0
210
0.0
220
0.0
230
1.0
  0
TEXT
  8
11
  6
CONTINUOUS
 62
     7
  5
387
 10
931840.099
 20
7276298.674
 30
0.0
 40
8.0
  1
294.50'
 50
316.289411
  7
txt
 72
     1
 11
931856.19302
 21
7276283.288529
 31
0.0
210
0.0
220
0.0
230
1.0
  0
TEXT
  8
11
  6
CONTINUOUS
 62
     7
  5
388
 10
932051.156
 20
7276330.505
 30
0.0
 40
8.0
  1
152.49'
 50
281.633519
  7
txt
 72
     1
 11
932055.372723
 21
7276310.023565
 31
0.0
210
0.0
220
0.0
230
1.0
  0
TEXT
  8
11
  6
CONTINUOUS
 62
     7
  5
389
 10
931802.843
 20
7276077.047
 30
0.0
 40
8.0
  1
160.20'
 50
358.1981
  7
txt
 72
     1
 11
931823.648707
 21
7276076.392464
 31
0.0
210
0.0
220
0.0
230
1.0
  0
TEXT
  8
11
  6
CONTINUOUS
 62
     7
  5
38A
 10
931782.892
 20
7275837.556
 30
0.0
 40
8.0
  1
130'
 50
358.1981
  7
txt
 72
     1
 11
931793.845581
 21
7275837.211406
 31
0.0
210
0.0
220
0.0
230
1.0
  0
TEXT
  8
11
  6
CONTINUOUS
 62
     7
  5
38B
 10
932042.402
 20
7275829.392
 30
0.0
 40
8.0
  1
205'
 50
358.1981
  7
txt
 72
     1
 11
932054.834849
 21
7275829.000869
 31
0.0
210
0.0
220
0.0
230
1.0
  0
TEXT
  8
11
  6
CONTINUOUS
 62
     7
  5
38C
 10
932380.716
 20
7275689.583
 30
0.0
 40
8.0
  1
CH=151.23'
 50
274.023494
  7
txt
 72
     1
 11
932390.841945
 21
7275659.639693
 31
0.0
210
0.0
220
0.0
230
1.0
 73
     3
  0
TEXT
  8
11
  6
CONTINUOUS
 62
     7
  5
38D
 10
932461.097
 20
7275713.348
 30
0.0
 40
8.0
  1
CH=231.02'
 50
88.1981
  7
txt
 72
     1
 11
932462.10113
 21
7275745.266209
 31
0.0
210
0.0
220
0.0
230
1.0
  0
TEXT
  8
11
  6
CONTINUOUS
 62
     7
  5
38E
 10
932471.896
 20
7275553.712
 30
0.0
 40
8.0
  1
CH=81.87'
 50
88.1981
  7
txt
 72
     1
 11
932472.780297
 21
7275581.821094
 31
0.0
210
0.0
220
0.0
230
1.0
  0
TEXT
  8
11
  6
CONTINUOUS
 62
     7
  5
38F
 10
931829.808
 20
7276065.671
 30
0.0
 40
8.0
  1
CH=8.18'
 50
358.1981
  7
txt
 72
     1
 11
931853.98204
 21
7276064.910498
 31
0.0
210
0.0
220
0.0
230
1.0
  0
TEXT
  8
11
  6
CONTINUOUS
 62
     7
  5
390
 10
932568.133
 20
7275185.041
 30
0.0
 40
8.0
  1
20.1'
 50
88.1981
  7
ROMANS
210
0.0
220
0.0
230
1.0
  0
TEXT
  8
11
  6
CONTINUOUS
 62
     7
  5
391
 10
931715.763
 20
7275211.857
 30
0.0
 40
8.0
  1
21.21'
 50
88.1981
  7
ROMANS
210
0.0
220
0.0
230
1.0
  0
LINE
  8
6
  6
CONTINUOUS
 62
     7
  5
392
 10
931684.478
 20
7274242.068
 30
0.0
 11
932133.357
 21
7274227.947
 31
0.0
  0
LINE
  8
6
  6
CONTINUOUS
 62
     7
  5
393
 10
932147.877
 20
7274212.47
 30
0.0
 11
932137.311
 21
7273885.245
 31
0.0
  0
LINE
  8
6
  6
CONTINUOUS
 62
     7
  5
394
 10
932140.872
 20
7273995.367
 30
0.0
 11
931990.946
 21
7274000.083
 31
0.0
  0
LINE
  8
6
  6
CONTINUOUS
 62
     7
  5
395
 10
931990.946
 20
7274000.083
 30
0.0
 11
931986.85
 21
7273873.449
 31
0.0
  0
LINE
  8
6
  6
CONTINUOUS
 62
     7
  5
396
 10
932122.017
 20
7273870.731
 30
0.0
 11
931672.513
 21
7273879.77
 31
0.0
  0
LINE
  8
6
  6
CONTINUOUS
 62
     7
  5
397
 10
931782.292
 20
7273877.563
 30
0.0
 11
931786.463
 21
7274006.524
 31
0.0
  0
LINE
  8
6
  6
CONTINUOUS
 62
     7
  5
398
 10
931786.463
 20
7274006.524
 30
0.0
 11
931661.714
 21
7274010.45
 31
0.0
  0
LINE
  8
6
  6
CONTINUOUS
 62
     7
  5
399
 10
931657.823
 20
7273895.273
 30
0.0
 11
931669.016
 21
7274227.583
 31
0.0
  0
ARC
  8
6
  6
CONTINUOUS
 62
     7
  5
39A
 10
931684.007152
 20
7274227.076248
 30
0.0
 40
15.0
 50
88.1981
 51
178.064669
210
0.0
220
0.0
230
1.0
  0
ARC
  8
6
  6
CONTINUOUS
 62
     7
  5
39B
 10
932122.318669
 20
7273885.728284
 30
0.0
 40
15.0
 50
268.848081
 51
358.147986
210
0.0
220
0.0
230
1.0
  0
ARC
  8
6
  6
CONTINUOUS
 62
     7
  5
39C
 10
931672.813552
 20
7273894.766584
 30
0.0
 40
15.0
 50
178.064675
 51
268.848142
210
0.0
220
0.0
230
1.0
  0
ARC
  8
6
  6
CONTINUOUS
 62
     7
  5
39D
 10
932132.885997
 20
7274212.954762
 30
0.0
 40
15.0
 50
358.14805
 51
88.1981
210
0.0
220
0.0
230
1.0
  0
LINE
  8
6
  6
CONTINUOUS
 62
     7
  5
39E
 10
932593.74
 20
7273854.226
 30
0.0
 11
932600.745
 21
7274076.913
 31
0.0
  0
LINE
  8
6
  6
CONTINUOUS
 62
     7
  5
39F
 10
932600.745
 20
7274076.913
 30
0.0
 11
932748.089
 21
7274072.836
 31
0.0
  0
LINE
  8
6
  6
CONTINUOUS
 62
     7
  5
3A0
 10
932748.089
 20
7274072.836
 30
0.0
 11
932741.875
 21
7273875.335
 31
0.0
  0
LINE
  8
6
  6
CONTINUOUS
 62
     7
  5
3A1
 10
932748.089
 20
7274072.836
 30
0.0
 11
932873.027
 21
7274068.904
 31
0.0
  0
LINE
  8
6
  6
CONTINUOUS
 62
     7
  5
3A2
 10
932873.027
 20
7274068.904
 30
0.0
 11
932867.856
 21
7273904.509
 31
0.0
  0
LINE
  8
6
  6
CONTINUOUS
 62
     7
  5
3A3
 10
932314.701
 20
7273857.406
 30
0.0
 11
932321.954
 21
7274087.912
 31
0.0
  0
LINE
  8
6
  6
CONTINUOUS
 62
     7
  5
3A4
 10
932197.644
 20
7274111.833
 30
0.0
 11
932541.474
 21
7274101.016
 31
0.0
  0
LINE
  8
6
  6
CONTINUOUS
 62
     7
  5
3A5
 10
932540.845
 20
7274081.026
 30
0.0
 11
932533.594
 21
7273850.52
 31
0.0
  0
LINE
  8
6
  6
CONTINUOUS
 62
     7
  5
3A6
 10
932533.594
 20
7273850.52
 30
0.0
 11
932314.701
 21
7273857.406
 31
0.0
  0
LINE
  8
6
  6
CONTINUOUS
 62
     7
  5
3A7
 10
932321.954
 20
7274087.912
 30
0.0
 11
932540.845
 21
7274081.026
 31
0.0
  0
LINE
  8
7
  6
CONTINUOUS
 62
     7
  5
3A8
 10
932339.69
 20
7273856.62
 30
0.0
 11
932346.941
 21
7274087.127
 31
0.0
  0
LINE
  8
7
  6
CONTINUOUS
 62
     7
  5
3A9
 10
932364.677
 20
7273855.834
 30
0.0
 11
932371.929
 21
7274086.34
 31
0.0
  0
LINE
  8
7
  6
CONTINUOUS
 62
     7
  5
3AA
 10
932389.665
 20
7273855.047
 30
0.0
 11
932396.916
 21
7274085.554
 31
0.0
  0
LINE
  8
7
  6
CONTINUOUS
 62
     7
  5
3AB
 10
932414.652
 20
7273854.261
 30
0.0
 11
932421.905
 21
7274084.768
 31
0.0
  0
LINE
  8
7
  6
CONTINUOUS
 62
     7
  5
3AC
 10
932439.64
 20
7273853.476
 30
0.0
 11
932446.892
 21
7274083.981
 31
0.0
  0
LINE
  8
7
  6
CONTINUOUS
 62
     7
  5
3AD
 10
932464.628
 20
7273852.689
 30
0.0
 11
932471.879
 21
7274083.195
 31
0.0
  0
LINE
  8
7
  6
CONTINUOUS
 62
     7
  5
3AE
 10
932489.615
 20
7273851.904
 30
0.0
 11
932496.867
 21
7274082.41
 31
0.0
  0
LINE
  8
6
  6
CONTINUOUS
 62
     7
  5
3AF
 10
932541.474
 20
7274101.016
 30
0.0
 11
932545.076
 21
7274215.509
 31
0.0
  0
LINE
  8
6
  6
CONTINUOUS
 62
     7
  5
3B0
 10
932545.076
 20
7274215.509
 30
0.0
 11
932216.238
 21
7274225.854
 31
0.0
  0
LINE
  8
7
  6
CONTINUOUS
 62
     7
  5
3B1
 10
932458.12
 20
7274218.245
 30
0.0
 11
932454.517
 21
7274103.752
 31
0.0
  0
LINE
  8
6
  6
CONTINUOUS
 62
     7
  5
3B2
 10
932907.988
 20
7273916.063
 30
0.0
 11
932912.757
 21
7274067.655
 31
0.0
  0
LINE
  8
6
  6
CONTINUOUS
 62
     7
  5
3B3
 10
932912.757
 20
7274067.655
 30
0.0
 11
932873.027
 21
7274068.904
 31
0.0
  0
LINE
  8
6
  6
CONTINUOUS
 62
     7
  5
3B4
 10
932321.954
 20
7274087.912
 30
0.0
 11
932197.015
 21
7274091.843
 31
0.0
  0
LINE
  8
6
  6
CONTINUOUS
 62
     7
  5
3B5
 10
932197.015
 20
7274091.843
 30
0.0
 11
932190.475
 21
7273883.954
 31
0.0
  0
LINE
  8
6
  6
CONTINUOUS
 62
     7
  5
3B6
 10
932205.15
 20
7273868.487
 30
0.0
 11
932314.981
 21
7273866.15
 31
0.0
  0
ARC
  8
6
  6
CONTINUOUS
 62
     7
  5
3B7
 10
932205.468013
 20
7273883.483179
 30
0.0
 40
15.0
 50
178.1981
 51
268.781186
210
0.0
220
0.0
230
1.0
  0
LINE
  8
6
  6
CONTINUOUS
 62
     7
  5
3B8
 10
932197.644
 20
7274111.833
 30
0.0
 11
932200.775
 21
7274211.334
 31
0.0
  0
LINE
  8
7
  6
CONTINUOUS
 62
     7
  5
3B9
 10
932322.583
 20
7274107.903
 30
0.0
 11
932326.184
 21
7274222.396
 31
0.0
  0
ARC
  8
6
  6
CONTINUOUS
 62
     7
  5
3BA
 10
932215.767173
 20
7274210.861965
 30
0.0
 40
15.0
 50
88.1981
 51
178.1981
210
0.0
220
0.0
230
1.0
  0
LINE
  8
6
  6
CONTINUOUS
 62
     7
  5
3BB
 10
932912.757
 20
7274067.655
 30
0.0
 11
933199.4
 21
7274058.637
 31
0.0
  0
LINE
  8
6
  6
CONTINUOUS
 62
     7
  5
3BC
 10
931738.291
 20
7276393.233
 30
0.0
 11
931721.28
 21
7275852.5
 31
0.0
  0
LINE
  8
6
  6
CONTINUOUS
 62
     7
  5
3BD
 10
932573.197
 20
7275200.39
 30
0.0
 11
932583.414
 21
7275525.187
 31
0.0
  0
LINE
  8
7
  6
CONTINUOUS
 62
     7
  5
3BE
 10
932583.414
 20
7275525.187
 30
0.0
 11
932609.86
 21
7276365.814
 31
0.0
  0
LINE
  8
6
  6
CONTINUOUS
 62
     7
  5
3BF
 10
931863.568
 20
7279001.389
 30
0.0
 11
936952.71
 21
7278834.841
 31
0.0
  0
TEXT
  8
19
  6
CONTINUOUS
 62
     1
  5
3C0
 10
932175.142
 20
7273921.266
 30
0.0
 40
24.0
  1
PEORIA AVE
 50
88.1981
  7
ROMANC
 72
     4
 11
932167.140806
 21
7274048.564536
 31
0.0
210
0.0
220
0.0
230
1.0
  0
TEXT
  8
19
  6
CONTINUOUS
 62
     1
  5
3C1
 10
932574.136
 20
7273893.576
 30
0.0
 40
24.0
  1
ORLANDO AVE
 50
88.1981
  7
ROMANC
 72
     4
 11
932566.705199
 21
7274039.005566
 31
0.0
210
0.0
220
0.0
230
1.0
  0
TEXT
  8
19
  6
CONTINUOUS
 62
     1
  5
3C2
 10
931758.625
 20
7275402.222
 30
0.0
 40
24.0
  1
GREEK CIR
 50
358.1981
  7
ROMANC
 72
     4
 11
931873.081889
 21
7275410.627185
 31
0.0
210
0.0
220
0.0
230
1.0
  0
TEXT
  8
19
  6
CONTINUOUS
 62
     1
  5
3C3
 10
931988.751
 20
7275788.289
 30
0.0
 40
24.0
  1
GREEK CIR
 50
358.1981
  7
ROMANC
 72
     4
 11
932103.207889
 21
7275796.694185
 31
0.0
210
0.0
220
0.0
230
1.0
  0
TEXT
  8
19
  6
CONTINUOUS
 62
     1
  5
3C4
 10
932434.056
 20
7275885.003
 30
0.0
 40
24.0
  1
CIR
 50
88.1981
  7
ROMANC
 72
     4
 11
932423.024495
 21
7275915.97719
 31
0.0
210
0.0
220
0.0
230
1.0
  0
TEXT
  8
13
  6
CONTINUOUS
 62
    14
  5
3C6
 10
931828.387
 20
7276091.537
 30
0.0
 40
8.0
  1
V1452 P286
 50
358.1981
  7
txt
 72
     4
 11
931866.132164
 21
7276094.351536
 31
0.0
210
0.0
220
0.0
230
1.0
  0
POLYLINE
  8
21
  6
DASHDOT
 62
     7
  5
3C7
 66
     1
 10
0.0
 20
0.0
 30
0.0
 70
     1
  0
VERTEX
  8
21
  6
DASHDOT
 62
     7
  5
3C8
 10
931821.124
 20
7276084.475
 30
0.0
  0
VERTEX
  8
21
  6
DASHDOT
 62
     7
  5
3C9
 10
931821.784
 20
7276105.465
 30
0.0
  0
VERTEX
  8
21
  6
DASHDOT
 62
     7
  5
3CA
 10
931826.782
 20
7276105.308
 30
0.0
  0
VERTEX
  8
21
  6
DASHDOT
 62
     7
  5
3CB
 10
931826.121
 20
7276084.318
 30
0.0
  0
SEQEND
  8
21
  6
DASHDOT
 62
     7
  5
3CC
  0
TEXT
  8
22
  6
CONTINUOUS
 62
     3
  5
3CD
 10
931819.985
 20
7276086.885
 30
0.0
 40
6.0
  1
5'x21' UTILITY ESMT
 50
88.1981
  7
txt
 72
     4
 11
931818.479377
 21
7276134.433855
 31
0.0
210
0.0
220
0.0
230
1.0
  0
TEXT
  8
10
  6
CONTINUOUS
 62
   134
  5
3CE
 10
933689.742
 20
7274826.703
 30
0.0
 40
13.999
  1
A
 50
358.1981
  7
ROMANS
 11
933690.182183
 21
7274840.695078
 31
0.0
210
0.0
220
0.0
230
1.0
 73
     3
  0
TEXT
  8
22
  6
CONTINUOUS
 62
     3
  5
3CF
 10
933787.434
 20
7275226.467
 30
0.0
 40
6.0
  1
35'
 50
88.1981
  7
txt
 72
     4
 11
933784.66276
 21
7275233.785758
 31
0.0
210
0.0
220
0.0
230
1.0
  0
POLYLINE
  8
21
  6
DASHDOT
 62
     7
  5
3D0
 66
     1
 10
0.0
 20
0.0
 30
0.0
 70
     1
  0
VERTEX
  8
21
  6
DASHDOT
 62
     7
  5
3D1
 10
933775.748
 20
7275246.116
 30
0.0
  0
VERTEX
  8
21
  6
DASHDOT
 62
     7
  5
3D2
 10
933774.268
 20
7275211.148
 30
0.0
  0
VERTEX
  8
21
  6
DASHDOT
 62
     7
  5
3D3
 10
933789.255
 20
7275210.513
 30
0.0
  0
VERTEX
  8
21
  6
DASHDOT
 62
     7
  5
3D4
 10
933788.834
 20
7275200.523
 30
0.0
  0
VERTEX
  8
21
  6
DASHDOT
 62
     7
  5
3D5
 10
933773.848
 20
7275201.157
 30
0.0
  0
VERTEX
  8
21
  6
DASHDOT
 62
     7
  5
3D6
 10
933764.387
 20
7274977.357
 30
0.0
  0
VERTEX
  8
21
  6
DASHDOT
 62
     7
  5
3D7
 10
934092.025
 20
7274497.852
 30
0.0
  0
VERTEX
  8
21
  6
DASHDOT
 62
     7
  5
3D8
 10
934075.512
 20
7274486.569
 30
0.0
  0
VERTEX
  8
21
  6
DASHDOT
 62
     7
  5
3D9
 10
933965.5
 20
7274647.574
 30
0.0
  0
VERTEX
  8
21
  6
DASHDOT
 62
     7
  5
3DA
 10
933953.114
 20
7274639.111
 30
0.0
  0
VERTEX
  8
21
  6
DASHDOT
 62
     7
  5
3DB
 10
933947.474
 20
7274647.368
 30
0.0
  0
VERTEX
  8
21
  6
DASHDOT
 62
     7
  5
3DC
 10
933959.858
 20
7274655.831
 30
0.0
  0
VERTEX
  8
21
  6
DASHDOT
 62
     7
  5
3DD
 10
933744.123
 20
7274971.565
 30
0.0
  0
VERTEX
  8
21
  6
DASHDOT
 62
     7
  5
3DE
 10
933755.764
 20
7275246.969
 30
0.0
  0
SEQEND
  8
21
  6
DASHDOT
 62
     7
  5
3DF
  0
TEXT
  8
22
  6
CONTINUOUS
 62
     3
  5
3E0
 10
933801.36
 20
7275203.211
 30
0.0
 40
6.0
  1
10'
 50
88.1981
  7
txt
 72
     4
 11
933798.554612
 21
7275209.444295
 31
0.0
210
0.0
220
0.0
230
1.0
  0
TEXT
  8
22
  6
CONTINUOUS
 62
     3
  5
3E1
 10
933752.45
 20
7275101.981
 30
0.0
 40
6.0
  1
275.65'
 50
88.1981
  7
txt
 72
     4
 11
933750.005588
 21
7275119.688618
 31
0.0
210
0.0
220
0.0
230
1.0
  0
TEXT
  8
22
  6
CONTINUOUS
 62
     3
  5
3E2
 10
933848.726
 20
7274813.706
 30
0.0
 40
6.0
  1
382.4'
 50
304.344169
  7
txt
 72
     1
 11
933862.075851
 21
7274804.80345
 31
0.0
210
0.0
220
0.0
230
1.0
 73
     3
  0
TEXT
  8
13
  6
CONTINUOUS
 62
    14
  5
3E3
 10
933891.684
 20
7274771.621
 30
0.0
 40
8.0
  1
V1081 P412
 50
304.344169
  7
txt
 72
     1
 11
933910.607146
 21
7274743.926591
 31
0.0
210
0.0
220
0.0
230
1.0
  0
TEXT
  8
22
  6
CONTINUOUS
 62
     3
  5
3E4
 10
933781.129
 20
7275194.842
 30
0.0
 40
6.0
  1
15'
 50
357.579289
  7
txt
 72
     1
 11
933787.288499
 21
7275194.58161
 31
0.0
210
0.0
220
0.0
230
1.0
  0
TEXT
  8
22
  6
CONTINUOUS
 62
     3
  5
3E5
 10
933782.737
 20
7275097.379
 30
0.0
 40
6.0
  1
224'
 50
88.1981
  7
txt
 72
     4
 11
933780.064557
 21
7275107.838204
 31
0.0
210
0.0
220
0.0
230
1.0
  0
SOLID
  8
25
  6
CONTINUOUS
 62
   212
  5
3E7
 10
932631.902
 20
7275098.645
 30
0.0
 11
933231.606
 21
7275079.779
 31
0.0
 12
932631.431
 22
7275083.652
 32
0.0
 13
933231.133
 23
7275064.787
 33
0.0
  0
POLYLINE
  8
25
  6
CONTINUOUS
 62
   212
  5
3E8
 66
     1
 10
0.0
 20
0.0
 30
0.0
 70
     1
  0
VERTEX
  8
25
  6
CONTINUOUS
 62
   212
  5
3E9
 10
933297.592
 20
7275269.138
 30
0.0
  0
VERTEX
  8
25
  6
CONTINUOUS
 62
   212
  5
3EA
 10
932858.963
 20
7275287.529
 30
0.0
  0
VERTEX
  8
25
  6
CONTINUOUS
 62
   212
  5
3EB
 10
932857.152
 20
7275229.928
 30
0.0
  0
VERTEX
  8
25
  6
CONTINUOUS
 62
   212
  5
3EC
 10
933235.955
 20
7275218.01
 30
0.0
  0
VERTEX
  8
25
  6
CONTINUOUS
 62
   212
  5
3ED
 10
933226.786
 20
7274926.555
 30
0.0
  0
VERTEX
  8
25
  6
CONTINUOUS
 62
   212
  5
3EE
 10
933286.755
 20
7274924.667
 30
0.0
  0
VERTEX
  8
25
  6
CONTINUOUS
 62
   212
  5
3EF
 10
933297.592
 20
7275269.138
 30
0.0
  0
SEQEND
  8
25
  6
CONTINUOUS
 62
   212
  5
3F0
  0
TEXT
  8
13
  6
CONTINUOUS
 62
    14
  5
3F1
 10
933078.995
 20
7275243.178
 30
0.0
 40
8.0
  1
V6255 P22 T2
 50
358.1981
  7
txt
 72
     4
 11
933125.963601
 21
7275245.702372
 31
0.0
210
0.0
220
0.0
230
1.0
  0
TEXT
  8
13
  6
CONTINUOUS
 62
    14
  5
3F2
 10
932879.116
 20
7275063.313
 30
0.0
 40
8.0
  1
V6255 P22 T1
 50
358.1981
  7
txt
 72
     4
 11
932924.667302
 21
7275065.88196
 31
0.0
210
0.0
220
0.0
230
1.0
  0
LINE
  8
6
  6
CONTINUOUS
 62
     7
  5
3F3
 10
931679.973
 20
7274666.977
 30
0.0
 11
932164.733
 21
7274651.727
 31
0.0
  0
LINE
  8
6
  6
CONTINUOUS
 62
     7
  5
3F4
 10
932164.733
 20
7274651.727
 30
0.0
 11
932169.685
 21
7274809.149
 31
0.0
  0
LINE
  8
6
  6
CONTINUOUS
 62
     7
  5
3F5
 10
932169.685
 20
7274809.149
 30
0.0
 11
931684.925
 21
7274824.399
 31
0.0
  0
LINE
  8
6
  6
CONTINUOUS
 62
     7
  5
3F6
 10
931684.925
 20
7274824.399
 30
0.0
 11
931679.973
 21
7274666.977
 31
0.0
  0
LINE
  8
6
  6
CONTINUOUS
 62
     7
  5
3F7
 10
931685.397
 20
7274839.391
 30
0.0
 11
932170.157
 21
7274824.142
 31
0.0
  0
LINE
  8
6
  6
CONTINUOUS
 62
     7
  5
3F8
 10
932170.157
 20
7274824.142
 30
0.0
 11
932175.109
 21
7274981.563
 31
0.0
  0
LINE
  8
6
  6
CONTINUOUS
 62
     7
  5
3F9
 10
932175.109
 20
7274981.563
 30
0.0
 11
931690.349
 21
7274996.814
 31
0.0
  0
LINE
  8
6
  6
CONTINUOUS
 62
     7
  5
3FA
 10
931690.349
 20
7274996.814
 30
0.0
 11
931685.397
 21
7274839.391
 31
0.0
  0
LINE
  8
6
  6
CONTINUOUS
 62
     7
  5
3FB
 10
931673.447
 20
7274459.58
 30
0.0
 11
932158.207
 21
7274444.33
 31
0.0
  0
LINE
  8
6
  6
CONTINUOUS
 62
     7
  5
3FC
 10
932158.207
 20
7274444.33
 30
0.0
 11
932163.16
 21
7274601.751
 31
0.0
  0
LINE
  8
6
  6
CONTINUOUS
 62
     7
  5
3FD
 10
932163.16
 20
7274601.751
 30
0.0
 11
931678.4
 21
7274617.002
 31
0.0
  0
LINE
  8
6
  6
CONTINUOUS
 62
     7
  5
3FE
 10
931678.4
 20
7274617.002
 30
0.0
 11
931673.447
 21
7274459.58
 31
0.0
  0
POLYLINE
  8
1
  6
HIDDEN
 62
   253
  5
400
 66
     1
 10
0.0
 20
0.0
 30
0.0
 70
     1
  0
VERTEX
  8
1
  6
HIDDEN
 62
   253
  5
401
 10
931619.027
 20
7273795.587
 30
0.0
  0
VERTEX
  8
1
  6
HIDDEN
 62
   253
  5
402
 10
936881.217
 20
7273635.491
 30
0.0
  0
VERTEX
  8
1
  6
HIDDEN
 62
   253
  5
403
 10
937044.183
 20
7278906.625
 30
0.0
  0
VERTEX
  8
1
  6
HIDDEN
 62
   253
  5
404
 10
931783.966
 20
7279062.916
 30
0.0
  0
SEQEND
  8
1
  6
HIDDEN
 62
   253
  5
405
  0
TEXT
  8
11
  6
CONTINUOUS
 62
     7
  5
406
 10
932544.933
 20
7274231.564
 30
0.0
 40
8.0
  1
50'
 50
88.1981
  7
ROMANS
210
0.0
220
0.0
230
1.0
  0
TEXT
  8
13
  6
CONTINUOUS
 62
    14
  5
407
 10
931876.327
 20
7274006.024
 30
0.0
 40
8.0
  1
V870 P167
 50
358.2354
  7
txt
 72
     1
 11
931909.758139
 21
7274004.994059
 31
0.0
210
0.0
220
0.0
230
1.0
  0
SOLID
  8
21
  6
DASHDOT
 62
     7
  5
408
 10
932197.644
 20
7274111.833
 30
0.0
 11
932322.585
 21
7274107.984
 31
0.0
 12
932197.028
 22
7274091.843
 32
0.0
 13
932321.969
 23
7274087.993
 33
0.0
  0
TEXT
  8
13
  6
CONTINUOUS
 62
    14
  5
409
 10
932222.419
 20
7274091.663
 30
0.0
 40
8.0
  1
V504 P89
 50
358.2354
  7
txt
 72
     1
 11
932253.616199
 21
7274090.701882
 31
0.0
210
0.0
220
0.0
230
1.0
  0
TEXT
  8
22
  6
CONTINUOUS
 62
     3
  5
40A
 10
933064.652
 20
7274575.647
 30
0.0
 40
6.0
  1
STREET USE LICENSE
 50
358.2354
  7
txt
 72
     4
 11
933115.670218
 21
7274577.076663
 31
0.0
210
0.0
220
0.0
230
1.0
  0
POLYLINE
  8
21
  6
DASHDOT
 62
     7
  5
40B
 66
     1
 10
0.0
 20
0.0
 30
0.0
 70
     1
  0
VERTEX
  8
21
  6
DASHDOT
 62
     7
  5
40C
 10
933216.366
 20
7274585.316
 30
0.0
  0
VERTEX
  8
21
  6
DASHDOT
 62
     7
  5
40D
 10
933066.437
 20
7274589.935
 30
0.0
  0
VERTEX
  8
21
  6
DASHDOT
 62
     7
  5
40E
 10
933066.283
 20
7274584.937
 30
0.0
  0
VERTEX
  8
21
  6
DASHDOT
 62
     7
  5
40F
 10
933221.209
 20
7274580.164
 30
0.0
  0
VERTEX
  8
21
  6
DASHDOT
 62
     7
  5
410
 10
933223.211
 20
7274645.133
 30
0.0
  0
VERTEX
  8
21
  6
DASHDOT
 62
     7
  5
411
 10
933218.213
 20
7274645.287
 30
0.0
  0
VERTEX
  8
21
  6
DASHDOT
 62
     7
  5
412
 10
933216.366
 20
7274585.316
 30
0.0
  0
SEQEND
  8
21
  6
DASHDOT
 62
     7
  5
413
  0
POLYLINE
  8
21
  6
DASHDOT
 62
     7
  5
414
 66
     1
 10
0.0
 20
0.0
 30
0.0
 70
     1
  0
VERTEX
  8
21
  6
DASHDOT
 62
     7
  5
415
 10
931650.235
 20
7274514.629
 30
0.0
  0
VERTEX
  8
21
  6
DASHDOT
 62
     7
  5
416
 10
931648.562
 20
7274460.346
 30
0.0
  0
VERTEX
  8
21
  6
DASHDOT
 62
     7
  5
417
 10
931653.412
 20
7274617.772
 30
0.0
  0
VERTEX
  8
21
  6
DASHDOT
 62
     7
  5
418
 10
931678.4
 20
7274617.002
 30
0.0
  0
VERTEX
  8
21
  6
DASHDOT
 62
     7
  5
419
 10
931673.55
 20
7274459.577
 30
0.0
  0
VERTEX
  8
21
  6
DASHDOT
 62
     7
  5
41A
 10
931648.562
 20
7274460.346
 30
0.0
  0
VERTEX
  8
21
  6
DASHDOT
 62
     7
  5
41B
 10
931650.235
 20
7274514.629
 30
0.0
  0
SEQEND
  8
21
  6
DASHDOT
 62
     7
  5
41C
  0
TEXT
  8
13
  6
CONTINUOUS
 62
    14
  5
41D
 10
931670.301
 20
7274492.802
 30
0.0
 40
8.0
  1
V910 P433
 50
88.2354
  7
txt
 72
     4
 11
931667.336748
 21
7274526.483251
 31
0.0
210
0.0
220
0.0
230
1.0
  0
SOLID
  8
21
  6
DASHDOT
 62
     7
  5
41E
 10
931706.554
 20
7275387.734
 30
0.0
 11
931701.627
 21
7275227.81
 31
0.0
 12
931681.566
 22
7275388.504
 32
0.0
 13
931676.639
 23
7275228.579
 33
0.0
  0
TEXT
  8
13
  6
CONTINUOUS
 62
    14
  5
41F
 10
931697.684
 20
7275264.784
 30
0.0
 40
8.0
  1
V895 P195
 50
88.2354
  7
txt
 72
     4
 11
931694.710018
 21
7275298.149401
 31
0.0
210
0.0
220
0.0
230
1.0
  0
POLYLINE
  8
21
  6
DASHDOT
 62
     7
  5
420
 66
     1
 10
0.0
 20
0.0
 30
0.0
  0
VERTEX
  8
21
  6
DASHDOT
 62
     7
  5
421
 10
936430.747
 20
7278156.551
 30
0.0
  0
VERTEX
  8
21
  6
DASHDOT
 62
     7
  5
422
 10
936105.928
 20
7278167.41
 30
0.0
  0
VERTEX
  8
21
  6
DASHDOT
 62
     7
  5
423
 10
936106.236
 20
7278177.405
 30
0.0
  0
VERTEX
  8
21
  6
DASHDOT
 62
     7
  5
424
 10
936431.082
 20
7278167.397
 30
0.0
  0
VERTEX
  8
21
  6
DASHDOT
 62
     7
  5
425
 10
936430.747
 20
7278156.551
 30
0.0
  0
SEQEND
  8
21
  6
DASHDOT
 62
     7
  5
426
  0
TEXT
  8
22
  6
CONTINUOUS
 62
     3
  5
427
 10
936213.195
 20
7278165.604
 30
0.0
 40
6.0
  1
10'UUE
 50
358.2354
  7
ROMANS
 72
     4
 11
936230.154377
 21
7278168.082942
 31
0.0
210
0.0
220
0.0
230
1.0
  0
TEXT
  8
13
  6
CONTINUOUS
 62
    14
  5
428
 10
936270.401
 20
7278163.556
 30
0.0
 40
8.0
  1
V2793 P232
 50
358.2354
  7
ROMANS
 72
     4
 11
936308.838994
 21
7278166.373707
 31
0.0
210
0.0
220
0.0
230
1.0
  0
SOLID
  8
21
  6
DASHDOT
 62
     7
  5
429
 10
932873.164
 20
7274078.904
 30
0.0
 11
932872.856
 21
7274068.908
 31
0.0
 12
932912.895
 22
7274077.68
 32
0.0
 13
932912.587
 23
7274067.684
 33
0.0
  0
TEXT
  8
13
  6
CONTINUOUS
 62
    14
  5
42A
 10
932863.204
 20
7274082.874
 30
0.0
 40
8.0
  1
V521 P449
 50
359.2354
  7
txt
 72
     4
 11
932895.663492
 21
7274086.441165
 31
0.0
210
0.0
220
0.0
230
1.0
  0
TEXT
  8
13
  6
CONTINUOUS
 62
    14
  5
42B
 10
932903.929
 20
7273895.973
 30
0.0
 40
8.0
  1
V1222 P515
 50
88.2354
  7
txt
 72
     4
 11
932901.046227
 21
7273932.298996
 31
0.0
210
0.0
220
0.0
230
1.0
  0
SOLID
  8
21
  6
DASHDOT
 62
     7
  5
42C
 10
931981.759
 20
7275196.1
 30
0.0
 11
932081.71
 21
7275192.956
 31
0.0
 12
931981.996
 22
7275203.599
 32
0.0
 13
932081.946
 23
7275200.452
 33
0.0
  0
SOLID
  8
21
  6
DASHDOT
 62
     7
  5
42D
 10
932081.709
 20
7275192.934
 30
0.0
 11
932181.66
 21
7275189.79
 31
0.0
 12
932081.946
 22
7275200.433
 32
0.0
 13
932181.896
 23
7275197.286
 33
0.0
  0
TEXT
  8
13
  6
CONTINUOUS
 62
    14
  5
42E
 10
931988.795
 20
7275125.412
 30
0.0
 40
8.0
  1
V460 P332
 50
88.198156
  7
txt
 72
     1
 11
931989.89522
 21
7275160.385699
 31
0.0
210
0.0
220
0.0
230
1.0
  0
TEXT
  8
13
  6
CONTINUOUS
 62
    14
  5
42F
 10
932089.62
 20
7275121.832
 30
0.0
 40
8.0
  1
V460 P320
 50
88.198167
  7
txt
 72
     1
 11
932090.719207
 21
7275156.773715
 31
0.0
210
0.0
220
0.0
230
1.0
  0
SOLID
  8
21
  6
DASHDOT
 62
     7
  5
430
 10
932303.599
 20
7275185.954
 30
0.0
 11
932375.564
 21
7275183.69
 31
0.0
 12
932303.819
 22
7275193.329
 32
0.0
 13
932375.787
 23
7275191.189
 33
0.0
  0
SOLID
  8
21
  6
DASHDOT
 62
     7
  5
431
 10
932375.564
 20
7275183.69
 30
0.0
 11
932425.542
 21
7275182.205
 31
0.0
 12
932375.787
 22
7275191.189
 32
0.0
 13
932425.765
 23
7275189.702
 33
0.0
  0
SOLID
  8
21
  6
DASHDOT
 62
     7
  5
432
 10
932475.514
 20
7275180.546
 30
0.0
 11
932575.465
 21
7275177.402
 31
0.0
 12
932475.751
 22
7275188.045
 32
0.0
 13
932575.701
 23
7275184.898
 33
0.0
  0
TEXT
  8
13
  6
CONTINUOUS
 62
    14
  5
433
 10
932311.414
 20
7275117.878
 30
0.0
 40
8.0
  1
V462 P192
 50
88.197556
  7
txt
 72
     1
 11
932312.466053
 21
7275151.309451
 31
0.0
210
0.0
220
0.0
230
1.0
  0
TEXT
  8
13
  6
CONTINUOUS
 62
    14
  5
434
 10
932383.589
 20
7275116.473
 30
0.0
 40
8.0
  1
V462 P195
 50
88.298067
  7
txt
 72
     1
 11
932376.585934
 21
7275150.143844
 31
0.0
210
0.0
220
0.0
230
1.0
 73
     3
  0
TEXT
  8
13
  6
CONTINUOUS
 62
    14
  5
435
 10
932482.794
 20
7275109.918
 30
0.0
 40
8.0
  1
V460 P327
 50
88.198278
  7
txt
 72
     1
 11
932483.89512
 21
7275144.922686
 31
0.0
210
0.0
220
0.0
230
1.0
  0
SOLID
  8
21
  6
DASHDOT
 62
     7
  5
436
 10
931660.409
 20
7274840.178
 30
0.0
 11
931970.256
 21
7274830.414
 31
0.0
 12
931660.173
 22
7274832.698
 32
0.0
 13
931970.02
 23
7274822.934
 33
0.0
  0
SOLID
  8
21
  6
DASHDOT
 62
     7
  5
437
 10
931659.938
 20
7274825.185
 30
0.0
 11
931819.866
 21
7274820.431
 31
0.0
 12
931660.16
 22
7274832.641
 32
0.0
 13
931820.088
 23
7274827.887
 33
0.0
  0
SOLID
  8
21
  6
DASHDOT
 62
     7
  5
438
 10
931819.865
 20
7274820.39
 30
0.0
 11
931869.833
 21
7274818.582
 31
0.0
 12
931820.088
 22
7274827.887
 32
0.0
 13
931870.104
 23
7274826.077
 33
0.0
  0
SOLID
  8
21
  6
DASHDOT
 62
     7
  5
439
 10
931869.833
 20
7274818.582
 30
0.0
 11
932169.685
 21
7274809.149
 31
0.0
 12
931870.07
 22
7274826.085
 32
0.0
 13
932169.921
 23
7274816.645
 33
0.0
  0
TEXT
  8
13
  6
CONTINUOUS
 62
    14
  5
43A
 10
931696.872
 20
7274842.009
 30
0.0
 40
8.0
  1
V460 P325
 50
88.19825
  7
txt
 72
     1
 11
931697.972162
 21
7274876.9827
 31
0.0
210
0.0
220
0.0
230
1.0
  0
TEXT
  8
13
  6
CONTINUOUS
 62
    14
  5
43B
 10
931692.52
 20
7274755.949
 30
0.0
 40
8.0
  1
V462 P198
 50
88.19825
  7
txt
 72
     1
 11
931693.571648
 21
7274789.380463
 31
0.0
210
0.0
220
0.0
230
1.0
  0
TEXT
  8
13
  6
CONTINUOUS
 62
    14
  5
43C
 10
931831.003
 20
7274751.242
 30
0.0
 40
8.0
  1
V460 P316
 50
88.197886
  7
txt
 72
     1
 11
931832.052848
 21
7274784.609488
 31
0.0
210
0.0
220
0.0
230
1.0
  0
TEXT
  8
13
  6
CONTINUOUS
 62
    14
  5
43D
 10
931879.802
 20
7274743.279
 30
0.0
 40
8.0
  1
V460 P331
 50
88.197886
  7
txt
 72
     1
 11
931880.857823
 21
7274776.836394
 31
0.0
210
0.0
220
0.0
230
1.0
  0
TEXT
  8
13
  6
CONTINUOUS
 62
    14
  5
43E
 10
932230.027
 20
7274824.388
 30
0.0
 40
8.0
  1
V460 P333
 50
88.198239
  7
txt
 72
     1
 11
932231.127169
 21
7274859.3617
 31
0.0
210
0.0
220
0.0
230
1.0
  0
TEXT
  8
13
  6
CONTINUOUS
 62
    14
  5
43F
 10
932301.665
 20
7274822.386
 30
0.0
 40
8.0
  1
V460 P330
 50
88.197875
  7
txt
 72
     1
 11
932302.764385
 21
7274857.327709
 31
0.0
210
0.0
220
0.0
230
1.0
  0
TEXT
  8
13
  6
CONTINUOUS
 62
    14
  5
440
 10
932473.783
 20
7274817.428
 30
0.0
 40
8.0
  1
V460 P312
 50
88.19825
  7
txt
 72
     1
 11
932474.83861
 21
7274850.985401
 31
0.0
210
0.0
220
0.0
230
1.0
  0
TEXT
  8
13
  6
CONTINUOUS
 62
    14
  5
441
 10
932225.731
 20
7274736.345
 30
0.0
 40
8.0
  1
V460 P329
 50
88.198239
  7
txt
 72
     1
 11
932226.825226
 21
7274771.129794
 31
0.0
210
0.0
220
0.0
230
1.0
  0
TEXT
  8
13
  6
CONTINUOUS
 62
    14
  5
442
 10
932471.048
 20
7274730.127
 30
0.0
 40
8.0
  1
V460 P318
 50
88.198625
  7
txt
 72
     1
 11
932472.10339
 21
7274763.684408
 31
0.0
210
0.0
220
0.0
230
1.0
  0
SOLID
  8
21
  6
DASHDOT
 62
     7
  5
443
 10
932220.132
 20
7274822.569
 30
0.0
 11
932292.096
 21
7274820.306
 31
0.0
 12
932219.896
 22
7274815.076
 32
0.0
 13
932291.86
 23
7274812.81
 33
0.0
  0
SOLID
  8
21
  6
DASHDOT
 62
     7
  5
444
 10
932292.096
 20
7274820.306
 30
0.0
 11
932364.06
 21
7274818.043
 31
0.0
 12
932291.86
 22
7274812.813
 32
0.0
 13
932363.824
 23
7274810.547
 33
0.0
  0
SOLID
  8
21
  6
DASHDOT
 62
     7
  5
445
 10
932219.66
 20
7274807.577
 30
0.0
 11
932363.589
 21
7274803.049
 31
0.0
 12
932219.896
 22
7274815.076
 32
0.0
 13
932363.824
 23
7274810.547
 33
0.0
  0
SOLID
  8
21
  6
DASHDOT
 62
     7
  5
446
 10
932563.725
 20
7274804.254
 30
0.0
 11
932463.774
 21
7274807.4
 31
0.0
 12
932563.96
 22
7274811.749
 32
0.0
 13
932464.01
 23
7274814.896
 33
0.0
  0
SOLID
  8
21
  6
DASHDOT
 62
     7
  5
447
 10
932563.49
 20
7274796.759
 30
0.0
 11
932463.539
 21
7274799.905
 31
0.0
 12
932563.725
 22
7274804.254
 32
0.0
 13
932463.775
 23
7274807.401
 33
0.0
  0
SOLID
  8
21
  6
DASHDOT
 62
     7
  5
448
 10
931758.405
 20
7274456.907
 30
0.0
 11
931858.356
 21
7274453.763
 31
0.0
 12
931758.17
 22
7274449.414
 32
0.0
 13
931858.12
 23
7274446.267
 33
0.0
  0
SOLID
  8
21
  6
DASHDOT
 62
     7
  5
449
 10
931858.121
 20
7274446.266
 30
0.0
 11
931958.071
 21
7274443.123
 31
0.0
 12
931857.885
 22
7274438.77
 32
0.0
 13
931957.835
 23
7274435.626
 33
0.0
  0
SOLID
  8
21
  6
DASHDOT
 62
     7
  5
44A
 10
931757.934
 20
7274441.914
 30
0.0
 11
931857.885
 21
7274438.77
 31
0.0
 12
931758.171
 22
7274449.413
 32
0.0
 13
931858.121
 23
7274446.266
 33
0.0
  0
SOLID
  8
21
  6
DASHDOT
 62
     7
  5
44B
 10
931647.89
 20
7274445.36
 30
0.0
 11
931757.934
 21
7274441.888
 31
0.0
 12
931648.127
 22
7274452.885
 32
0.0
 13
931758.171
 23
7274449.413
 33
0.0
  0
SOLID
  8
21
  6
DASHDOT
 62
     7
  5
44C
 10
931957.835
 20
7274435.626
 30
0.0
 11
932057.785
 21
7274432.48
 31
0.0
 12
931958.071
 22
7274443.123
 32
0.0
 13
932058.021
 23
7274439.976
 33
0.0
  0
TEXT
  8
13
  6
CONTINUOUS
 62
    14
  5
44D
 10
931767.272
 20
7274458.287
 30
0.0
 40
8.0
  1
V460 P321
 50
88.197886
  7
txt
 72
     1
 11
931768.327823
 21
7274491.844394
 31
0.0
210
0.0
220
0.0
230
1.0
  0
TEXT
  8
13
  6
CONTINUOUS
 62
    14
  5
44E
 10
931680.099
 20
7274376.748
 30
0.0
 40
8.0
  1
V460 P314
 50
88.198178
  7
txt
 72
     1
 11
931681.160563
 21
7274410.493307
 31
0.0
210
0.0
220
0.0
230
1.0
  0
TEXT
  8
13
  6
CONTINUOUS
 62
    14
  5
44F
 10
931765.207
 20
7274371.123
 30
0.0
 40
8.0
  1
V460 P315
 50
88.198167
  7
txt
 72
     1
 11
931766.262659
 21
7274404.680399
 31
0.0
210
0.0
220
0.0
230
1.0
  0
TEXT
  8
13
  6
CONTINUOUS
 62
    14
  5
450
 10
931865.332
 20
7274365.265
 30
0.0
 40
8.0
  1
V460 P322
 50
88.198178
  7
txt
 72
     1
 11
931866.432206
 21
7274400.238699
 31
0.0
210
0.0
220
0.0
230
1.0
  0
TEXT
  8
13
  6
CONTINUOUS
 62
    14
  5
451
 10
931965.811
 20
7274363.21
 30
0.0
 40
8.0
  1
V460 P323
 50
88.197803
  7
txt
 72
     1
 11
931966.911435
 21
7274398.183692
 31
0.0
210
0.0
220
0.0
230
1.0
  0
SOLID
  8
21
  6
DASHDOT
 62
     7
  5
452
 10
932352.112
 20
7274438.229
 30
0.0
 11
932402.087
 21
7274436.657
 31
0.0
 12
932351.876
 22
7274430.734
 32
0.0
 13
932401.851
 23
7274429.161
 33
0.0
  0
SOLID
  8
21
  6
DASHDOT
 62
     7
  5
453
 10
932402.088
 20
7274436.657
 30
0.0
 11
932452.063
 21
7274435.085
 31
0.0
 12
932401.852
 22
7274429.162
 32
0.0
 13
932451.827
 23
7274427.589
 33
0.0
  0
SOLID
  8
21
  6
DASHDOT
 62
     7
  5
454
 10
932452.063
 20
7274435.085
 30
0.0
 11
932552.012
 21
7274431.94
 31
0.0
 12
932451.826
 22
7274427.591
 32
0.0
 13
932551.776
 23
7274424.444
 33
0.0
  0
SOLID
  8
21
  6
DASHDOT
 62
     7
  5
455
 10
932279.676
 20
7274425.5
 30
0.0
 11
932551.542
 21
7274416.948
 31
0.0
 12
932279.912
 22
7274432.996
 32
0.0
 13
932551.776
 23
7274424.444
 33
0.0
  0
SOLID
  8
21
  6
DASHDOT
 62
     7
  5
456
 10
932207.712
 20
7274427.764
 30
0.0
 11
932279.676
 21
7274425.5
 31
0.0
 12
932207.948
 22
7274435.262
 32
0.0
 13
932279.912
 23
7274432.996
 33
0.0
  0
TEXT
  8
13
  6
CONTINUOUS
 62
    14
  5
457
 10
932215.522
 20
7274359.582
 30
0.0
 40
8.0
  1
V460 P317
 50
88.198156
  7
txt
 72
     1
 11
932216.578608
 21
7274393.169384
 31
0.0
210
0.0
220
0.0
230
1.0
  0
TEXT
  8
13
  6
CONTINUOUS
 62
    14
  5
458
 10
932287.138
 20
7274354.583
 30
0.0
 40
8.0
  1
V460 P324
 50
88.198189
  7
txt
 72
     1
 11
932288.244142
 21
7274389.745606
 31
0.0
210
0.0
220
0.0
230
1.0
  0
TEXT
  8
13
  6
CONTINUOUS
 62
    14
  5
459
 10
932361.976
 20
7274439.173
 30
0.0
 40
8.0
  1
V460 P328
 50
88.19825
  7
txt
 72
     1
 11
932363.076162
 21
7274474.1467
 31
0.0
210
0.0
220
0.0
230
1.0
  0
TEXT
  8
13
  6
CONTINUOUS
 62
    14
  5
45A
 10
932408.6
 20
7274437.166
 30
0.0
 40
8.0
  1
V460 P326
 50
88.198189
  7
txt
 72
     1
 11
932409.694257
 21
7274471.950793
 31
0.0
210
0.0
220
0.0
230
1.0
  0
TEXT
  8
13
  6
CONTINUOUS
 62
    14
  5
45B
 10
932461.384
 20
7274436.337
 30
0.0
 40
8.0
  1
V460 P313
 50
88.197897
  7
txt
 72
     1
 11
932462.439816
 21
7274469.894395
 31
0.0
210
0.0
220
0.0
230
1.0
  0
SOLID
  8
21
  6
DASHDOT
 62
     7
  5
45C
 10
931728.512
 20
7276082.388
 30
0.0
 11
931733.51
 21
7276082.231
 31
0.0
 12
931728.355
 22
7276077.39
 32
0.0
 13
931733.353
 23
7276077.233
 33
0.0
  0
TEXT
  8
22
  6
CONTINUOUS
 62
     3
  5
45D
 10
931729.097
 20
7276069.315
 30
0.0
 40
6.0
  1
5'x5' TPE
 50
0.2354
  7
txt
 72
     4
 11
931749.186505
 21
7276072.397564
 31
0.0
210
0.0
220
0.0
230
1.0
  0
TEXT
  8
22
  6
CONTINUOUS
 62
     3
  5
45E
 10
932183.899
 20
7275989.018
 30
0.0
 40
6.0
  1
TPE
 50
358.2354
  7
txt
 72
     4
 11
932191.853649
 21
7275991.774358
 31
0.0
210
0.0
220
0.0
230
1.0
  0
SOLID
  8
21
  6
DASHDOT
 62
     7
  5
45F
 10
932176.12
 20
7275992.286
 30
0.0
 11
932182.117
 21
7275992.097
 31
0.0
 12
932175.994
 22
7275988.288
 32
0.0
 13
932181.991
 23
7275988.099
 33
0.0
  0
TEXT
  8
22
  6
CONTINUOUS
 62
     3
  5
460
 10
932133.087
 20
7275972.819
 30
0.0
 40
6.0
  1
TPE
 50
358.2354
  7
txt
 72
     4
 11
932141.041649
 21
7275975.575358
 31
0.0
210
0.0
220
0.0
230
1.0
  0
SOLID
  8
21
  6
DASHDOT
 62
     7
  5
461
 10
932149.622
 20
7275979.278
 30
0.0
 11
932155.619
 21
7275979.089
 31
0.0
 12
932149.496
 22
7275975.28
 32
0.0
 13
932155.493
 23
7275975.091
 33
0.0
  0
SOLID
  8
21
  6
DASHDOT
 62
     7
  5
462
 10
931934.116
 20
7275620.7
 30
0.0
 11
931939.114
 21
7275620.543
 31
0.0
 12
931933.959
 22
7275615.702
 32
0.0
 13
931938.957
 23
7275615.545
 33
0.0
  0
SOLID
  8
21
  6
DASHDOT
 62
     7
  5
463
 10
931933.377
 20
7275595.828
 30
0.0
 11
931938.375
 21
7275595.671
 31
0.0
 12
931933.22
 22
7275590.83
 32
0.0
 13
931938.218
 23
7275590.673
 33
0.0
  0
TEXT
  8
22
  6
CONTINUOUS
 62
     3
  5
464
 10
931939.483
 20
7275616.813
 30
0.0
 40
6.0
  1
5'x5' TPE
 50
0.2354
  7
txt
 72
     4
 11
931959.572505
 21
7275619.895564
 31
0.0
210
0.0
220
0.0
230
1.0
  0
TEXT
  8
22
  6
CONTINUOUS
 62
     3
  5
465
 10
931939.483
 20
7275588.61
 30
0.0
 40
6.0
  1
5'x5' TPE
 50
0.2354
  7
txt
 72
     4
 11
931959.572505
 21
7275591.692564
 31
0.0
210
0.0
220
0.0
230
1.0
  0
TEXT
  8
22
  6
CONTINUOUS
 62
     3
  5
466
 10
931926.582
 20
7275221.457
 30
0.0
 40
6.0
  1
TPE
 50
358.2354
  7
txt
 72
     4
 11
931934.536649
 21
7275224.213358
 31
0.0
210
0.0
220
0.0
230
1.0
  0
TEXT
  8
22
  6
CONTINUOUS
 62
     3
  5
467
 10
932300.246
 20
7275210.39
 30
0.0
 40
6.0
  1
TPE
 50
358.2354
  7
txt
 72
     4
 11
932308.200649
 21
7275213.146358
 31
0.0
210
0.0
220
0.0
230
1.0
  0
SOLID
  8
21
  6
DASHDOT
 62
     7
  5
468
 10
931945.633
 20
7275224.135
 30
0.0
 11
931951.63
 21
7275223.946
 31
0.0
 12
931945.507
 22
7275220.137
 32
0.0
 13
931951.504
 23
7275219.948
 33
0.0
  0
SOLID
  8
21
  6
DASHDOT
 62
     7
  5
469
 10
932318.479
 20
7275212.407
 30
0.0
 11
932324.476
 21
7275212.218
 31
0.0
 12
932318.353
 22
7275208.409
 32
0.0
 13
932324.35
 23
7275208.22
 33
0.0
  0
SOLID
  8
21
  6
DASHDOT
 62
     7
  5
46A
 10
932164.101
 20
7275603.957
 30
0.0
 11
932169.099
 21
7275603.8
 31
0.0
 12
932163.944
 22
7275598.959
 32
0.0
 13
932168.942
 23
7275598.802
 33
0.0
  0
TEXT
  8
22
  6
CONTINUOUS
 62
     3
  5
46B
 10
932171.462
 20
7275600.391
 30
0.0
 40
6.0
  1
5'x5' TPE
 50
0.2354
  7
txt
 72
     4
 11
932191.551505
 21
7275603.473564
 31
0.0
210
0.0
220
0.0
230
1.0
  0
TEXT
  8
22
  6
CONTINUOUS
 62
     3
  5
46C
 10
932560.754
 20
7275493.287
 30
0.0
 40
6.0
  1
TPE
 50
88.2354
  7
txt
 72
     4
 11
932557.997642
 21
7275501.241649
 31
0.0
210
0.0
220
0.0
230
1.0
  0
SOLID
  8
21
  6
DASHDOT
 62
     7
  5
46D
 10
932558.428
 20
7275487.378
 30
0.0
 11
932558.617
 21
7275493.375
 31
0.0
 12
932562.426
 22
7275487.252
 32
0.0
 13
932562.615
 23
7275493.249
 33
0.0
  0
SOLID
  8
21
  6
DASHDOT
 62
     7
  5
46E
 10
932558.239
 20
7275481.381
 30
0.0
 11
932558.428
 21
7275487.378
 31
0.0
 12
932562.237
 22
7275481.255
 32
0.0
 13
932562.426
 23
7275487.252
 33
0.0
  0
TEXT
  8
22
  6
CONTINUOUS
 62
     3
  5
46F
 10
932559.059
 20
7275464.012
 30
0.0
 40
6.0
  1
TPE
 50
88.2354
  7
txt
 72
     4
 11
932556.302642
 21
7275471.966649
 31
0.0
210
0.0
220
0.0
230
1.0
  0
TEXT
  8
22
  6
CONTINUOUS
 62
     3
  5
470
 10
932581.364
 20
7276167.004
 30
0.0
 40
6.0
  1
TPE
 50
88.2354
  7
txt
 72
     4
 11
932578.607642
 21
7276174.958649
 31
0.0
210
0.0
220
0.0
230
1.0
  0
SOLID
  8
21
  6
DASHDOT
 62
     7
  5
471
 10
932579.384
 20
7276161.909
 30
0.0
 11
932579.573
 21
7276167.906
 31
0.0
 12
932583.382
 22
7276161.783
 32
0.0
 13
932583.571
 23
7276167.78
 33
0.0
  0
SOLID
  8
21
  6
DASHDOT
 62
     7
  5
472
 10
932579.195
 20
7276155.912
 30
0.0
 11
932579.384
 21
7276161.909
 31
0.0
 12
932583.193
 22
7276155.786
 32
0.0
 13
932583.382
 23
7276161.783
 33
0.0
  0
TEXT
  8
22
  6
CONTINUOUS
 62
     3
  5
473
 10
932581.364
 20
7276135.855
 30
0.0
 40
6.0
  1
TPE
 50
88.2354
  7
txt
 72
     4
 11
932578.607642
 21
7276143.809649
 31
0.0
210
0.0
220
0.0
230
1.0
  0
SOLID
  8
21
  6
DASHDOT
 62
     7
  5
474
 10
932603.061
 20
7276149.629
 30
0.0
 11
932603.25
 21
7276155.626
 31
0.0
 12
932607.059
 22
7276149.503
 32
0.0
 13
932607.248
 23
7276155.5
 33
0.0
  0
TEXT
  8
22
  6
CONTINUOUS
 62
     3
  5
475
 10
932609.202
 20
7276132.642
 30
0.0
 40
6.0
  1
TPE
 50
88.2354
  7
txt
 72
     4
 11
932606.445642
 21
7276140.596649
 31
0.0
210
0.0
220
0.0
230
1.0
  0
SOLID
  8
21
  6
DASHDOT
 62
     7
  5
476
 10
932589.84
 20
7275729.336
 30
0.0
 11
932590.029
 21
7275735.333
 31
0.0
 12
932593.838
 22
7275729.21
 32
0.0
 13
932594.027
 23
7275735.207
 33
0.0
  0
TEXT
  8
22
  6
CONTINUOUS
 62
     3
  5
477
 10
932596.176
 20
7275712.314
 30
0.0
 40
6.0
  1
TPE
 50
88.2354
  7
txt
 72
     4
 11
932593.419642
 21
7275720.268649
 31
0.0
210
0.0
220
0.0
230
1.0
  0
SOLID
  8
21
  6
DASHDOT
 62
     7
  5
478
 10
933080.619
 20
7276134.615
 30
0.0
 11
933080.808
 21
7276140.612
 31
0.0
 12
933084.617
 22
7276134.489
 32
0.0
 13
933084.806
 23
7276140.486
 33
0.0
  0
TEXT
  8
22
  6
CONTINUOUS
 62
     3
  5
479
 10
933070.313
 20
7275725.078
 30
0.0
 40
6.0
  1
TPE
 50
88.2354
  7
txt
 72
     4
 11
933067.556642
 21
7275733.032649
 31
0.0
210
0.0
220
0.0
230
1.0
  0
TEXT
  8
22
  6
CONTINUOUS
 62
     3
  5
47A
 10
933069.153
 20
7275696.785
 30
0.0
 40
6.0
  1
TPE
 50
88.2354
  7
txt
 72
     4
 11
933066.396642
 21
7275704.739649
 31
0.0
210
0.0
220
0.0
230
1.0
  0
SOLID
  8
21
  6
DASHDOT
 62
     7
  5
47B
 10
933067.31
 20
7275714.348
 30
0.0
 11
933067.499
 21
7275720.345
 31
0.0
 12
933071.308
 22
7275714.222
 32
0.0
 13
933071.497
 23
7275720.219
 33
0.0
  0
SOLID
  8
21
  6
DASHDOT
 62
     7
  5
47C
 10
933067.499
 20
7275720.345
 30
0.0
 11
933067.688
 21
7275726.342
 31
0.0
 12
933071.497
 22
7275720.219
 32
0.0
 13
933071.686
 23
7275726.216
 33
0.0
  0
TEXT
  8
22
  6
CONTINUOUS
 62
     3
  5
47D
 10
933082.671
 20
7276116.098
 30
0.0
 40
6.0
  1
TPE
 50
88.2354
  7
txt
 72
     4
 11
933079.914642
 21
7276124.052649
 31
0.0
210
0.0
220
0.0
230
1.0
  0
SOLID
  8
21
  6
DASHDOT
 62
     7
  5
47E
 10
933080.808
 20
7276140.612
 30
0.0
 11
933080.997
 21
7276146.609
 31
0.0
 12
933084.806
 22
7276140.486
 32
0.0
 13
933084.995
 23
7276146.483
 33
0.0
  0
TEXT
  8
22
  6
CONTINUOUS
 62
     3
  5
47F
 10
933082.671
 20
7276146.445
 30
0.0
 40
6.0
  1
TPE
 50
88.2354
  7
txt
 72
     4
 11
933079.914642
 21
7276154.399649
 31
0.0
210
0.0
220
0.0
230
1.0
  0
POLYLINE
  8
6
  6
CONTINUOUS
 62
     7
  5
480
 66
     1
 10
0.0
 20
0.0
 30
0.0
  0
VERTEX
  8
6
  6
CONTINUOUS
 62
     7
  5
481
 10
934214.902
 20
7274613.956
 30
0.0
  0
VERTEX
  8
6
  6
CONTINUOUS
 62
     7
  5
482
 10
934290.503
 20
7274665.286
 30
0.0
  0
VERTEX
  8
6
  6
CONTINUOUS
 62
     7
  5
483
 10
934295.533
 20
7275227.051
 30
0.0
  0
SEQEND
  8
6
  6
CONTINUOUS
 62
     7
  5
484
  0
POLYLINE
  8
21
  6
DASHDOT
 62
     7
  5
485
 66
     1
 10
0.0
 20
0.0
 30
0.0
  0
VERTEX
  8
21
  6
DASHDOT
 62
     7
  5
486
 10
931693.319
 20
7276394.798
 30
0.0
  0
VERTEX
  8
21
  6
DASHDOT
 62
     7
  5
487
 10
931728.296
 20
7276393.547
 30
0.0
  0
VERTEX
  8
21
  6
DASHDOT
 62
     7
  5
488
 10
931805.944
 20
7278565.169
 30
0.0
  0
VERTEX
  8
21
  6
DASHDOT
 62
     7
  5
489
 10
931825.083
 20
7278764.613
 30
0.0
  0
VERTEX
  8
21
  6
DASHDOT
 62
     7
  5
48A
 10
931832.516
 20
7278972.48
 30
0.0
  0
VERTEX
  8
21
  6
DASHDOT
 62
     7
  5
48B
 10
931832.515511
 20
7278972.480476
 30
0.0
 42
-0.414214
  0
VERTEX
  8
21
  6
DASHDOT
 62
     7
  5
48C
 10
931863.568338
 20
7279001.389331
 30
0.0
  0
VERTEX
  8
21
  6
DASHDOT
 62
     7
  5
48D
 10
931863.568
 20
7279001.389
 30
0.0
  0
VERTEX
  8
21
  6
DASHDOT
 62
     7
  5
48E
 10
931786.618
 20
7279004.14
 30
0.0
  0
VERTEX
  8
21
  6
DASHDOT
 62
     7
  5
48F
 10
931693.319
 20
7276394.798
 30
0.0
  0
SEQEND
  8
21
  6
DASHDOT
 62
     7
  5
490
  0
TEXT
  8
13
  6
CONTINUOUS
 62
    14
  5
491
 10
931797.086
 20
7278037.595
 30
0.0
 40
8.0
  1
V1718 P46
 50
87.952219
  7
txt
 72
     1
 11
931790.243531
 21
7278070.111267
 31
0.0
210
0.0
220
0.0
230
1.0
 73
     3
  0
LINE
  8
6
  6
CONTINUOUS
 62
     7
  5
492
 10
931728.296
 20
7276393.547
 30
0.0
 11
931805.944
 21
7278565.169
 31
0.0
  0
LINE
  8
6
  6
CONTINUOUS
 62
     7
  5
493
 10
931805.944
 20
7278565.169
 30
0.0
 11
931825.083
 21
7278764.613
 31
0.0
  0
LINE
  8
6
  6
CONTINUOUS
 62
     7
  5
494
 10
931825.083
 20
7278764.613
 30
0.0
 11
931832.516
 21
7278972.48
 31
0.0
  0
ARC
  8
6
  6
CONTINUOUS
 62
     7
  5
495
 10
931862.496845
 20
7278971.408129
 30
0.0
 40
30.0
 50
87.953811
 51
177.952442
210
0.0
220
0.0
230
1.0
  0
SOLID
  8
21
  6
DASHDOT
 62
     7
  5
496
 10
932231.635
 20
7275188.219
 30
0.0
 11
932303.6
 21
7275185.955
 31
0.0
 12
932231.855
 22
7275195.594
 32
0.0
 13
932303.823
 23
7275193.454
 33
0.0
  0
TEXT
  8
13
  6
CONTINUOUS
 62
    14
  5
497
 10
932240.115
 20
7275120.636
 30
0.0
 40
8.0
  1
V492 P516
 50
88.198289
  7
txt
 72
     1
 11
932233.170581
 21
7275154.318989
 31
0.0
210
0.0
220
0.0
230
1.0
 73
     3
  0
SOLID
  8
21
  6
DASHDOT
 62
     7
  5
498
 10
932425.55
 20
7275182.033
 30
0.0
 11
932475.528
 21
7275180.548
 31
0.0
 12
932425.773
 22
7275189.532
 32
0.0
 13
932475.751
 23
7275188.045
 33
0.0
  0
TEXT
  8
13
  6
CONTINUOUS
 62
    14
  5
499
 10
932431.917
 20
7275113.043
 30
0.0
 40
8.0
  1
V466 P364
 50
88.198278
  7
txt
 72
     1
 11
932425.011165
 21
7275147.952384
 31
0.0
210
0.0
220
0.0
230
1.0
 73
     3
  0
SOLID
  8
21
  6
DASHDOT
 62
     7
  5
49A
 10
931970.256
 20
7274830.43
 30
0.0
 11
932170.157
 21
7274824.142
 31
0.0
 12
931970.02
 22
7274822.934
 32
0.0
 13
932169.921
 23
7274816.645
 33
0.0
  0
TEXT
  8
13
  6
CONTINUOUS
 62
    14
  5
49B
 10
931979.43
 20
7274832.332
 30
0.0
 40
8.0
  1
V465 P270
 50
88.197875
  7
txt
 72
     1
 11
931972.536329
 21
7274867.620245
 31
0.0
210
0.0
220
0.0
230
1.0
 73
     3
  0
SOLID
  8
21
  6
DASHDOT
 62
     7
  5
49C
 10
932463.54
 20
7274799.903
 30
0.0
 11
932363.589
 21
7274803.049
 31
0.0
 12
932463.775
 22
7274807.398
 32
0.0
 13
932363.825
 23
7274810.545
 33
0.0
  0
TEXT
  8
13
  6
CONTINUOUS
 62
    14
  5
49D
 10
932371.006
 20
7274735.074
 30
0.0
 40
8.0
  1
V460 P319
 50
88.197886
  7
txt
 72
     1
 11
932364.059805
 21
7274768.693069
 31
0.0
210
0.0
220
0.0
230
1.0
 73
     3
  0
SOLID
  8
21
  6
DASHDOT
 62
     7
  5
49E
 10
931648.326
 20
7274452.885
 30
0.0
 11
931758.17
 21
7274449.414
 31
0.0
 12
931648.562
 22
7274460.346
 32
0.0
 13
931758.406
 23
7274456.875
 33
0.0
  0
TEXT
  8
13
  6
CONTINUOUS
 62
    14
  5
49F
 10
931683.476
 20
7274460.589
 30
0.0
 40
8.0
  1
V492 P622
 50
88.235372
  7
txt
 72
     1
 11
931676.553416
 21
7274495.683815
 31
0.0
210
0.0
220
0.0
230
1.0
 73
     3
  0
SOLID
  8
21
  6
DASHDOT
 62
     7
  5
4A0
 10
931858.356
 20
7274453.763
 30
0.0
 11
931933.319
 21
7274451.404
 31
0.0
 12
931858.12
 22
7274446.267
 32
0.0
 13
931933.083
 23
7274443.908
 33
0.0
  0
SOLID
  8
21
  6
DASHDOT
 62
     7
  5
4A1
 10
931933.083
 20
7274443.908
 30
0.0
 11
931983.059
 21
7274442.335
 31
0.0
 12
931933.319
 22
7274451.404
 32
0.0
 13
931983.295
 23
7274449.831
 33
0.0
  0
SOLID
  8
21
  6
DASHDOT
 62
     7
  5
4A2
 10
931983.295
 20
7274449.831
 30
0.0
 11
932058.258
 21
7274447.472
 31
0.0
 12
931983.059
 22
7274442.335
 32
0.0
 13
932058.022
 23
7274439.976
 33
0.0
  0
TEXT
  8
13
  6
CONTINUOUS
 62
    14
  5
4A3
 10
931867.209
 20
7274453.716
 30
0.0
 40
8.0
  1
V466 P13
 50
88.197886
  7
txt
 72
     1
 11
931860.133052
 21
7274483.21111
 31
0.0
210
0.0
220
0.0
230
1.0
 73
     3
  0
TEXT
  8
13
  6
CONTINUOUS
 62
    14
  5
4A4
 10
931935.496
 20
7274452.745
 30
0.0
 40
8.0
  1
V466 P363
 50
88.198261
  7
txt
 72
     1
 11
931928.584233
 21
7274487.465479
 31
0.0
210
0.0
220
0.0
230
1.0
 73
     3
  0
TEXT
  8
13
  6
CONTINUOUS
 62
    14
  5
4A5
 10
931987.273
 20
7274451.597
 30
0.0
 40
8.0
  1
V465 P539
 50
88.198261
  7
txt
 72
     1
 11
931980.37318
 21
7274486.697291
 31
0.0
210
0.0
220
0.0
230
1.0
 73
     3
  0
SOLID
  8
21
  6
DASHDOT
 62
     7
  5
4A6
 10
932058.021
 20
7274439.98
 30
0.0
 11
932157.971
 21
7274436.834
 31
0.0
 12
932058.257
 22
7274447.477
 32
0.0
 13
932158.207
 23
7274444.33
 33
0.0
  0
SOLID
  8
21
  6
DASHDOT
 62
     7
  5
4A7
 10
932057.786
 20
7274432.483
 30
0.0
 11
932157.736
 21
7274429.337
 31
0.0
 12
932058.022
 22
7274439.98
 32
0.0
 13
932157.972
 23
7274436.833
 33
0.0
  0
TEXT
  8
13
  6
CONTINUOUS
 62
    14
  5
4A8
 10
932066.851
 20
7274447.781
 30
0.0
 40
8.0
  1
V491 P611
 50
88.19825
  7
txt
 72
     1
 11
932059.772884
 21
7274477.213096
 31
0.0
210
0.0
220
0.0
230
1.0
 73
     3
  0
TEXT
  8
13
  6
CONTINUOUS
 62
    14
  5
4A9
 10
932064.979
 20
7274369.917
 30
0.0
 40
8.0
  1
V491 P610
 50
88.198156
  7
txt
 72
     1
 11
932057.944512
 21
7274400.734423
 31
0.0
210
0.0
220
0.0
230
1.0
 73
     3
  0
SOLID
  8
21
  6
DASHDOT
 62
     7
  5
4AA
 10
932207.947
 20
7274435.259
 30
0.0
 11
932279.911
 21
7274432.995
 31
0.0
 12
932208.183
 22
7274442.757
 32
0.0
 13
932280.147
 23
7274440.491
 33
0.0
  0
SOLID
  8
21
  6
DASHDOT
 62
     7
  5
4AB
 10
932279.912
 20
7274432.997
 30
0.0
 11
932351.876
 21
7274430.733
 31
0.0
 12
932280.148
 22
7274440.495
 32
0.0
 13
932352.112
 23
7274438.229
 33
0.0
  0
TEXT
  8
13
  6
CONTINUOUS
 62
    14
  5
4AC
 10
932217.823
 20
7274443.162
 30
0.0
 40
8.0
  1
V492 P219
 50
88.197886
  7
txt
 72
     1
 11
932210.878817
 21
7274476.845038
 31
0.0
210
0.0
220
0.0
230
1.0
 73
     3
  0
TEXT
  8
13
  6
CONTINUOUS
 62
    14
  5
4AD
 10
932289.736
 20
7274441.807
 30
0.0
 40
8.0
  1
V509 P489
 50
88.19825
  7
txt
 72
     1
 11
932282.829207
 21
7274476.685402
 31
0.0
210
0.0
220
0.0
230
1.0
 73
     3
  0
SOLID
  8
21
  6
DASHDOT
 62
     7
  5
4AE
 10
932601.396
 20
7274097.603
 30
0.0
 11
933215.618
 21
7274077.72
 31
0.0
 12
932601.059
 22
7274086.908
 32
0.0
 13
933206.754
 23
7274068.529
 33
0.0
  0
TEXT
  8
13
  6
CONTINUOUS
 62
    14
  5
4AF
 10
932784.923
 20
7274093.83
 30
0.0
 40
8.0
  1
V505 P568
 50
358.198033
  7
txt
 72
     1
 11
932819.739774
 21
7274092.734643
 31
0.0
210
0.0
220
0.0
230
1.0
  0
SOLID
  8
21
  6
DASHDOT
 62
     7
  5
4B0
 10
932601.059
 20
7274086.908
 30
0.0
 11
932748.403
 21
7274082.831
 31
0.0
 12
932600.745
 22
7274076.913
 32
0.0
 13
932748.089
 23
7274072.836
 33
0.0
  0
TEXT
  8
13
  6
CONTINUOUS
 62
    14
  5
4B1
 10
932642.803
 20
7274065.746
 30
0.0
 40
8.0
  1
V498 P375
 50
358.415033
  7
txt
 72
     1
 11
932678.096851
 21
7274072.772483
 31
0.0
210
0.0
220
0.0
230
1.0
 73
     3
  0
SOLID
  8
21
  6
DASHDOT
 62
     7
  5
4B2
 10
932748.403
 20
7274082.831
 30
0.0
 11
932873.164
 21
7274078.904
 31
0.0
 12
932748.089
 22
7274072.836
 32
0.0
 13
932872.856
 23
7274068.908
 33
0.0
  0
TEXT
  8
13
  6
CONTINUOUS
 62
    14
  5
4B3
 10
932772.479
 20
7274062.063
 30
0.0
 40
8.0
  1
V498 P286
 50
358.196769
  7
txt
 72
     1
 11
932807.579471
 21
7274068.961906
 31
0.0
210
0.0
220
0.0
230
1.0
 73
     3
  0
SOLID
  8
21
  6
DASHDOT
 62
     7
  5
4B4
 10
932912.894
 20
7274077.656
 30
0.0
 11
932912.757
 21
7274067.655
 31
0.0
 12
933206.754
 22
7274068.529
 32
0.0
 13
933199.409
 23
7274058.913
 33
0.0
  0
TEXT
  8
13
  6
CONTINUOUS
 62
    14
  5
4B5
 10
933045.534
 20
7274053.473
 30
0.0
 40
8.0
  1
V503 P92
 50
358.198069
  7
txt
 72
     1
 11
933076.604308
 21
7274060.499486
 31
0.0
210
0.0
220
0.0
230
1.0
 73
     3
  0
POLYLINE
  8
21
  6
DASHDOT
 62
     7
  5
4B6
 66
     1
 10
0.0
 20
0.0
 30
0.0
 70
     1
  0
VERTEX
  8
21
  6
DASHDOT
 62
     7
  5
4B7
 10
932141.488
 20
7274015.357
 30
0.0
  0
VERTEX
  8
21
  6
DASHDOT
 62
     7
  5
4B8
 10
931662.365
 20
7274030.118
 30
0.0
  0
VERTEX
  8
21
  6
DASHDOT
 62
     7
  5
4B9
 10
931661.749
 20
7274010.128
 30
0.0
  0
VERTEX
  8
21
  6
DASHDOT
 62
     7
  5
4BA
 10
932140.872
 20
7273995.367
 30
0.0
  0
VERTEX
  8
21
  6
DASHDOT
 62
     7
  5
4BB
 10
932141.488
 20
7274015.357
 30
0.0
  0
SEQEND
  8
21
  6
DASHDOT
 62
     7
  5
4BC
  0
SOLID
  8
21
  6
DASHDOT
 62
     7
  5
4BD
 10
931669.52
 20
7274242.539
 30
0.0
 11
931657.304
 21
7273879.863
 31
0.0
 12
931644.532
 22
7274243.325
 32
0.0
 13
931632.318
 23
7273880.704
 33
0.0
  0
TEXT
  8
19
  6
CONTINUOUS
 62
     1
  5
4BE
 10
931651.75
 20
7273919.301
 30
0.0
 40
24.0
  1
QUAKER AVE
 50
88.1981
  7
ROMANC
 72
     4
 11
931644.001364
 21
7274054.627564
 31
0.0
210
0.0
220
0.0
230
1.0
  0
POLYLINE
  8
21
  6
DASHDOT
 62
     7
  5
4BF
 66
     1
 10
0.0
 20
0.0
 30
0.0
 70
     1
  0
VERTEX
  8
21
  6
DASHDOT
 62
     7
  5
4C0
 10
931644.866
 20
7274347.214
 30
0.0
  0
VERTEX
  8
21
  6
DASHDOT
 62
     7
  5
4C1
 10
931643.193
 20
7274292.931
 30
0.0
  0
VERTEX
  8
21
  6
DASHDOT
 62
     7
  5
4C2
 10
931647.89
 20
7274445.36
 30
0.0
  0
VERTEX
  8
21
  6
DASHDOT
 62
     7
  5
4C3
 10
931672.976
 20
7274444.587
 30
0.0
  0
VERTEX
  8
21
  6
DASHDOT
 62
     7
  5
4C4
 10
931668.279
 20
7274292.158
 30
0.0
  0
VERTEX
  8
21
  6
DASHDOT
 62
     7
  5
4C5
 10
931643.193
 20
7274292.931
 30
0.0
  0
VERTEX
  8
21
  6
DASHDOT
 62
     7
  5
4C6
 10
931644.866
 20
7274347.214
 30
0.0
  0
SEQEND
  8
21
  6
DASHDOT
 62
     7
  5
4C7
  0
SOLID
  8
21
  6
DASHDOT
 62
     7
  5
4C8
 10
931665.361
 20
7274997.6
 30
0.0
 11
931690.349
 21
7274996.814
 31
0.0
 12
931660.409
 22
7274840.178
 32
0.0
 13
931685.397
 23
7274839.391
 33
0.0
  0
SOLID
  8
21
  6
DASHDOT
 62
     7
  5
4C9
 10
931659.938
 20
7274825.185
 30
0.0
 11
931684.925
 21
7274824.399
 31
0.0
 12
931654.986
 22
7274667.763
 32
0.0
 13
931679.973
 23
7274666.977
 33
0.0
  0
SOLID
  8
21
  6
DASHDOT
 62
     7
  5
4CA
 10
931671.912
 20
7275205.821
 30
0.0
 11
931696.9
 21
7275205.041
 31
0.0
 12
931666.933
 22
7275047.55
 32
0.0
 13
931691.921
 23
7275046.789
 33
0.0
  0
SOLID
  8
21
  6
DASHDOT
 62
     7
  5
4CB
 10
931672.385
 20
7275220.851
 30
0.0
 11
932575.937
 21
7275192.401
 31
0.0
 12
931672.148
 22
7275213.336
 32
0.0
 13
932575.7
 23
7275184.887
 33
0.0
  0
SOLID
  8
21
  6
DASHDOT
 62
     7
  5
4CC
 10
931672.148
 20
7275213.336
 30
0.0
 11
931671.912
 21
7275205.821
 31
0.0
 12
931981.996
 22
7275203.599
 32
0.0
 13
931981.759
 23
7275196.1
 33
0.0
  0
TEXT
  8
13
  6
CONTINUOUS
 62
    14
  5
4CD
 10
931701.646
 20
7275194.102
 30
0.0
 40
8.0
  1
V466 P14
 50
358.203017
  7
txt
 72
     1
 11
931731.329383
 21
7275201.174663
 31
0.0
210
0.0
220
0.0
230
1.0
 73
     3
  0
ARC
  8
6
  6
CONTINUOUS
 62
     7
  5
4CE
 10
932439.234813
 20
7275468.805558
 30
0.0
 40
1621.955302
 50
275.466203
 51
297.711497
210
0.0
220
0.0
230
1.0
  0
POLYLINE
  8
6
  6
CONTINUOUS
 62
     7
  5
4CF
 66
     1
 10
0.0
 20
0.0
 30
0.0
  0
VERTEX
  8
6
  6
CONTINUOUS
 62
     7
  5
4D0
 10
933193.476
 20
7274032.888
 30
0.0
  0
VERTEX
  8
6
  6
CONTINUOUS
 62
     7
  5
4D1
 10
933198.811
 20
7274041.392
 30
0.0
  0
VERTEX
  8
6
  6
CONTINUOUS
 62
     7
  5
4D2
 10
933199.409
 20
7274058.913
 30
0.0
  0
SEQEND
  8
6
  6
CONTINUOUS
 62
     7
  5
4D3
  0
LINE
  8
6
  6
CONTINUOUS
 62
     7
  5
4D4
 10
933199.409
 20
7274058.913
 30
0.0
 11
933262.262
 21
7274141.134
 31
0.0
  0
POLYLINE
  8
6
  6
CONTINUOUS
 62
     7
  5
4D5
 66
     1
 10
0.0
 20
0.0
 30
0.0
  0
VERTEX
  8
6
  6
CONTINUOUS
 62
     7
  5
4D6
 10
936981.332
 20
7276538.87
 30
0.0
  0
VERTEX
  8
6
  6
CONTINUOUS
 62
     7
  5
4D7
 10
936861.545
 20
7276457.195
 30
0.0
  0
VERTEX
  8
6
  6
CONTINUOUS
 62
     7
  5
4D8
 10
936834.694
 20
7276379.324
 30
0.0
  0
VERTEX
  8
6
  6
CONTINUOUS
 62
     7
  5
4D9
 10
936618.197
 20
7276231.713
 30
0.0
  0
VERTEX
  8
6
  6
CONTINUOUS
 62
     7
  5
4DA
 10
936536.26
 20
7276235.406
 30
0.0
  0
VERTEX
  8
6
  6
CONTINUOUS
 62
     7
  5
4DB
 10
935723.391
 20
7275681.164
 30
0.0
  0
VERTEX
  8
6
  6
CONTINUOUS
 62
     7
  5
4DC
 10
935433.506
 20
7275523.22
 30
0.0
  0
VERTEX
  8
6
  6
CONTINUOUS
 62
     7
  5
4DD
 10
934957.775
 20
7275198.854
 30
0.0
  0
VERTEX
  8
6
  6
CONTINUOUS
 62
     7
  5
4DE
 10
934856.12
 20
7275347.947
 30
0.0
  0
VERTEX
  8
6
  6
CONTINUOUS
 62
     7
  5
4DF
 10
934590.474
 20
7275166.819
 30
0.0
  0
VERTEX
  8
6
  6
CONTINUOUS
 62
     7
  5
4E0
 10
934710.454
 20
7274990.85
 30
0.0
  0
VERTEX
  8
6
  6
CONTINUOUS
 62
     7
  5
4E1
 10
934703.558
 20
7274956.832
 30
0.0
  0
VERTEX
  8
6
  6
CONTINUOUS
 62
     7
  5
4E2
 10
934294.883
 20
7274673.296
 30
0.0
  0
SEQEND
  8
6
  6
CONTINUOUS
 62
     7
  5
4E3
  0
POLYLINE
  8
6
  6
CONTINUOUS
 62
     7
  5
4E4
 66
     1
 10
0.0
 20
0.0
 30
0.0
  0
VERTEX
  8
6
  6
CONTINUOUS
 62
     7
  5
4E5
 10
934290.503
 20
7274665.286
 30
0.0
  0
VERTEX
  8
6
  6
CONTINUOUS
 62
     7
  5
4E6
 10
934294.883
 20
7274673.296
 30
0.0
  0
VERTEX
  8
6
  6
CONTINUOUS
 62
     7
  5
4E7
 10
934703.558
 20
7274956.832
 30
0.0
  0
SEQEND
  8
6
  6
CONTINUOUS
 62
     7
  5
4E8
  0
ARC
  8
6
  6
CONTINUOUS
 62
     7
  5
4E9
 10
932302.979942
 20
7274736.460183
 30
0.0
 40
4607.743862
 50
8.098092
 51
12.359611
210
0.0
220
0.0
230
1.0
  0
LINE
  8
6
  6
CONTINUOUS
 62
     7
  5
4EA
 10
936803.932
 20
7275722.733
 30
0.0
 11
936713.529
 21
7275955.624
 31
0.0
  0
LINE
  8
6
  6
CONTINUOUS
 62
     7
  5
4EB
 10
936924.123
 20
7277296.276
 30
0.0
 11
936981.707
 21
7278803.712
 31
0.0
  0
ARC
  8
6
  6
CONTINUOUS
 62
     7
  5
4EC
 10
936951.728432
 20
7278804.856692
 30
0.0
 40
30.0
 50
357.812383
 51
88.125594
210
0.0
220
0.0
230
1.0
  0
ARC
  8
6
  6
CONTINUOUS
 62
     7
  5
4ED
 10
937412.03528
 20
7276387.621243
 30
0.0
 40
697.202414
 50
148.955219
 51
187.115236
210
0.0
220
0.0
230
1.0
  0
ARC
  8
6
  6
CONTINUOUS
 62
     7
  5
4EE
 10
936468.204829
 20
7277303.503655
 30
0.0
 40
455.975457
 50
332.133247
 51
359.091769
210
0.0
220
0.0
230
1.0
  0
ARC
  8
6
  6
CONTINUOUS
 62
     7
  5
4EF
 10
938021.696077
 20
7276221.615563
 30
0.0
 40
1403.5354
 50
155.084753
 51
179.587794
210
0.0
220
0.0
230
1.0
  0
LINE
  8
6
  6
CONTINUOUS
 62
     7
  5
4F0
 10
936748.785
 20
7276812.893
 30
0.0
 11
936871.304
 21
7277090.373
 31
0.0
  0
LINE
  8
6
  6
CONTINUOUS
 62
     7
  5
4F1
 10
936948.57
 20
7277054.528
 30
0.0
 11
936814.697
 21
7276747.174
 31
0.0
  0
ARC
  8
6
  6
CONTINUOUS
 62
     7
  5
4F2
 10
935578.807052
 20
7277590.95082
 30
0.0
 40
1471.054036
 50
338.613831
 51
345.404861
210
0.0
220
0.0
230
1.0
  0
LINE
  8
6
  6
CONTINUOUS
 62
     7
  5
4F3
 10
936799.75
 20
7276014.168
 30
0.0
 11
936950.282
 21
7275541.184
 31
0.0
  0
POLYLINE
  8
6
  6
CONTINUOUS
 62
     7
  5
4F4
 66
     1
 10
0.0
 20
0.0
 30
0.0
  0
VERTEX
  8
6
  6
CONTINUOUS
 62
     7
  5
4F5
 10
936967.369
 20
7276127.983
 30
0.0
  0
VERTEX
  8
6
  6
CONTINUOUS
 62
     7
  5
4F6
 10
935918.963
 20
7275416.106
 30
0.0
  0
VERTEX
  8
6
  6
CONTINUOUS
 62
     7
  5
4F7
 10
935683.809
 20
7275173.818
 30
0.0
  0
VERTEX
  8
6
  6
CONTINUOUS
 62
     7
  5
4F8
 10
935217.804
 20
7274856.08
 30
0.0
  0
VERTEX
  8
6
  6
CONTINUOUS
 62
     7
  5
4F9
 10
935354.628
 20
7274655.407
 30
0.0
  0
VERTEX
  8
6
  6
CONTINUOUS
 62
     7
  5
4FA
 10
935071.96
 20
7274462.676
 30
0.0
  0
VERTEX
  8
6
  6
CONTINUOUS
 62
     7
  5
4FB
 10
934931.095
 20
7274669.273
 30
0.0
  0
VERTEX
  8
6
  6
CONTINUOUS
 62
     7
  5
4FC
 10
934882.721
 20
7274677.972
 30
0.0
  0
VERTEX
  8
6
  6
CONTINUOUS
 62
     7
  5
4FD
 10
934743.924
 20
7274542.488
 30
0.0
  0
VERTEX
  8
6
  6
CONTINUOUS
 62
     7
  5
4FE
 10
934483.857
 20
7274248.794
 30
0.0
  0
VERTEX
  8
6
  6
CONTINUOUS
 62
     7
  5
4FF
 10
934377.394
 20
7274041.865
 30
0.0
  0
VERTEX
  8
6
  6
CONTINUOUS
 62
     7
  5
500
 10
934344.745
 20
7273914.781
 30
0.0
  0
VERTEX
  8
6
  6
CONTINUOUS
 62
     7
  5
501
 10
934301.861
 20
7273812.043
 30
0.0
  0
VERTEX
  8
6
  6
CONTINUOUS
 62
     7
  5
502
 10
934327.526
 20
7273791.38
 30
0.0
  0
SEQEND
  8
6
  6
CONTINUOUS
 62
     7
  5
503
  0
ENDSEC
  0
EOF
